  0
SECTION
  2
HEADER
  9
$ACADVER
  1
AC1018
  9
$ACADMAINTVER
 70
   104
  9
$DWGCODEPAGE
  3
ANSI_932
  9
$TITLE
  1
500ｋｇ LPガス容器
  9
$SUBJECT
  1
HP掲載図
  9
$AUTHOR
  1
宮崎
  9
$COMMENTS
  1
元図：ST-005-31200^M^J^M^J^M^JK-CADで作成した図をAuto-CAD化したもの^M^J^M^J標準図^M^J^M^J要目の内容は最新のものにしている
  9
$LASTSAVEDBY
  1
CKK004820
  9
$INSBASE
 10
0.0
 20
0.0
 30
0.0
  9
$EXTMIN
 10
74.99999999999999
 20
22.49999999999972
 30
0.0
  9
$EXTMAX
 10
4125.0
 20
2947.5
 30
0.0
  9
$LIMMIN
 10
0.0
 20
0.0
  9
$LIMMAX
 10
420.0
 20
297.0
  9
$ORTHOMODE
 70
     1
  9
$REGENMODE
 70
     1
  9
$FILLMODE
 70
     1
  9
$QTEXTMODE
 70
     0
  9
$MIRRTEXT
 70
     0
  9
$LTSCALE
 40
0.5
  9
$ATTMODE
 70
     1
  9
$TEXTSIZE
 40
4.0
  9
$TRACEWID
 40
1.0
  9
$TEXTSTYLE
  7
Standard
  9
$CLAYER
  8
Item
  9
$CELTYPE
  6
ByLayer
  9
$CECOLOR
 62
   256
  9
$CELTSCALE
 40
1.0
  9
$DISPSILH
 70
     0
  9
$DIMSCALE
 40
1.0
  9
$DIMASZ
 40
0.001
  9
$DIMEXO
 40
0.625
  9
$DIMDLI
 40
6.0
  9
$DIMRND
 40
0.0
  9
$DIMDLE
 40
0.0
  9
$DIMEXE
 40
1.25
  9
$DIMTP
 40
0.0
  9
$DIMTM
 40
0.000000001
  9
$DIMTXT
 40
4.0
  9
$DIMCEN
 40
0.0
  9
$DIMTSZ
 40
0.0
  9
$DIMTOL
 70
     0
  9
$DIMLIM
 70
     0
  9
$DIMTIH
 70
     0
  9
$DIMTOH
 70
     0
  9
$DIMSE1
 70
     0
  9
$DIMSE2
 70
     0
  9
$DIMTAD
 70
     1
  9
$DIMZIN
 70
     8
  9
$DIMBLK
  1
30a
  9
$DIMASO
 70
     1
  9
$DIMSHO
 70
     1
  9
$DIMPOST
  1

  9
$DIMAPOST
  1

  9
$DIMALT
 70
     0
  9
$DIMALTD
 70
     3
  9
$DIMALTF
 40
0.03937007874016
  9
$DIMLFAC
 40
1.0
  9
$DIMTOFL
 70
     0
  9
$DIMTVP
 40
0.0
  9
$DIMTIX
 70
     0
  9
$DIMSOXD
 70
     0
  9
$DIMSAH
 70
     0
  9
$DIMBLK1
  1

  9
$DIMBLK2
  1

  9
$DIMSTYLE
  2
設計
  9
$DIMCLRD
 70
     0
  9
$DIMCLRE
 70
     0
  9
$DIMCLRT
 70
     0
  9
$DIMTFAC
 40
0.5
  9
$DIMGAP
 40
0.625
  9
$DIMJUST
 70
     0
  9
$DIMSD1
 70
     0
  9
$DIMSD2
 70
     0
  9
$DIMTOLJ
 70
     0
  9
$DIMTZIN
 70
     8
  9
$DIMALTZ
 70
     0
  9
$DIMALTTZ
 70
     0
  9
$DIMUPT
 70
     0
  9
$DIMDEC
 70
     2
  9
$DIMTDEC
 70
     2
  9
$DIMALTU
 70
     2
  9
$DIMALTTD
 70
     3
  9
$DIMTXSTY
  7
Standard
  9
$DIMAUNIT
 70
     0
  9
$DIMADEC
 70
     0
  9
$DIMALTRND
 40
0.0
  9
$DIMAZIN
 70
     0
  9
$DIMDSEP
 70
    46
  9
$DIMATFIT
 70
     3
  9
$DIMFRAC
 70
     0
  9
$DIMLDRBLK
  1
30a
  9
$DIMLUNIT
 70
     2
  9
$DIMLWD
 70
     9
  9
$DIMLWE
 70
     9
  9
$DIMTMOVE
 70
     0
  9
$LUNITS
 70
     2
  9
$LUPREC
 70
     4
  9
$SKETCHINC
 40
1.0
  9
$FILLETRAD
 40
0.0
  9
$AUNITS
 70
     0
  9
$AUPREC
 70
     8
  9
$MENU
  1
.
  9
$ELEVATION
 40
0.0
  9
$PELEVATION
 40
0.0
  9
$THICKNESS
 40
0.0
  9
$LIMCHECK
 70
     0
  9
$CHAMFERA
 40
0.5
  9
$CHAMFERB
 40
0.5
  9
$CHAMFERC
 40
0.0
  9
$CHAMFERD
 40
0.0
  9
$SKPOLY
 70
     0
  9
$TDCREATE
 40
2460957.470532408
  9
$TDUCREATE
 40
2460957.095532408
  9
$TDUPDATE
 40
2460957.471886574
  9
$TDUUPDATE
 40
2460957.096886574
  9
$TDINDWG
 40
0.0013425926
  9
$TDUSRTIMER
 40
0.0013425926
  9
$USRTIMER
 70
     1
  9
$ANGBASE
 50
0.0
  9
$ANGDIR
 70
     0
  9
$PDMODE
 70
     0
  9
$PDSIZE
 40
0.0
  9
$PLINEWID
 40
0.0
  9
$SPLFRAME
 70
     0
  9
$SPLINETYPE
 70
     6
  9
$SPLINESEGS
 70
     8
  9
$HANDSEED
  5
806
  9
$SURFTAB1
 70
     6
  9
$SURFTAB2
 70
     6
  9
$SURFTYPE
 70
     6
  9
$SURFU
 70
     6
  9
$SURFV
 70
     6
  9
$UCSBASE
  2

  9
$UCSNAME
  2

  9
$UCSORG
 10
0.0
 20
0.0
 30
0.0
  9
$UCSXDIR
 10
1.0
 20
0.0
 30
0.0
  9
$UCSYDIR
 10
0.0
 20
1.0
 30
0.0
  9
$UCSORTHOREF
  2

  9
$UCSORTHOVIEW
 70
     0
  9
$UCSORGTOP
 10
0.0
 20
0.0
 30
0.0
  9
$UCSORGBOTTOM
 10
0.0
 20
0.0
 30
0.0
  9
$UCSORGLEFT
 10
0.0
 20
0.0
 30
0.0
  9
$UCSORGRIGHT
 10
0.0
 20
0.0
 30
0.0
  9
$UCSORGFRONT
 10
0.0
 20
0.0
 30
0.0
  9
$UCSORGBACK
 10
0.0
 20
0.0
 30
0.0
  9
$PUCSBASE
  2

  9
$PUCSNAME
  2

  9
$PUCSORG
 10
0.0
 20
0.0
 30
0.0
  9
$PUCSXDIR
 10
1.0
 20
0.0
 30
0.0
  9
$PUCSYDIR
 10
0.0
 20
1.0
 30
0.0
  9
$PUCSORTHOREF
  2

  9
$PUCSORTHOVIEW
 70
     0
  9
$PUCSORGTOP
 10
0.0
 20
0.0
 30
0.0
  9
$PUCSORGBOTTOM
 10
0.0
 20
0.0
 30
0.0
  9
$PUCSORGLEFT
 10
0.0
 20
0.0
 30
0.0
  9
$PUCSORGRIGHT
 10
0.0
 20
0.0
 30
0.0
  9
$PUCSORGFRONT
 10
0.0
 20
0.0
 30
0.0
  9
$PUCSORGBACK
 10
0.0
 20
0.0
 30
0.0
  9
$USERI1
 70
     0
  9
$USERI2
 70
     0
  9
$USERI3
 70
     0
  9
$USERI4
 70
     0
  9
$USERI5
 70
     0
  9
$USERR1
 40
0.0
  9
$USERR2
 40
0.0
  9
$USERR3
 40
0.0
  9
$USERR4
 40
0.0
  9
$USERR5
 40
0.0
  9
$WORLDVIEW
 70
     1
  9
$SHADEDGE
 70
     3
  9
$SHADEDIF
 70
    70
  9
$TILEMODE
 70
     1
  9
$MAXACTVP
 70
    64
  9
$PINSBASE
 10
0.0
 20
0.0
 30
0.0
  9
$PLIMCHECK
 70
     0
  9
$PEXTMIN
 10
29.69999999999999
 20
21.0
 30
0.0
  9
$PEXTMAX
 10
267.3
 20
189.0
 30
0.0
  9
$PLIMMIN
 10
0.0
 20
0.0
  9
$PLIMMAX
 10
297.0
 20
210.0
  9
$UNITMODE
 70
     0
  9
$VISRETAIN
 70
     1
  9
$PLINEGEN
 70
     0
  9
$PSLTSCALE
 70
     1
  9
$TREEDEPTH
 70
  3020
  9
$CMLSTYLE
  2
Standard
  9
$CMLJUST
 70
     0
  9
$CMLSCALE
 40
20.0
  9
$PROXYGRAPHICS
 70
     1
  9
$MEASUREMENT
 70
     1
  9
$CELWEIGHT
370
    -1
  9
$ENDCAPS
280
     0
  9
$JOINSTYLE
280
     0
  9
$LWDISPLAY
290
     0
  9
$INSUNITS
 70
     4
  9
$HYPERLINKBASE
  1

  9
$STYLESHEET
  1

  9
$XEDIT
290
     1
  9
$CEPSNTYPE
380
     0
  9
$PSTYLEMODE
290
     0
  9
$FINGERPRINTGUID
  2
{93DF0850-E8D4-B54A-AAFE-9AAFF23C5EC5}
  9
$VERSIONGUID
  2
{00774D25-5F4E-C843-B541-75E4863C0BD9}
  9
$EXTNAMES
290
     1
  9
$PSVPSCALE
 40
0.0
  9
$OLESTARTUP
290
     0
  9
$SORTENTS
280
   127
  9
$INDEXCTL
280
     0
  9
$HIDETEXT
280
     1
  9
$XCLIPFRAME
290
     0
  9
$HALOGAP
280
     0
  9
$OBSCOLOR
 70
   257
  9
$OBSLTYPE
280
     0
  9
$INTERSECTIONDISPLAY
280
     0
  9
$INTERSECTIONCOLOR
 70
   257
  9
$DIMASSOC
280
     2
  9
$PROJECTNAME
  1

  0
ENDSEC
  0
SECTION
  2
CLASSES
  0
CLASS
  1
ACDBDICTIONARYWDFLT
  2
AcDbDictionaryWithDefault
  3
ObjectDBX Classes
 90
        0
 91
        1
280
     0
281
     0
  0
CLASS
  1
MATERIAL
  2
AcDbMaterial
  3
ObjectDBX Classes
 90
     1153
 91
        3
280
     0
281
     0
  0
CLASS
  1
VISUALSTYLE
  2
AcDbVisualStyle
  3
ObjectDBX Classes
 90
     4095
 91
       24
280
     0
281
     0
  0
CLASS
  1
SCALE
  2
AcDbScale
  3
ObjectDBX Classes
 90
     1153
 91
       17
280
     0
281
     0
  0
CLASS
  1
TABLESTYLE
  2
AcDbTableStyle
  3
ObjectDBX Classes
 90
     4095
 91
        1
280
     0
281
     0
  0
CLASS
  1
MLEADERSTYLE
  2
AcDbMLeaderStyle
  3
ACDB_MLEADERSTYLE_CLASS
 90
     4095
 91
        1
280
     0
281
     0
  0
CLASS
  1
ACDBSECTIONVIEWSTYLE
  2
AcDbSectionViewStyle
  3
ObjectDBX Classes
 90
     1025
 91
        2
280
     0
281
     0
  0
CLASS
  1
ACDBDETAILVIEWSTYLE
  2
AcDbDetailViewStyle
  3
ObjectDBX Classes
 90
     1025
 91
        2
280
     0
281
     0
  0
CLASS
  1
SORTENTSTABLE
  2
AcDbSortentsTable
  3
ObjectDBX Classes
 90
        0
 91
        2
280
     0
281
     0
  0
CLASS
  1
DIMASSOC
  2
AcDbDimAssoc
  3
"AcDbDimAssoc|Product Desc:     AcDim ARX App For Dimension|Company:          Autodesk, Inc.|WEB Address:      www.autodesk.com"
 90
        0
 91
        4
280
     0
281
     0
  0
CLASS
  1
DICTIONARYVAR
  2
AcDbDictionaryVar
  3
ObjectDBX Classes
 90
        0
 91
       10
280
     0
281
     0
  0
CLASS
  1
CELLSTYLEMAP
  2
AcDbCellStyleMap
  3
ObjectDBX Classes
 90
     1152
 91
        1
280
     0
281
     0
  0
ENDSEC
  0
SECTION
  2
TABLES
  0
TABLE
  2
VPORT
  5
8
330
0
100
AcDbSymbolTable
 70
     1
  0
VPORT
  5
57
330
8
100
AcDbSymbolTableRecord
100
AcDbViewportTableRecord
  2
*Active
 70
     0
 10
0.0
 20
0.0
 11
1.0
 21
1.0
 12
2099.999997164976
 22
1484.999998259472
 13
0.0
 23
0.0
 14
10.0
 24
10.0
 15
10.0
 25
10.0
 16
0.0
 26
0.0
 36
1.0
 17
0.0
 27
0.0
 37
0.0
 40
2944.897960958646
 41
1.62883087400681
 42
50.0
 43
0.0
 44
0.0
 50
0.0
 51
0.0
 71
     0
 72
  1000
 73
     1
 74
     1
 75
     0
 76
     0
 77
     0
 78
     0
281
     0
 65
     1
110
0.0
120
0.0
130
0.0
111
1.0
121
0.0
131
0.0
112
0.0
122
1.0
132
0.0
 79
     0
146
0.0
1001
ACAD_NAV_VCDISPLAY
1070
     3
  0
ENDTAB
  0
TABLE
  2
LTYPE
  5
5
330
0
100
AcDbSymbolTable
 70
     6
  0
LTYPE
  5
5B
330
5
100
AcDbSymbolTableRecord
100
AcDbLinetypeTableRecord
  2
ByBlock
 70
     0
  3

 72
    65
 73
     0
 40
0.0
  0
LTYPE
  5
5C
330
5
100
AcDbSymbolTableRecord
100
AcDbLinetypeTableRecord
  2
ByLayer
 70
     0
  3

 72
    65
 73
     0
 40
0.0
  0
LTYPE
  5
5D
330
5
100
AcDbSymbolTableRecord
100
AcDbLinetypeTableRecord
  2
Continuous
 70
     0
  3
Solid line
 72
    65
 73
     0
 40
0.0
  0
LTYPE
  5
7A
330
5
100
AcDbSymbolTableRecord
100
AcDbLinetypeTableRecord
  2
CENTER2
 70
     0
  3
Center (.5x) ___ _ ___ _ ___ _ ___ _ ___ _ ___
 72
    65
 73
     4
 40
28.575
 49
19.05
 74
     0
 49
-3.174999999999999
 74
     0
 49
3.174999999999999
 74
     0
 49
-3.174999999999999
 74
     0
  0
LTYPE
  5
7B
330
5
100
AcDbSymbolTableRecord
100
AcDbLinetypeTableRecord
  2
DASHED2
 70
     0
  3
Dashed (.5x) _ _ _ _ _ _ _ _ _ _ _ _ _ _ _ _ _
 72
    65
 73
     2
 40
9.524999999999998
 49
6.349999999999999
 74
     0
 49
-3.174999999999999
 74
     0
  0
LTYPE
  5
7C
330
5
100
AcDbSymbolTableRecord
100
AcDbLinetypeTableRecord
  2
HIDDEN2
 70
     0
  3
Hidden (.5x) _ _ _ _ _ _ _ _ _ _ _ _ _ _ _ _ _
 72
    65
 73
     2
 40
4.762499999999999
 49
3.174999999999999
 74
     0
 49
-1.587499999999999
 74
     0
  0
ENDTAB
  0
TABLE
  2
LAYER
  5
2
102
{ACAD_XDICTIONARY
360
793
102
}
330
0
100
AcDbSymbolTable
 70
     8
  0
LAYER
  5
54
102
{ACAD_XDICTIONARY
360
7B4
102
}
330
2
100
AcDbSymbolTableRecord
100
AcDbLayerTableRecord
  2
0
 70
     0
 62
     7
  6
Continuous
370
    -3
390
82
1001
AcAecLayerStandard
1000

1000

  0
LAYER
  5
79
330
2
100
AcDbSymbolTableRecord
100
AcDbLayerTableRecord
  2
Defpoints
 70
     0
 62
   151
  6
Continuous
290
     0
370
    -3
390
82
1001
AcAecLayerStandard
1000

1000
非表示用
  0
LAYER
  5
93
102
{ACAD_XDICTIONARY
360
94
102
}
330
2
100
AcDbSymbolTableRecord
100
AcDbLayerTableRecord
  2
Line
 70
     0
 62
     3
  6
Continuous
370
    30
390
82
1001
AcAecLayerStandard
1000

1000
実線
  0
LAYER
  5
AD
102
{ACAD_XDICTIONARY
360
AE
102
}
330
2
100
AcDbSymbolTableRecord
100
AcDbLayerTableRecord
  2
Center
 70
     0
 62
     2
  6
CENTER2
370
     9
390
82
1001
AcAecLayerStandard
1000

1000
一点鎖線
  0
LAYER
  5
B1
102
{ACAD_XDICTIONARY
360
B2
102
}
330
2
100
AcDbSymbolTableRecord
100
AcDbLayerTableRecord
  2
Hidden
 70
     0
 62
     7
  6
HIDDEN2
370
     9
390
82
1001
AcAecLayerStandard
1000

1000
点線
  0
LAYER
  5
35E
102
{ACAD_XDICTIONARY
360
35F
102
}
330
2
100
AcDbSymbolTableRecord
100
AcDbLayerTableRecord
  2
Size
 70
     0
 62
    40
  6
Continuous
370
    30
390
82
1001
AcAecLayerStandard
1000

1000
寸法
  0
LAYER
  5
3C1
102
{ACAD_XDICTIONARY
360
3C2
102
}
330
2
100
AcDbSymbolTableRecord
100
AcDbLayerTableRecord
  2
Item
 70
     0
 62
     7
  6
Continuous
370
     9
390
82
1001
AcAecLayerStandard
1000

1000
バルーン、仕上げ記号
  0
LAYER
  5
3C9
102
{ACAD_XDICTIONARY
360
3CA
102
}
330
2
100
AcDbSymbolTableRecord
100
AcDbLayerTableRecord
  2
Text
 70
     0
 62
     7
  6
Continuous
370
    30
390
82
1001
AcAecLayerStandard
1000

1000
文字
  0
ENDTAB
  0
TABLE
  2
STYLE
  5
3
330
0
100
AcDbSymbolTable
 70
     2
  0
STYLE
  5
55
330
3
100
AcDbSymbolTableRecord
100
AcDbTextStyleTableRecord
  2
Standard
 70
     0
 40
0.0
 41
1.0
 50
0.0
 71
     0
 42
4.0
  3
exthalf2.shx
  4
extfont2.shx
  0
STYLE
  5
5A
330
3
100
AcDbSymbolTableRecord
100
AcDbTextStyleTableRecord
  2
Annotative
 70
     0
 40
0.0
 41
1.0
 50
0.0
 71
     0
 42
0.2
  3
txt
  4

1001
AcadAnnotative
1000
AnnotativeData
1002
{
1070
     1
1070
     1
1002
}
  0
ENDTAB
  0
TABLE
  2
VIEW
  5
6
330
0
100
AcDbSymbolTable
 70
     2
  0
ENDTAB
  0
TABLE
  2
UCS
  5
7
330
0
100
AcDbSymbolTable
 70
     0
  0
ENDTAB
  0
TABLE
  2
APPID
  5
9
330
0
100
AcDbSymbolTable
 70
    16
  0
APPID
  5
56
330
9
100
AcDbSymbolTableRecord
100
AcDbRegAppTableRecord
  2
ACAD
 70
     0
  0
APPID
  5
5E
330
9
100
AcDbSymbolTableRecord
100
AcDbRegAppTableRecord
  2
AcadAnnotative
 70
     0
  0
APPID
  5
78
330
9
100
AcDbSymbolTableRecord
100
AcDbRegAppTableRecord
  2
ACAD_PSEXT
 70
     0
  0
APPID
  5
84
330
9
100
AcDbSymbolTableRecord
100
AcDbRegAppTableRecord
  2
AcDbBlockRepETag
 70
     0
  0
APPID
  5
88
330
9
100
AcDbSymbolTableRecord
100
AcDbRegAppTableRecord
  2
AcDbDynamicBlockGUID
 70
     0
  0
APPID
  5
89
330
9
100
AcDbSymbolTableRecord
100
AcDbRegAppTableRecord
  2
ACAD_DSTYLE_DIMJOGGED_JOGANGLE_SYMBOL
 70
     0
  0
APPID
  5
96
330
9
100
AcDbSymbolTableRecord
100
AcDbRegAppTableRecord
  2
AcAecLayerStandard
 70
     0
  0
APPID
  5
97
330
9
100
AcDbSymbolTableRecord
100
AcDbRegAppTableRecord
  2
Sigma
 70
     0
  0
APPID
  5
32F
330
9
100
AcDbSymbolTableRecord
100
AcDbRegAppTableRecord
  2
ACAD_DIMASSOC_OVERRIDDEN_DIMLFAC
 70
     0
  0
APPID
  5
330
330
9
100
AcDbSymbolTableRecord
100
AcDbRegAppTableRecord
  2
ACAD_DIMASSOC_CALC_DIMLFAC
 70
     0
  0
APPID
  5
331
330
9
100
AcDbSymbolTableRecord
100
AcDbRegAppTableRecord
  2
ACAD_DIMASSOC_DIMLFAC
 70
     0
  0
APPID
  5
787
330
9
100
AcDbSymbolTableRecord
100
AcDbRegAppTableRecord
  2
ACAD_EXEMPT_FROM_CAD_STANDARDS
 70
     0
  0
APPID
  5
79A
330
9
100
AcDbSymbolTableRecord
100
AcDbRegAppTableRecord
  2
ACAD_NAV_VCDISPLAY
 70
     0
  0
APPID
  5
7F9
330
9
100
AcDbSymbolTableRecord
100
AcDbRegAppTableRecord
  2
ACAD_MLEADERVER
 70
     0
  0
APPID
  5
800
330
9
100
AcDbSymbolTableRecord
100
AcDbRegAppTableRecord
  2
ACAD_DSTYLE_DIMARC_LENGTH_SYMBOL
 70
     0
  0
APPID
  5
801
330
9
100
AcDbSymbolTableRecord
100
AcDbRegAppTableRecord
  2
ACAD_DSTYLE_DIMEXT_LENGTH
 70
     0
  0
ENDTAB
  0
TABLE
  2
DIMSTYLE
  5
A
330
0
100
AcDbSymbolTable
 70
     5
100
AcDbDimStyleTable
 71
     1
340
7D
  0
DIMSTYLE
105
58
330
A
100
AcDbSymbolTableRecord
100
AcDbDimStyleTableRecord
  2
Standard
 70
     0
340
55
  0
DIMSTYLE
105
59
330
A
100
AcDbSymbolTableRecord
100
AcDbDimStyleTableRecord
  2
Annotative
 70
     0
340
55
1001
AcadAnnotative
1000
AnnotativeData
1002
{
1070
     1
1070
     1
1002
}
  0
DIMSTYLE
105
7D
330
A
100
AcDbSymbolTableRecord
100
AcDbDimStyleTableRecord
  2
設計
 70
     0
 41
0.001
 42
0.625
 43
6.0
 44
1.25
 48
0.000000001
 73
     0
 74
     0
 77
     1
 78
     8
140
4.0
141
0.0
143
0.03937007874016
146
0.5
147
0.625
171
     3
271
     2
272
     2
274
     3
283
     0
284
     8
340
55
341
7E
342
7E
371
     9
372
     9
1001
ACAD_DSTYLE_DIMARC_LENGTH_SYMBOL
1070
   379
1070
     1
1001
ACAD_DSTYLE_DIMEXT_LENGTH
1070
   378
1040
1.25
1001
ACAD_DSTYLE_DIMJOGGED_JOGANGLE_SYMBOL
1070
   384
1040
1.570796326794896
  0
DIMSTYLE
105
8A
330
A
100
AcDbSymbolTableRecord
100
AcDbDimStyleTableRecord
  2
設計$2
 70
     0
 41
2.0
 42
0.625
 43
6.0
 44
1.25
 48
0.000000001
 73
     0
 74
     0
 77
     1
 78
     8
140
4.0
141
0.0
143
0.03937007874016
146
0.5
147
0.625
171
     3
271
     2
272
     2
274
     3
283
     0
284
     8
340
55
341
7E
342
8B
371
     9
372
     9
1001
ACAD_DSTYLE_DIMARC_LENGTH_SYMBOL
1070
   379
1070
     1
1001
ACAD_DSTYLE_DIMEXT_LENGTH
1070
   378
1040
1.25
1001
ACAD_DSTYLE_DIMJOGGED_JOGANGLE_SYMBOL
1070
   384
1040
1.570796326794896
  0
ENDTAB
  0
TABLE
  2
BLOCK_RECORD
  5
1
330
0
100
AcDbSymbolTable
 70
    26
  0
BLOCK_RECORD
  5
70
102
{ACAD_XDICTIONARY
360
317
102
}
330
1
100
AcDbSymbolTableRecord
100
AcDbBlockTableRecord
  2
*Model_Space
340
73
  0
BLOCK_RECORD
  5
6C
330
1
100
AcDbSymbolTableRecord
100
AcDbBlockTableRecord
  2
*Paper_Space
340
6F
  0
BLOCK_RECORD
  5
7E
102
{ACAD_XDICTIONARY
360
7F
102
}
330
1
100
AcDbSymbolTableRecord
100
AcDbBlockTableRecord
  2
30a
340
0
102
{BLKREFS
331
74A
331
751
331
752
331
757
331
758
331
75D
331
75E
331
763
331
764
331
767
331
768
331
76A
331
76D
331
76F
331
771
331
773
331
6FD
331
6FE
331
706
331
707
331
70F
331
710
331
718
331
719
331
722
331
725
331
72D
331
72E
331
736
331
737
331
740
331
741
331
747
331
699
331
69A
331
6A1
331
6A2
331
6A9
331
6AA
102
}
1001
AcDbDynamicBlockGUID
1000
{389DF1C4-3B1C-4050-A5E6-C67CA2AE57A6}
1001
AcDbBlockRepETag
1070
     1
1071
        6
1001
ACAD
1000
DesignCenter Data
1002
{
1070
     1
1070
     4
1002
}
  0
BLOCK_RECORD
  5
8B
330
1
100
AcDbSymbolTableRecord
100
AcDbBlockTableRecord
  2
_Open30
340
0
102
{BLKREFS
331
6B0
331
6B1
102
}
  0
BLOCK_RECORD
  5
40D
330
1
100
AcDbSymbolTableRecord
100
AcDbBlockTableRecord
  2
*D14
340
0
  0
BLOCK_RECORD
  5
418
330
1
100
AcDbSymbolTableRecord
100
AcDbBlockTableRecord
  2
*D15
340
0
  0
BLOCK_RECORD
  5
423
330
1
100
AcDbSymbolTableRecord
100
AcDbBlockTableRecord
  2
*D16
340
0
  0
BLOCK_RECORD
  5
42E
330
1
100
AcDbSymbolTableRecord
100
AcDbBlockTableRecord
  2
*D17
340
0
  0
BLOCK_RECORD
  5
43A
330
1
100
AcDbSymbolTableRecord
100
AcDbBlockTableRecord
  2
*D18
340
0
  0
BLOCK_RECORD
  5
446
330
1
100
AcDbSymbolTableRecord
100
AcDbBlockTableRecord
  2
*D19
340
0
  0
BLOCK_RECORD
  5
457
330
1
100
AcDbSymbolTableRecord
100
AcDbBlockTableRecord
  2
*D20
340
0
  0
BLOCK_RECORD
  5
463
330
1
100
AcDbSymbolTableRecord
100
AcDbBlockTableRecord
  2
*D21
340
0
  0
BLOCK_RECORD
  5
46F
330
1
100
AcDbSymbolTableRecord
100
AcDbBlockTableRecord
  2
*D22
340
0
  0
BLOCK_RECORD
  5
47B
330
1
100
AcDbSymbolTableRecord
100
AcDbBlockTableRecord
  2
*D23
340
0
  0
BLOCK_RECORD
  5
487
330
1
100
AcDbSymbolTableRecord
100
AcDbBlockTableRecord
  2
*D24
340
0
  0
ENDTAB
  0
ENDSEC
  0
SECTION
  2
BLOCKS
  0
BLOCK
  5
71
330
70
100
AcDbEntity
  8
0
100
AcDbBlockBegin
  2
*Model_Space
 70
     0
 10
0.0
 20
0.0
 30
0.0
  3
*Model_Space
  1

  0
ENDBLK
  5
72
330
70
100
AcDbEntity
  8
0
100
AcDbBlockEnd
  0
BLOCK
  5
6D
330
6C
100
AcDbEntity
 67
     1
  8
0
100
AcDbBlockBegin
  2
*Paper_Space
 70
     0
 10
0.0
 20
0.0
 30
0.0
  3
*Paper_Space
  1

  0
ENDBLK
  5
6E
330
6C
100
AcDbEntity
 67
     1
  8
0
100
AcDbBlockEnd
  0
BLOCK
  5
81
330
7E
100
AcDbEntity
  8
0
390
82
100
AcDbBlockBegin
  2
30a
 70
     0
 10
0.0
 20
0.0
 30
0.0
  3
30a
  1

  0
LINE
  5
83
330
7E
100
AcDbEntity
  8
0
  6
ByBlock
 62
     0
370
    -2
100
AcDbLine
 10
0.0000000000002331
 20
0.0000000000000381
 30
0.0
 11
-3500.0
 21
0.0000000000002524
 31
0.0
1001
AcDbBlockRepETag
1070
     1
1071
        3
1005
83
  0
LINE
  5
85
330
7E
100
AcDbEntity
  8
0
  6
ByBlock
 62
     0
370
    -2
100
AcDbLine
 10
0.0000000000003695
 20
0.0000000000000076
 30
0.0
 11
-1931.851652578136
 21
517.6380902050417
 31
0.0
1001
AcDbBlockRepETag
1070
     1
1071
        4
1005
85
  0
LINE
  5
86
330
7E
100
AcDbEntity
  8
0
  6
ByBlock
 62
     0
370
    -2
100
AcDbLine
 10
0.0000000000003695
 20
0.0000000000000076
 30
0.0
 11
-1931.851652578136
 21
-517.6380902050413
 31
0.0
1001
AcDbBlockRepETag
1070
     1
1071
        5
1005
86
  0
ENDBLK
  5
87
330
7E
100
AcDbEntity
  8
0
390
82
100
AcDbBlockEnd
  0
BLOCK
  5
8C
330
8B
100
AcDbEntity
  8
0
100
AcDbBlockBegin
  2
_Open30
 70
     0
 10
0.0
 20
0.0
 30
0.0
  3
_Open30
  1

  0
LINE
  5
8D
330
8B
100
AcDbEntity
  8
0
  6
ByBlock
 62
     0
370
    -2
100
AcDbLine
 10
-1.0
 20
0.26794919
 30
0.0
 11
0.0
 21
0.0
 31
0.0
  0
LINE
  5
8E
330
8B
100
AcDbEntity
  8
0
  6
ByBlock
 62
     0
370
    -2
100
AcDbLine
 10
0.0
 20
0.0
 30
0.0
 11
-1.0
 21
-0.26794919
 31
0.0
  0
LINE
  5
8F
330
8B
100
AcDbEntity
  8
0
  6
ByBlock
 62
     0
370
    -2
100
AcDbLine
 10
0.0
 20
0.0
 30
0.0
 11
-1.0
 21
0.0
 31
0.0
  0
ENDBLK
  5
90
330
8B
100
AcDbEntity
  8
0
100
AcDbBlockEnd
  0
BLOCK
  5
40E
330
40D
100
AcDbEntity
  8
0
100
AcDbBlockBegin
  2
*D14
 70
     1
 10
0.0
 20
0.0
 30
0.0
  3
*D14
  1

  0
LINE
  5
697
330
40D
100
AcDbEntity
  8
Defpoints
 62
     0
440
 16777216
370
     9
100
AcDbLine
 10
990.0988346699557
 20
1359.999999805802
 30
0.0
 11
1029.861129812766
 21
1359.999999805802
 31
0.0
  0
LINE
  5
698
330
40D
100
AcDbEntity
  8
Defpoints
 62
     0
440
 16777216
370
     9
100
AcDbLine
 10
1028.611129812766
 20
1360.000999805802
 30
0.0
 11
1028.611129812766
 21
1484.999
 31
0.0
  0
INSERT
  5
699
330
40D
100
AcDbEntity
  8
Defpoints
 62
     0
440
 16777216
370
     9
100
AcDbBlockReference
  2
30a
 10
1028.611129812766
 20
1359.999999805802
 30
0.0
 41
0.001
 42
0.001
 43
0.001
 50
270.0
  0
INSERT
  5
69A
330
40D
100
AcDbEntity
  8
Defpoints
 62
     0
440
 16777216
370
     9
100
AcDbBlockReference
  2
30a
 10
1028.611129812766
 20
1485.0
 30
0.0
 41
0.001
 42
0.001
 43
0.001
 50
90.0
  0
MTEXT
  5
69B
330
40D
100
AcDbEntity
  8
Defpoints
 62
     0
440
 16777216
100
AcDbMText
 10
1025.986129812766
 20
1422.499999902901
 30
0.0
 40
4.0
 41
0.0
 71
     5
 72
     1
  1
1250
 11
0.0000000000000001
 21
1.0
 31
0.0
 73
     1
 44
1.0
  0
POINT
  5
69C
330
40D
100
AcDbEntity
  8
Defpoints
 62
     0
440
 16777216
100
AcDbPoint
 10
989.4738346699558
 20
1359.999999805802
 30
0.0
  0
POINT
  5
69D
330
40D
100
AcDbEntity
  8
Defpoints
 62
     0
440
 16777216
100
AcDbPoint
 10
954.0783428119658
 20
1485.0
 30
0.0
  0
POINT
  5
69E
330
40D
100
AcDbEntity
  8
Defpoints
 62
     0
440
 16777216
100
AcDbPoint
 10
1028.611129812766
 20
1485.0
 30
0.0
  0
ENDBLK
  5
40F
330
40D
100
AcDbEntity
  8
0
100
AcDbBlockEnd
  0
BLOCK
  5
419
330
418
100
AcDbEntity
  8
0
100
AcDbBlockBegin
  2
*D15
 70
     1
 10
0.0
 20
0.0
 30
0.0
  3
*D15
  1

  0
LINE
  5
69F
330
418
100
AcDbEntity
  8
Defpoints
 62
     0
440
 16777216
370
     9
100
AcDbLine
 10
980.0988346544199
 20
1647.000000251682
 30
0.0
 11
1029.861129812766
 21
1647.000000251682
 31
0.0
  0
LINE
  5
6A0
330
418
100
AcDbEntity
  8
Defpoints
 62
     0
440
 16777216
370
     9
100
AcDbLine
 10
1028.611129812766
 20
1485.001
 30
0.0
 11
1028.611129812766
 21
1646.999000251682
 31
0.0
  0
INSERT
  5
6A1
330
418
100
AcDbEntity
  8
Defpoints
 62
     0
440
 16777216
370
     9
100
AcDbBlockReference
  2
30a
 10
1028.611129812766
 20
1485.0
 30
0.0
 41
0.001
 42
0.001
 43
0.001
 50
270.0
  0
INSERT
  5
6A2
330
418
100
AcDbEntity
  8
Defpoints
 62
     0
440
 16777216
370
     9
100
AcDbBlockReference
  2
30a
 10
1028.611129812766
 20
1647.000000251682
 30
0.0
 41
0.001
 42
0.001
 43
0.001
 50
90.0
  0
MTEXT
  5
6A3
330
418
100
AcDbEntity
  8
Defpoints
 62
     0
440
 16777216
100
AcDbMText
 10
1025.986129812766
 20
1566.000000125841
 30
0.0
 40
4.0
 41
0.0
 71
     5
 72
     1
  1
1620
 11
0.0000000000000001
 21
1.0
 31
0.0
 73
     1
 44
1.0
  0
POINT
  5
6A4
330
418
100
AcDbEntity
  8
Defpoints
 62
     0
440
 16777216
100
AcDbPoint
 10
954.0783428119658
 20
1485.0
 30
0.0
  0
POINT
  5
6A5
330
418
100
AcDbEntity
  8
Defpoints
 62
     0
440
 16777216
100
AcDbPoint
 10
979.4738346544198
 20
1647.000000251682
 30
0.0
  0
POINT
  5
6A6
330
418
100
AcDbEntity
  8
Defpoints
 62
     0
440
 16777216
100
AcDbPoint
 10
1028.611129812766
 20
1647.000000251682
 30
0.0
  0
ENDBLK
  5
41A
330
418
100
AcDbEntity
  8
0
100
AcDbBlockEnd
  0
BLOCK
  5
424
330
423
100
AcDbEntity
  8
0
100
AcDbBlockBegin
  2
*D16
 70
     1
 10
0.0
 20
0.0
 30
0.0
  3
*D16
  1

  0
LINE
  5
6A7
330
423
100
AcDbEntity
  8
Defpoints
 62
     0
440
 16777216
370
     9
100
AcDbLine
 10
800.0783425727131
 20
1434.656762217838
 30
0.0
 11
800.0783425727131
 21
1413.668032678001
 31
0.0
  0
LINE
  5
6A8
330
423
100
AcDbEntity
  8
Defpoints
 62
     0
440
 16777216
370
     9
100
AcDbLine
 10
800.0793425727131
 20
1414.918032678001
 30
0.0
 11
925.0773427669114
 21
1414.918032678001
 31
0.0
  0
INSERT
  5
6A9
330
423
100
AcDbEntity
  8
Defpoints
 62
     0
440
 16777216
370
     9
100
AcDbBlockReference
  2
30a
 10
800.0783425727131
 20
1414.918032678001
 30
0.0
 41
0.001
 42
0.001
 43
0.001
 50
180.0
  0
INSERT
  5
6AA
330
423
100
AcDbEntity
  8
Defpoints
 62
     0
440
 16777216
370
     9
100
AcDbBlockReference
  2
30a
 10
925.0783427669114
 20
1414.918032678001
 30
0.0
 41
0.001
 42
0.001
 43
0.001
  0
MTEXT
  5
6AB
330
423
100
AcDbEntity
  8
Defpoints
 62
     0
440
 16777216
100
AcDbMText
 10
862.5783426698122
 20
1417.543032678001
 30
0.0
 40
4.0
 41
0.0
 71
     5
 72
     1
  1
1250
 73
     1
 44
1.0
  0
POINT
  5
6AC
330
423
100
AcDbEntity
  8
Defpoints
 62
     0
440
 16777216
100
AcDbPoint
 10
800.0783425727131
 20
1435.281762217838
 30
0.0
  0
POINT
  5
6AD
330
423
100
AcDbEntity
  8
Defpoints
 62
     0
440
 16777216
100
AcDbPoint
 10
925.0783427669114
 20
1455.999999954946
 30
0.0
  0
POINT
  5
6AE
330
423
100
AcDbEntity
  8
Defpoints
 62
     0
440
 16777216
100
AcDbPoint
 10
925.0783427669114
 20
1414.918032678001
 30
0.0
  0
ENDBLK
  5
425
330
423
100
AcDbEntity
  8
0
100
AcDbBlockEnd
  0
BLOCK
  5
42F
330
42E
100
AcDbEntity
  8
0
100
AcDbBlockBegin
  2
*D17
 70
     1
 10
0.0
 20
0.0
 30
0.0
  3
*D17
  1

  0
ARC
  5
6AF
330
42E
100
AcDbEntity
  8
Defpoints
 62
     0
440
 16777216
370
     9
100
AcDbCircle
 10
800.0783425727131
 20
1485.0
 30
0.0
 40
84.45551174011848
100
AcDbArc
 50
1.356859184581953
 51
78.64314081539157
  0
INSERT
  5
6B0
330
42E
100
AcDbEntity
  8
Defpoints
 62
     0
440
 16777216
370
     9
100
AcDbBlockReference
  2
_Open30
 10
884.5338543128317
 20
1485.0
 30
0.0
 41
2.0
 42
2.0
 43
2.0
 50
270.678429592291
  0
INSERT
  5
6B1
330
42E
100
AcDbEntity
  8
Defpoints
 62
     0
440
 16777216
370
     9
100
AcDbBlockReference
  2
_Open30
 10
814.7438882803513
 20
1568.172442746275
 30
0.0
 41
2.0
 42
2.0
 43
2.0
 50
169.3215704076825
  0
MTEXT
  5
6B2
330
42E
100
AcDbEntity
  8
Defpoints
 62
     0
440
 16777216
100
AcDbMText
 10
873.6453162133713
 20
1531.593088696454
 30
0.0
 40
4.0
 41
0.0
 71
     5
 72
     1
  1
80\U+00B0
 11
0.5350575894122603
 21
-0.8448155869847225
 31
0.0
 73
     1
 44
1.0
  0
POINT
  5
6B3
330
42E
100
AcDbEntity
  8
Defpoints
 62
     0
440
 16777216
100
AcDbPoint
 10
850.5116770250014
 20
1552.743724722729
 30
0.0
  0
POINT
  5
6B4
330
42E
100
AcDbEntity
  8
Defpoints
 62
     0
440
 16777216
100
AcDbPoint
 10
800.0783425727131
 20
1485.0
 30
0.0
  0
POINT
  5
6B5
330
42E
100
AcDbEntity
  8
Defpoints
 62
     0
440
 16777216
100
AcDbPoint
 10
363.643373733674
 20
1485.0
 30
0.0
  0
POINT
  5
6B6
330
42E
100
AcDbEntity
  8
Defpoints
 62
     0
440
 16777216
100
AcDbPoint
 10
1472.709491158703
 20
1485.0
 30
0.0
  0
POINT
  5
6B7
330
42E
100
AcDbEntity
  8
Defpoints
 62
     0
440
 16777216
100
AcDbPoint
 10
884.5032403378745
 20
1963.797387817353
 30
0.0
  0
ENDBLK
  5
430
330
42E
100
AcDbEntity
  8
0
100
AcDbBlockEnd
  0
BLOCK
  5
43B
330
43A
100
AcDbEntity
  8
0
100
AcDbBlockBegin
  2
*D18
 70
     1
 10
0.0
 20
0.0
 30
0.0
  3
*D18
  1

  0
LINE
  5
733
330
43A
100
AcDbEntity
  8
Size
 62
     0
440
 16777216
370
     9
100
AcDbLine
 10
1849.879204233453
 20
1242.499999623246
 30
0.0
 11
1723.984101288584
 21
1242.499999623246
 31
0.0
  0
LINE
  5
734
330
43A
100
AcDbEntity
  8
Size
 62
     0
440
 16777216
370
     9
100
AcDbLine
 10
1849.879204233452
 20
1727.500000376736
 30
0.0
 11
1723.984101288584
 21
1727.500000376736
 31
0.0
  0
LINE
  5
735
330
43A
100
AcDbEntity
  8
Size
 62
     0
440
 16777216
370
     9
100
AcDbLine
 10
1736.484101288584
 20
1242.509999623246
 30
0.0
 11
1736.484101288584
 21
1727.490000376736
 31
0.0
  0
INSERT
  5
736
330
43A
100
AcDbEntity
  8
Size
 62
     0
440
 16777216
370
     9
100
AcDbBlockReference
  2
30a
 10
1736.484101288584
 20
1242.499999623246
 30
0.0
 41
0.01
 42
0.01
 43
0.01
 50
270.0
  0
INSERT
  5
737
330
43A
100
AcDbEntity
  8
Size
 62
     0
440
 16777216
370
     9
100
AcDbBlockReference
  2
30a
 10
1736.484101288584
 20
1727.500000376736
 30
0.0
 41
0.01
 42
0.01
 43
0.01
 50
90.0
  0
MTEXT
  5
738
330
43A
100
AcDbEntity
  8
Size
 62
     0
440
 16777216
100
AcDbMText
 10
1710.234101288583
 20
1484.99999999999
 30
0.0
 40
40.0
 41
0.0
 71
     5
 72
     1
  1
%%c485
 11
0.0000000000000001
 21
1.0
 31
0.0
 73
     1
 44
1.0
  0
POINT
  5
739
330
43A
100
AcDbEntity
  8
Defpoints
 62
     0
440
 16777216
100
AcDbPoint
 10
1856.129204233453
 20
1242.499999623246
 30
0.0
  0
POINT
  5
73A
330
43A
100
AcDbEntity
  8
Defpoints
 62
     0
440
 16777216
100
AcDbPoint
 10
1856.129204233452
 20
1727.500000376736
 30
0.0
  0
POINT
  5
73B
330
43A
100
AcDbEntity
  8
Defpoints
 62
     0
440
 16777216
100
AcDbPoint
 10
1736.484101288584
 20
1727.500000376736
 30
0.0
  0
ENDBLK
  5
43C
330
43A
100
AcDbEntity
  8
0
100
AcDbBlockEnd
  0
BLOCK
  5
447
330
446
100
AcDbEntity
  8
0
100
AcDbBlockBegin
  2
*D19
 70
     1
 10
0.0
 20
0.0
 30
0.0
  3
*D19
  1

  0
LINE
  5
71E
330
446
100
AcDbEntity
  8
Size
 62
     0
440
 16777216
370
     9
100
AcDbLine
 10
1977.48791827942
 20
1680.250000293628
 30
0.0
 11
1977.48791827942
 21
2079.303279592721
 31
0.0
  0
LINE
  5
71F
330
446
100
AcDbEntity
  8
Size
 62
     0
440
 16777216
370
     9
100
AcDbLine
 10
2002.484886633287
 20
1491.249999999819
 30
0.0
 11
2002.484886633287
 21
2079.303279592721
 31
0.0
  0
LINE
  5
720
330
446
100
AcDbEntity
  8
Size
 62
     0
440
 16777216
370
     9
100
AcDbLine
 10
2002.474886633287
 20
2066.803279592722
 30
0.0
 11
1977.49791827942
 21
2066.803279592722
 31
0.0
  0
LINE
  5
721
330
446
100
AcDbEntity
  8
Size
 62
     0
440
 16777216
370
     9
100
AcDbLine
 10
1977.48791827942
 20
2066.803279592722
 30
0.0
 11
1874.311251612753
 21
2066.803279592722
 31
0.0
  0
INSERT
  5
722
330
446
100
AcDbEntity
  8
Size
 62
     0
440
 16777216
370
     9
100
AcDbBlockReference
  2
30a
 10
2002.484886633287
 20
2066.803279592722
 30
0.0
 41
0.01
 42
0.01
 43
0.01
 50
180.0
  0
LINE
  5
723
330
446
100
AcDbEntity
  8
Size
 62
     0
440
 16777216
370
     9
100
AcDbLine
 10
2002.494886633287
 20
2066.803279592722
 30
0.0
 11
2002.504886633287
 21
2066.803279592722
 31
0.0
  0
LINE
  5
724
330
446
100
AcDbEntity
  8
Size
 62
     0
440
 16777216
370
     9
100
AcDbLine
 10
2002.484886633287
 20
2066.803279592722
 30
0.0
 11
2002.474886633287
 21
2066.803279592722
 31
0.0
  0
INSERT
  5
725
330
446
100
AcDbEntity
  8
Size
 62
     0
440
 16777216
370
     9
100
AcDbBlockReference
  2
30a
 10
1977.48791827942
 20
2066.803279592722
 30
0.0
 41
0.01
 42
0.01
 43
0.01
  0
LINE
  5
726
330
446
100
AcDbEntity
  8
Size
 62
     0
440
 16777216
370
     9
100
AcDbLine
 10
1977.47791827942
 20
2066.803279592722
 30
0.0
 11
1977.46791827942
 21
2066.803279592722
 31
0.0
  0
LINE
  5
727
330
446
100
AcDbEntity
  8
Size
 62
     0
440
 16777216
370
     9
100
AcDbLine
 10
1977.48791827942
 20
2066.803279592722
 30
0.0
 11
1977.49791827942
 21
2066.803279592722
 31
0.0
  0
MTEXT
  5
728
330
446
100
AcDbEntity
  8
Size
 62
     0
440
 16777216
100
AcDbMText
 10
1901.894584946087
 20
2093.053279592722
 30
0.0
 40
40.0
 41
0.0
 71
     5
 72
     1
  1
25
 73
     1
 44
1.0
  0
POINT
  5
729
330
446
100
AcDbEntity
  8
Defpoints
 62
     0
440
 16777216
100
AcDbPoint
 10
1977.48791827942
 20
1674.000000293627
 30
0.0
  0
POINT
  5
72A
330
446
100
AcDbEntity
  8
Defpoints
 62
     0
440
 16777216
100
AcDbPoint
 10
2002.484886633287
 20
1484.999999999819
 30
0.0
  0
POINT
  5
72B
330
446
100
AcDbEntity
  8
Defpoints
 62
     0
440
 16777216
100
AcDbPoint
 10
2002.484886633287
 20
2066.803279592722
 30
0.0
  0
ENDBLK
  5
448
330
446
100
AcDbEntity
  8
0
100
AcDbBlockEnd
  0
BLOCK
  5
458
330
457
100
AcDbEntity
  8
0
100
AcDbBlockBegin
  2
*D20
 70
     1
 10
0.0
 20
0.0
 30
0.0
  3
*D20
  1

  0
LINE
  5
715
330
457
100
AcDbEntity
  8
Size
 62
     0
440
 16777216
370
     9
100
AcDbLine
 10
2002.484886633287
 20
1491.249999999878
 30
0.0
 11
2002.484886633287
 21
2079.303279592781
 31
0.0
  0
LINE
  5
716
330
457
100
AcDbEntity
  8
Size
 62
     0
440
 16777216
370
     9
100
AcDbLine
 10
2267.987918730738
 20
1969.250000742674
 30
0.0
 11
2267.987918730738
 21
2079.303279592781
 31
0.0
  0
LINE
  5
717
330
457
100
AcDbEntity
  8
Size
 62
     0
440
 16777216
370
     9
100
AcDbLine
 10
2002.494886633287
 20
2066.803279592781
 30
0.0
 11
2267.977918730738
 21
2066.803279592781
 31
0.0
  0
INSERT
  5
718
330
457
100
AcDbEntity
  8
Size
 62
     0
440
 16777216
370
     9
100
AcDbBlockReference
  2
30a
 10
2002.484886633287
 20
2066.803279592781
 30
0.0
 41
0.01
 42
0.01
 43
0.01
 50
180.0
  0
INSERT
  5
719
330
457
100
AcDbEntity
  8
Size
 62
     0
440
 16777216
370
     9
100
AcDbBlockReference
  2
30a
 10
2267.987918730738
 20
2066.803279592781
 30
0.0
 41
0.01
 42
0.01
 43
0.01
  0
MTEXT
  5
71A
330
457
100
AcDbEntity
  8
Size
 62
     0
440
 16777216
100
AcDbMText
 10
2135.236402682012
 20
2093.053279592781
 30
0.0
 40
40.0
 41
0.0
 71
     5
 72
     1
  1
265.5
 73
     1
 44
1.0
  0
POINT
  5
71B
330
457
100
AcDbEntity
  8
Defpoints
 62
     0
440
 16777216
100
AcDbPoint
 10
2002.484886633287
 20
1484.999999999878
 30
0.0
  0
POINT
  5
71C
330
457
100
AcDbEntity
  8
Defpoints
 62
     0
440
 16777216
100
AcDbPoint
 10
2267.987918730738
 20
1963.000000742674
 30
0.0
  0
POINT
  5
71D
330
457
100
AcDbEntity
  8
Defpoints
 62
     0
440
 16777216
100
AcDbPoint
 10
2267.987918730738
 20
2066.803279592781
 30
0.0
  0
ENDBLK
  5
459
330
457
100
AcDbEntity
  8
0
100
AcDbBlockEnd
  0
BLOCK
  5
464
330
463
100
AcDbEntity
  8
0
100
AcDbBlockBegin
  2
*D21
 70
     1
 10
0.0
 20
0.0
 30
0.0
  3
*D21
  1

  0
LINE
  5
70C
330
463
100
AcDbEntity
  8
Size
 62
     0
440
 16777216
370
     9
100
AcDbLine
 10
2267.987918730737
 20
1969.250000742614
 30
0.0
 11
2267.987918730737
 21
2079.303279592721
 31
0.0
  0
LINE
  5
70D
330
463
100
AcDbEntity
  8
Size
 62
     0
440
 16777216
370
     9
100
AcDbLine
 10
3587.987920781471
 20
1969.250000742614
 30
0.0
 11
3587.987920781471
 21
2079.303279592721
 31
0.0
  0
LINE
  5
70E
330
463
100
AcDbEntity
  8
Size
 62
     0
440
 16777216
370
     9
100
AcDbLine
 10
2267.997918730738
 20
2066.803279592722
 30
0.0
 11
3587.977920781471
 21
2066.803279592722
 31
0.0
  0
INSERT
  5
70F
330
463
100
AcDbEntity
  8
Size
 62
     0
440
 16777216
370
     9
100
AcDbBlockReference
  2
30a
 10
2267.987918730737
 20
2066.803279592722
 30
0.0
 41
0.01
 42
0.01
 43
0.01
 50
180.0
  0
INSERT
  5
710
330
463
100
AcDbEntity
  8
Size
 62
     0
440
 16777216
370
     9
100
AcDbBlockReference
  2
30a
 10
3587.987920781471
 20
2066.803279592722
 30
0.0
 41
0.01
 42
0.01
 43
0.01
  0
MTEXT
  5
711
330
463
100
AcDbEntity
  8
Size
 62
     0
440
 16777216
100
AcDbMText
 10
2927.987919756104
 20
2093.053279592722
 30
0.0
 40
40.0
 41
0.0
 71
     5
 72
     1
  1
1320
 73
     1
 44
1.0
  0
POINT
  5
712
330
463
100
AcDbEntity
  8
Defpoints
 62
     0
440
 16777216
100
AcDbPoint
 10
2267.987918730737
 20
1963.000000742614
 30
0.0
  0
POINT
  5
713
330
463
100
AcDbEntity
  8
Defpoints
 62
     0
440
 16777216
100
AcDbPoint
 10
3587.987920781471
 20
1963.000000742614
 30
0.0
  0
POINT
  5
714
330
463
100
AcDbEntity
  8
Defpoints
 62
     0
440
 16777216
100
AcDbPoint
 10
3587.987920781471
 20
2066.803279592722
 30
0.0
  0
ENDBLK
  5
465
330
463
100
AcDbEntity
  8
0
100
AcDbBlockEnd
  0
BLOCK
  5
470
330
46F
100
AcDbEntity
  8
0
100
AcDbBlockBegin
  2
*D22
 70
     1
 10
0.0
 20
0.0
 30
0.0
  3
*D22
  1

  0
LINE
  5
703
330
46F
100
AcDbEntity
  8
Size
 62
     0
440
 16777216
370
     9
100
AcDbLine
 10
3587.987920781471
 20
1969.250000742614
 30
0.0
 11
3587.987920781471
 21
2079.303279592721
 31
0.0
  0
LINE
  5
704
330
46F
100
AcDbEntity
  8
Size
 62
     0
440
 16777216
370
     9
100
AcDbLine
 10
3853.490952878912
 20
1491.25
 30
0.0
 11
3853.490952878912
 21
2079.303279592721
 31
0.0
  0
LINE
  5
705
330
46F
100
AcDbEntity
  8
Size
 62
     0
440
 16777216
370
     9
100
AcDbLine
 10
3587.997920781472
 20
2066.803279592722
 30
0.0
 11
3853.480952878912
 21
2066.803279592722
 31
0.0
  0
INSERT
  5
706
330
46F
100
AcDbEntity
  8
Size
 62
     0
440
 16777216
370
     9
100
AcDbBlockReference
  2
30a
 10
3587.987920781471
 20
2066.803279592722
 30
0.0
 41
0.01
 42
0.01
 43
0.01
 50
180.0
  0
INSERT
  5
707
330
46F
100
AcDbEntity
  8
Size
 62
     0
440
 16777216
370
     9
100
AcDbBlockReference
  2
30a
 10
3853.490952878912
 20
2066.803279592722
 30
0.0
 41
0.01
 42
0.01
 43
0.01
  0
MTEXT
  5
708
330
46F
100
AcDbEntity
  8
Size
 62
     0
440
 16777216
100
AcDbMText
 10
3720.739436830192
 20
2093.053279592722
 30
0.0
 40
40.0
 41
0.0
 71
     5
 72
     1
  1
265.5
 73
     1
 44
1.0
  0
POINT
  5
709
330
46F
100
AcDbEntity
  8
Defpoints
 62
     0
440
 16777216
100
AcDbPoint
 10
3587.987920781471
 20
1963.000000742614
 30
0.0
  0
POINT
  5
70A
330
46F
100
AcDbEntity
  8
Defpoints
 62
     0
440
 16777216
100
AcDbPoint
 10
3853.490952878912
 20
1485.0
 30
0.0
  0
POINT
  5
70B
330
46F
100
AcDbEntity
  8
Defpoints
 62
     0
440
 16777216
100
AcDbPoint
 10
3853.490952878912
 20
2066.803279592722
 30
0.0
  0
ENDBLK
  5
471
330
46F
100
AcDbEntity
  8
0
100
AcDbBlockEnd
  0
BLOCK
  5
47C
330
47B
100
AcDbEntity
  8
0
100
AcDbBlockBegin
  2
*D23
 70
     1
 10
0.0
 20
0.0
 30
0.0
  3
*D23
  1

  0
LINE
  5
6FA
330
47B
100
AcDbEntity
  8
Size
 62
     0
440
 16777216
370
     9
100
AcDbLine
 10
1836.129204201673
 20
1713.750000347411
 30
0.0
 11
1836.129204201673
 21
2139.303279592781
 31
0.0
  0
LINE
  5
6FB
330
47B
100
AcDbEntity
  8
Size
 62
     0
440
 16777216
370
     9
100
AcDbLine
 10
3853.490952878913
 20
1491.25
 30
0.0
 11
3853.490952878913
 21
2139.303279592781
 31
0.0
  0
LINE
  5
6FC
330
47B
100
AcDbEntity
  8
Size
 62
     0
440
 16777216
370
     9
100
AcDbLine
 10
1836.139204201673
 20
2126.803279592781
 30
0.0
 11
3853.480952878913
 21
2126.803279592781
 31
0.0
  0
INSERT
  5
6FD
330
47B
100
AcDbEntity
  8
Size
 62
     0
440
 16777216
370
     9
100
AcDbBlockReference
  2
30a
 10
1836.129204201673
 20
2126.803279592781
 30
0.0
 41
0.01
 42
0.01
 43
0.01
 50
180.0
  0
INSERT
  5
6FE
330
47B
100
AcDbEntity
  8
Size
 62
     0
440
 16777216
370
     9
100
AcDbBlockReference
  2
30a
 10
3853.490952878913
 20
2126.803279592781
 30
0.0
 41
0.01
 42
0.01
 43
0.01
  0
MTEXT
  5
6FF
330
47B
100
AcDbEntity
  8
Size
 62
     0
440
 16777216
100
AcDbMText
 10
2844.810078540293
 20
2153.053279592781
 30
0.0
 40
40.0
 41
0.0
 71
     5
 72
     1
  1
(2017)
 73
     1
 44
1.0
  0
POINT
  5
700
330
47B
100
AcDbEntity
  8
Defpoints
 62
     0
440
 16777216
100
AcDbPoint
 10
1836.129204201673
 20
1707.500000347411
 30
0.0
  0
POINT
  5
701
330
47B
100
AcDbEntity
  8
Defpoints
 62
     0
440
 16777216
100
AcDbPoint
 10
3853.490952878913
 20
1485.0
 30
0.0
  0
POINT
  5
702
330
47B
100
AcDbEntity
  8
Defpoints
 62
     0
440
 16777216
100
AcDbPoint
 10
3853.490952878913
 20
2126.803279592781
 30
0.0
  0
ENDBLK
  5
47D
330
47B
100
AcDbEntity
  8
0
100
AcDbBlockEnd
  0
BLOCK
  5
488
330
487
100
AcDbEntity
  8
0
100
AcDbBlockBegin
  2
*D24
 70
     1
 10
0.0
 20
0.0
 30
0.0
  3
*D24
  1

  0
LINE
  5
72C
330
487
100
AcDbEntity
  8
Size
 62
     0
440
 16777216
370
     9
100
AcDbLine
 10
2824.626814945848
 20
1010.009999262377
 30
0.0
 11
2824.626814945848
 21
1959.990000738294
 31
0.0
  0
INSERT
  5
72D
330
487
100
AcDbEntity
  8
Size
 62
     0
440
 16777216
370
     9
100
AcDbBlockReference
  2
30a
 10
2824.626814945848
 20
1009.999999262377
 30
0.0
 41
0.01
 42
0.01
 43
0.01
 50
270.0
  0
INSERT
  5
72E
330
487
100
AcDbEntity
  8
Size
 62
     0
440
 16777216
370
     9
100
AcDbBlockReference
  2
30a
 10
2824.626814945848
 20
1960.000000738294
 30
0.0
 41
0.01
 42
0.01
 43
0.01
 50
90.0
  0
MTEXT
  5
72F
330
487
100
AcDbEntity
  8
Size
 62
     0
440
 16777216
100
AcDbMText
 10
2798.376814945848
 20
1397.358640625291
 30
0.0
 40
40.0
 41
0.0
 71
     5
 72
     1
  1
I.D950
 11
0.0000000000000001
 21
1.0
 31
0.0
 73
     1
 44
1.0
  0
POINT
  5
730
330
487
100
AcDbEntity
  8
Defpoints
 62
     0
440
 16777216
100
AcDbPoint
 10
2857.958013768109
 20
1009.999999262377
 30
0.0
  0
POINT
  5
731
330
487
100
AcDbEntity
  8
Defpoints
 62
     0
440
 16777216
100
AcDbPoint
 10
2296.569174888183
 20
1960.000000738294
 30
0.0
  0
POINT
  5
732
330
487
100
AcDbEntity
  8
Defpoints
 62
     0
440
 16777216
100
AcDbPoint
 10
2824.626814945848
 20
1960.000000738294
 30
0.0
  0
ENDBLK
  5
489
330
487
100
AcDbEntity
  8
0
100
AcDbBlockEnd
  0
ENDSEC
  0
SECTION
  2
ENTITIES
  0
CIRCLE
  5
92
330
70
100
AcDbEntity
  8
Line
 62
     4
370
     9
100
AcDbCircle
 10
925.0783427669114
 20
1647.000000251682
 30
0.0
 40
13.60000002112877
1001
Sigma
1000

  0
CIRCLE
  5
98
330
70
100
AcDbEntity
  8
Line
 62
     4
370
     9
100
AcDbCircle
 10
925.0783427669114
 20
1359.999999805803
 30
0.0
 40
17.00000002641196
1001
Sigma
1000

  0
CIRCLE
  5
99
330
70
100
AcDbEntity
  8
Line
 62
     4
370
     9
100
AcDbCircle
 10
800.0783425727131
 20
1485.000000000001
 30
0.0
 40
13.80980194310272
1001
Sigma
1000

  0
LINE
  5
9A
330
70
100
AcDbEntity
  8
Line
100
AcDbLine
 10
742.1409793547025
 20
1313.676865487096
 30
0.0
 11
753.7552082537462
 21
1302.062636588062
 31
0.0
1001
Sigma
1000

  0
ARC
  5
9B
330
70
100
AcDbEntity
  8
Line
100
AcDbCircle
 10
756.907851309644
 20
1305.21527964358
 30
0.0
 40
4.458510566432181
100
AcDbArc
 50
187.121120508268
 51
262.8788794917167
1001
Sigma
1000

  0
ARC
  5
9C
330
70
100
AcDbEntity
  8
Line
100
AcDbCircle
 10
745.2936224106003
 20
1316.829508542614
 30
0.0
 40
4.458510566432181
100
AcDbArc
 50
187.121120508268
 51
262.8788794917167
1001
Sigma
1000

  0
ARC
  5
9D
330
70
100
AcDbEntity
  8
Line
100
AcDbCircle
 10
759.562322703768
 20
1319.483979936617
 30
0.0
 40
16.42500002551765
100
AcDbArc
 50
205.5287793655223
 51
244.4712206344886
1001
Sigma
1000

  0
LINE
  5
9E
330
70
100
AcDbEntity
  8
Line
100
AcDbLine
 10
749.733538429498
 20
1317.398014928877
 30
0.0
 11
744.7409130537416
 21
1312.40538955261
 31
0.0
1001
Sigma
1000

  0
LINE
  5
9F
330
70
100
AcDbEntity
  8
Line
100
AcDbLine
 10
757.4763576955273
 20
1309.655195662848
 30
0.0
 11
752.4837323197707
 21
1304.662570286591
 31
0.0
1001
Sigma
1000

  0
LINE
  5
A0
330
70
100
AcDbEntity
  8
Line
100
AcDbLine
 10
745.8621287964837
 20
1321.269424561881
 30
0.0
 11
740.8695034207271
 21
1316.276799185625
 31
0.0
1001
Sigma
1000

  0
LINE
  5
A1
330
70
100
AcDbEntity
  8
Line
100
AcDbLine
 10
761.3477673285419
 20
1305.783786029843
 30
0.0
 11
745.8621287964837
 21
1321.269424561881
 31
0.0
1001
Sigma
1000

  0
LINE
  5
A2
330
70
100
AcDbEntity
  8
Line
100
AcDbLine
 10
756.3551419527855
 20
1300.791160653577
 30
0.0
 11
761.3477673285419
 21
1305.783786029843
 31
0.0
1001
Sigma
1000

  0
LINE
  5
A3
330
70
100
AcDbEntity
  8
Line
100
AcDbLine
 10
753.7552082537462
 20
1667.93736341193
 30
0.0
 11
742.1409793547025
 21
1656.323134512896
 31
0.0
1001
Sigma
1000

  0
ARC
  5
A4
330
70
100
AcDbEntity
  8
Line
100
AcDbCircle
 10
745.2936224106003
 20
1653.170491457378
 30
0.0
 40
4.458510566432181
100
AcDbArc
 50
97.12112050828327
 51
172.8788794917319
1001
Sigma
1000

  0
ARC
  5
A5
330
70
100
AcDbEntity
  8
Line
100
AcDbCircle
 10
756.907851309644
 20
1664.784720356412
 30
0.0
 40
4.458510566432181
100
AcDbArc
 50
97.12112050828327
 51
172.8788794917319
1001
Sigma
1000

  0
ARC
  5
A6
330
70
100
AcDbEntity
  8
Line
100
AcDbCircle
 10
759.562322703768
 20
1650.516020063384
 30
0.0
 40
16.42500002551765
100
AcDbArc
 50
115.5287793655115
 51
154.4712206344994
1001
Sigma
1000

  0
LINE
  5
A7
330
70
100
AcDbEntity
  8
Line
100
AcDbLine
 10
757.4763576955273
 20
1660.344804337144
 30
0.0
 11
752.4837323197707
 21
1665.337429713401
 31
0.0
1001
Sigma
1000

  0
LINE
  5
A8
330
70
100
AcDbEntity
  8
Line
100
AcDbLine
 10
749.733538429498
 20
1652.601985071125
 30
0.0
 11
744.7409130537416
 21
1657.594610447381
 31
0.0
1001
Sigma
1000

  0
LINE
  5
A9
330
70
100
AcDbEntity
  8
Line
100
AcDbLine
 10
761.3477673285419
 20
1664.216213970159
 30
0.0
 11
756.3551419527855
 21
1669.208839346415
 31
0.0
1001
Sigma
1000

  0
LINE
  5
AA
330
70
100
AcDbEntity
  8
Line
100
AcDbLine
 10
745.8621287964837
 20
1648.73057543811
 30
0.0
 11
761.3477673285419
 21
1664.216213970159
 31
0.0
1001
Sigma
1000

  0
LINE
  5
AB
330
70
100
AcDbEntity
  8
Line
100
AcDbLine
 10
740.8695034207271
 20
1653.723200814377
 30
0.0
 11
745.8621287964837
 21
1648.73057543811
 31
0.0
1001
Sigma
1000

  0
LINE
  5
AC
330
70
100
AcDbEntity
  8
Center
100
AcDbLine
 10
800.0783425727131
 20
1485.000000000001
 30
0.0
 11
884.5032403378745
 21
1963.797387817354
 31
0.0
1001
Sigma
1000

  0
LINE
  5
B0
330
70
100
AcDbEntity
  8
Hidden
 62
     3
100
AcDbLine
 10
868.0731173443488
 20
1948.936808684466
 30
0.0
 11
787.1013735925522
 21
1489.723230439899
 31
0.0
1001
Sigma
1000

  0
LINE
  5
B4
330
70
100
AcDbEntity
  8
Hidden
 62
     3
100
AcDbLine
 10
894.8598882679643
 20
1944.213578244629
 30
0.0
 11
813.8881445161677
 21
1485.000000000001
 31
0.0
1001
Sigma
1000

  0
LINE
  5
B5
330
70
100
AcDbEntity
  8
Center
100
AcDbLine
 10
896.4922771490005
 20
1055.145501872425
 30
0.0
 11
953.6644083848223
 21
1055.145501872425
 31
0.0
1001
Sigma
1000

  0
LINE
  5
B6
330
70
100
AcDbEntity
  8
Hidden
 62
     3
100
AcDbLine
 10
868.0731173443488
 20
1948.936808684466
 30
0.0
 11
894.8598882679643
 21
1944.213578244629
 31
0.0
1001
Sigma
1000

  0
LINE
  5
B7
330
70
100
AcDbEntity
  8
Line
100
AcDbLine
 10
1109.287182113096
 20
1316.276799185625
 30
0.0
 11
1104.294556737339
 21
1321.269424561881
 31
0.0
1001
Sigma
1000

  0
LINE
  5
B8
330
70
100
AcDbEntity
  8
Line
100
AcDbLine
 10
1104.294556737339
 20
1321.269424561881
 30
0.0
 11
1088.808918205281
 21
1305.783786029843
 31
0.0
1001
Sigma
1000

  0
LINE
  5
B9
330
70
100
AcDbEntity
  8
Line
100
AcDbLine
 10
1088.808918205281
 20
1305.783786029843
 30
0.0
 11
1093.801543581037
 21
1300.791160653587
 31
0.0
1001
Sigma
1000

  0
LINE
  5
BA
330
70
100
AcDbEntity
  8
Line
100
AcDbLine
 10
1100.423147104325
 20
1317.398014928877
 30
0.0
 11
1105.415772480081
 21
1312.40538955261
 31
0.0
1001
Sigma
1000

  0
LINE
  5
BB
330
70
100
AcDbEntity
  8
Line
100
AcDbLine
 10
1092.680327838295
 20
1309.655195662857
 30
0.0
 11
1097.672953214052
 21
1304.662570286591
 31
0.0
1001
Sigma
1000

  0
ARC
  5
BC
330
70
100
AcDbEntity
  8
Line
100
AcDbCircle
 10
1090.594362830054
 20
1319.483979936617
 30
0.0
 40
16.42500002551765
100
AcDbArc
 50
295.5287793655115
 51
334.4712206344994
1001
Sigma
1000

  0
ARC
  5
BD
330
70
100
AcDbEntity
  8
Line
100
AcDbCircle
 10
1093.248834224179
 20
1305.21527964358
 30
0.0
 40
4.458510566432181
100
AcDbArc
 50
277.1211205082833
 51
352.8788794917319
1001
Sigma
1000

  0
ARC
  5
BE
330
70
100
AcDbEntity
  8
Line
100
AcDbCircle
 10
1104.863063123223
 20
1316.829508542614
 30
0.0
 40
4.458510566432181
100
AcDbArc
 50
277.1211205082833
 51
352.8788794917319
1001
Sigma
1000

  0
LINE
  5
BF
330
70
100
AcDbEntity
  8
Line
100
AcDbLine
 10
1096.401477280076
 20
1302.062636588062
 30
0.0
 11
1108.01570617912
 21
1313.676865487096
 31
0.0
1001
Sigma
1000

  0
LINE
  5
C0
330
70
100
AcDbEntity
  8
Line
100
AcDbLine
 10
1108.01570617912
 20
1656.323134512896
 30
0.0
 11
1096.401477280076
 21
1667.93736341193
 31
0.0
1001
Sigma
1000

  0
ARC
  5
C1
330
70
100
AcDbEntity
  8
Line
100
AcDbCircle
 10
1093.248834224179
 20
1664.784720356422
 30
0.0
 40
4.458510566432181
100
AcDbArc
 50
7.121120508268115
 51
82.87887949171674
1001
Sigma
1000

  0
ARC
  5
C2
330
70
100
AcDbEntity
  8
Line
100
AcDbCircle
 10
1104.863063123223
 20
1653.170491457388
 30
0.0
 40
4.458510566432181
100
AcDbArc
 50
7.121120508268115
 51
82.87887949171674
1001
Sigma
1000

  0
ARC
  5
C3
330
70
100
AcDbEntity
  8
Line
100
AcDbCircle
 10
1090.594362830054
 20
1650.516020063384
 30
0.0
 40
16.42500002551765
100
AcDbArc
 50
25.52877936550061
 51
64.47122063448851
1001
Sigma
1000

  0
LINE
  5
C4
330
70
100
AcDbEntity
  8
Line
100
AcDbLine
 10
1100.423147104325
 20
1652.601985071125
 30
0.0
 11
1105.415772480081
 21
1657.594610447381
 31
0.0
1001
Sigma
1000

  0
LINE
  5
C5
330
70
100
AcDbEntity
  8
Line
100
AcDbLine
 10
1092.680327838295
 20
1660.344804337144
 30
0.0
 11
1097.672953214052
 21
1665.33742971341
 31
0.0
1001
Sigma
1000

  0
LINE
  5
C6
330
70
100
AcDbEntity
  8
Line
100
AcDbLine
 10
1104.294556737339
 20
1648.73057543811
 30
0.0
 11
1109.287182113096
 21
1653.723200814377
 31
0.0
1001
Sigma
1000

  0
LINE
  5
C7
330
70
100
AcDbEntity
  8
Line
100
AcDbLine
 10
1088.808918205281
 20
1664.216213970159
 30
0.0
 11
1104.294556737339
 21
1648.73057543811
 31
0.0
1001
Sigma
1000

  0
LINE
  5
C8
330
70
100
AcDbEntity
  8
Line
100
AcDbLine
 10
1093.801543581037
 20
1669.208839346415
 30
0.0
 11
1088.808918205281
 21
1664.216213970159
 31
0.0
1001
Sigma
1000

  0
LINE
  5
C9
330
70
100
AcDbEntity
  8
Hidden
 62
     3
100
AcDbLine
 10
908.0783427405005
 20
1017.52603630582
 30
0.0
 11
942.0783427933223
 21
1017.52603630582
 31
0.0
1001
Sigma
1000

  0
LINE
  5
CA
330
70
100
AcDbEntity
  8
Hidden
 62
     3
100
AcDbLine
 10
942.0783427933223
 20
1017.52603630582
 30
0.0
 11
942.0783427933223
 21
1359.999999805803
 31
0.0
1001
Sigma
1000

  0
LINE
  5
CB
330
70
100
AcDbEntity
  8
Hidden
 62
     3
100
AcDbLine
 10
908.0783427405005
 20
1017.52603630582
 30
0.0
 11
908.0783427405005
 21
1359.999999805803
 31
0.0
1001
Sigma
1000

  0
LINE
  5
CC
330
70
100
AcDbEntity
  8
Line
100
AcDbLine
 10
919.0783427575899
 20
1015.145501810281
 30
0.0
 11
931.0783427762329
 21
1015.145501810281
 31
0.0
1001
Sigma
1000

  0
LINE
  5
CD
330
70
100
AcDbEntity
  8
Line
100
AcDbLine
 10
919.0783427575899
 20
1127.882942512039
 30
0.0
 11
931.0783427762329
 21
1127.882942512039
 31
0.0
1001
Sigma
1000

  0
LINE
  5
CE
330
70
100
AcDbEntity
  8
Line
100
AcDbLine
 10
919.0783427575899
 20
1954.85449818976
 30
0.0
 11
931.0783427762329
 21
1954.85449818976
 31
0.0
1001
Sigma
1000

  0
LINE
  5
CF
330
70
100
AcDbEntity
  8
Line
100
AcDbLine
 10
919.0783427575899
 20
1842.117057487963
 30
0.0
 11
931.0783427762329
 21
1842.117057487963
 31
0.0
1001
Sigma
1000

  0
LINE
  5
D0
330
70
100
AcDbEntity
  8
Line
100
AcDbLine
 10
931.0783427762329
 20
1842.117057487963
 30
0.0
 11
931.0783427762329
 21
1954.85449818976
 31
0.0
1001
Sigma
1000

  0
LINE
  5
D1
330
70
100
AcDbEntity
  8
Line
100
AcDbLine
 10
919.0783427575899
 20
1842.117057487963
 30
0.0
 11
919.0783427575899
 21
1954.85449818976
 31
0.0
1001
Sigma
1000

  0
LINE
  5
D2
330
70
100
AcDbEntity
  8
Center
100
AcDbLine
 10
896.4922771490005
 20
1914.854498127617
 30
0.0
 11
953.6644083848223
 21
1914.854498127617
 31
0.0
1001
Sigma
1000

  0
LINE
  5
D3
330
70
100
AcDbEntity
  8
Line
100
AcDbLine
 10
919.0783427575899
 20
1127.882942512039
 30
0.0
 11
919.0783427575899
 21
1015.145501810281
 31
0.0
1001
Sigma
1000

  0
LINE
  5
D4
330
70
100
AcDbEntity
  8
Hidden
 62
     3
100
AcDbLine
 10
911.4783427457826
 20
1955.976686722204
 30
0.0
 11
938.67834278804
 21
1955.976686722204
 31
0.0
1001
Sigma
1000

  0
LINE
  5
D5
330
70
100
AcDbEntity
  8
Line
100
AcDbLine
 10
931.0783427762329
 20
1127.882942512039
 30
0.0
 11
931.0783427762329
 21
1015.145501810281
 31
0.0
1001
Sigma
1000

  0
LINE
  5
D6
330
70
100
AcDbEntity
  8
Hidden
 62
     3
100
AcDbLine
 10
911.4783427457826
 20
1955.976686722204
 30
0.0
 11
911.4783427457826
 21
1647.000000251682
 31
0.0
1001
Sigma
1000

  0
LINE
  5
D7
330
70
100
AcDbEntity
  8
Hidden
 62
     3
100
AcDbLine
 10
938.67834278804
 20
1955.976686722204
 30
0.0
 11
938.67834278804
 21
1647.000000251682
 31
0.0
1001
Sigma
1000

  0
LINE
  5
D8
330
70
100
AcDbEntity
  8
Center
100
AcDbLine
 10
979.4738346544194
 20
1647.000000251682
 30
0.0
 11
874.692072196632
 21
1647.000000251682
 31
0.0
1001
Sigma
1000

  0
LINE
  5
D9
330
70
100
AcDbEntity
  8
Center
100
AcDbLine
 10
989.4738346699552
 20
1359.999999805803
 30
0.0
 11
861.6049820122999
 21
1359.999999805803
 31
0.0
1001
Sigma
1000

  0
LINE
  5
DA
330
70
100
AcDbEntity
  8
Center
100
AcDbLine
 10
800.0783425727131
 20
1533.642418108351
 30
0.0
 11
800.0783425727131
 21
1435.281762217839
 31
0.0
1001
Sigma
1000

  0
CIRCLE
  5
DB
330
70
100
AcDbEntity
  8
Line
100
AcDbCircle
 10
925.0783427669114
 20
1647.000000251682
 30
0.0
 40
10.50000001631265
1001
Sigma
1000

  0
CIRCLE
  5
DC
330
70
100
AcDbEntity
  8
Line
100
AcDbCircle
 10
925.0783427669114
 20
1647.000000251682
 30
0.0
 40
29.00000004505401
1001
Sigma
1000

  0
CIRCLE
  5
DD
330
70
100
AcDbEntity
  8
Line
100
AcDbCircle
 10
925.0783427669114
 20
1485.000000000001
 30
0.0
 40
10.50000001631265
1001
Sigma
1000

  0
CIRCLE
  5
DE
330
70
100
AcDbEntity
  8
Line
 62
     4
370
     9
100
AcDbCircle
 10
925.0783427669114
 20
1485.000000000001
 30
0.0
 40
13.00000002019662
1001
Sigma
1000

  0
CIRCLE
  5
DF
330
70
100
AcDbEntity
  8
Line
100
AcDbCircle
 10
925.0783427669114
 20
1485.000000000001
 30
0.0
 40
29.00000004505401
1001
Sigma
1000

  0
CIRCLE
  5
E0
330
70
100
AcDbEntity
  8
Line
100
AcDbCircle
 10
800.0783425727131
 20
1485.000000000001
 30
0.0
 40
10.50000001631265
1001
Sigma
1000

  0
CIRCLE
  5
E1
330
70
100
AcDbEntity
  8
Line
100
AcDbCircle
 10
800.0783425727131
 20
1485.000000000001
 30
0.0
 40
29.00000004505401
1001
Sigma
1000

  0
CIRCLE
  5
E2
330
70
100
AcDbEntity
  8
Line
100
AcDbCircle
 10
925.0783427669114
 20
1359.999999805803
 30
0.0
 40
13.50000002097341
1001
Sigma
1000

  0
CIRCLE
  5
E3
330
70
100
AcDbEntity
  8
Line
100
AcDbCircle
 10
925.0783427669114
 20
1359.999999805803
 30
0.0
 40
39.00000006058987
1001
Sigma
1000

  0
LINE
  5
E4
330
70
100
AcDbEntity
  8
Line
370
     9
100
AcDbLine
 10
885.0783427047678
 20
1250.385422083297
 30
0.0
 11
885.0783427047678
 21
1245.821718841887
 31
0.0
1001
Sigma
1000

  0
LINE
  5
E5
330
70
100
AcDbEntity
  8
Line
370
     9
100
AcDbLine
 10
965.078342829055
 20
1250.385422083297
 30
0.0
 11
965.078342829055
 21
1245.821718841887
 31
0.0
1001
Sigma
1000

  0
LINE
  5
E6
330
70
100
AcDbEntity
  8
Line
370
     9
100
AcDbLine
 10
965.078342829055
 20
1719.614577916695
 30
0.0
 11
965.078342829055
 21
1724.178281158115
 31
0.0
1001
Sigma
1000

  0
LINE
  5
E7
330
70
100
AcDbEntity
  8
Line
370
     9
100
AcDbLine
 10
885.0783427047678
 20
1719.614577916695
 30
0.0
 11
885.0783427047678
 21
1724.178281158115
 31
0.0
1001
Sigma
1000

  0
LINE
  5
E8
330
70
100
AcDbEntity
  8
Line
370
     9
100
AcDbLine
 10
690.4637648504174
 20
1444.999999937857
 30
0.0
 11
685.9000616083273
 21
1444.999999937857
 31
0.0
1001
Sigma
1000

  0
LINE
  5
E9
330
70
100
AcDbEntity
  8
Line
370
     9
100
AcDbLine
 10
690.4637648504174
 20
1525.000000062144
 30
0.0
 11
685.9000616083273
 21
1525.000000062144
 31
0.0
1001
Sigma
1000

  0
LINE
  5
EA
330
70
100
AcDbEntity
  8
Line
370
     9
100
AcDbLine
 10
1159.692920683605
 20
1525.000000062144
 30
0.0
 11
1164.256623924995
 21
1525.000000062144
 31
0.0
1001
Sigma
1000

  0
LINE
  5
EB
330
70
100
AcDbEntity
  8
Line
370
     9
100
AcDbLine
 10
1159.692920683605
 20
1444.999999937857
 30
0.0
 11
1164.256623924995
 21
1444.999999937857
 31
0.0
1001
Sigma
1000

  0
LINE
  5
EC
330
70
100
AcDbEntity
  8
Center
100
AcDbLine
 10
1121.926703728732
 20
1288.15163903834
 30
0.0
 11
1068.32014626845
 21
1341.758196498972
 31
0.0
1001
Sigma
1000

  0
LINE
  5
ED
330
70
100
AcDbEntity
  8
Center
100
AcDbLine
 10
728.2299818050904
 20
1288.15163903856
 30
0.0
 11
781.836539266373
 21
1341.758196498592
 31
0.0
1001
Sigma
1000

  0
LINE
  5
EE
330
70
100
AcDbEntity
  8
Center
100
AcDbLine
 10
728.2299818050904
 20
1681.848360961662
 30
0.0
 11
781.836539265373
 21
1628.241803501029
 31
0.0
1001
Sigma
1000

  0
LINE
  5
EF
330
70
100
AcDbEntity
  8
Center
100
AcDbLine
 10
1121.926703728732
 20
1681.848360961432
 30
0.0
 11
1068.320146267449
 21
1628.241803501409
 31
0.0
1001
Sigma
1000

  0
CIRCLE
  5
F0
330
70
100
AcDbEntity
  8
Hidden
 62
     3
100
AcDbCircle
 10
925.0783427669114
 20
1485.000000000001
 30
0.0
 40
238.0000003697535
1001
Sigma
1000

  0
CIRCLE
  5
F1
330
70
100
AcDbEntity
  8
Line
100
AcDbCircle
 10
925.0783427669114
 20
1485.000000000001
 30
0.0
 40
222.500000345673
1001
Sigma
1000

  0
CIRCLE
  5
F2
330
70
100
AcDbEntity
  8
Line
100
AcDbCircle
 10
925.0783427669114
 20
1485.000000000001
 30
0.0
 40
242.5000003767447
1001
Sigma
1000

  0
LINE
  5
F3
330
70
100
AcDbEntity
  8
Center
100
AcDbLine
 10
363.6433737336738
 20
1485.000000000001
 30
0.0
 11
1472.709491158704
 21
1485.000000000001
 31
0.0
1001
Sigma
1000

  0
CIRCLE
  5
F4
330
70
100
AcDbEntity
  8
Hidden
 62
     3
100
AcDbCircle
 10
925.0783427669114
 20
1485.000000000001
 30
0.0
 40
475.0000007379535
1001
Sigma
1000

  0
CIRCLE
  5
F5
330
70
100
AcDbEntity
  8
Line
100
AcDbCircle
 10
925.0783427669114
 20
1485.000000000001
 30
0.0
 40
482.0000007488285
1001
Sigma
1000

  0
LINE
  5
F6
330
70
100
AcDbEntity
  8
Center
100
AcDbLine
 10
925.0783427669114
 20
2032.000000849813
 30
0.0
 11
925.0783427669114
 21
938.6065565281716
 31
0.0
1001
Sigma
1000

  0
ARC
  5
F7
330
70
100
AcDbEntity
  8
Line
100
AcDbCircle
 10
1937.656461034539
 20
1485.000000000001
 30
0.0
 40
40.00000006214345
100
AcDbArc
 50
63.31796688955573
 51
241.1328761556585
1001
Sigma
1000

  0
LINE
  5
F8
330
70
100
AcDbEntity
  8
Line
100
AcDbLine
 10
1956.84570165432
 20
1465.249999969308
 30
0.0
 11
1952.280168674127
 21
1465.249999969318
 31
0.0
1001
Sigma
1000

  0
LINE
  5
F9
330
70
100
AcDbEntity
  8
Line
100
AcDbLine
 10
1956.84570165432
 20
1505.250000031461
 30
0.0
 11
1952.280168674127
 21
1505.250000031461
 31
0.0
1001
Sigma
1000

  0
LINE
  5
FA
330
70
100
AcDbEntity
  8
Line
100
AcDbLine
 10
2178.343137375766
 20
1479.999999992233
 30
0.0
 11
2002.845701725785
 21
1479.999999992233
 31
0.0
1001
Sigma
1000

  0
LINE
  5
FB
330
70
100
AcDbEntity
  8
Line
100
AcDbLine
 10
2178.343137375766
 20
1490.000000007769
 30
0.0
 11
2002.845701725785
 21
1490.000000007769
 31
0.0
1001
Sigma
1000

  0
LINE
  5
FC
330
70
100
AcDbEntity
  8
Hidden
 62
     3
100
AcDbLine
 10
2536.588979964492
 20
1018.499999275253
 30
0.0
 11
2541.785132395275
 21
1021.499999279913
 31
0.0
1001
Sigma
1000

  0
LINE
  5
FD
330
70
100
AcDbEntity
  8
Hidden
 62
     3
100
AcDbLine
 10
2405.81914378988
 20
1256.999999645783
 30
0.0
 11
2541.785132395275
 21
1021.499999279913
 31
0.0
1001
Sigma
1000

  0
LINE
  5
FE
330
70
100
AcDbEntity
  8
Hidden
 62
     3
100
AcDbLine
 10
2398.890940548846
 20
1252.999999639569
 30
0.0
 11
2407.551194600141
 21
1257.999999647337
 31
0.0
1001
Sigma
1000

  0
ARC
  5
FF
330
70
100
AcDbEntity
  8
Line
100
AcDbCircle
 10
2178.343137375766
 20
1324.999999751427
 30
0.0
 40
165.0000002563417
100
AcDbArc
 50
30.00000000000532
 51
90.0
1001
Sigma
1000

  0
ARC
  5
100
330
70
100
AcDbEntity
  8
Line
100
AcDbCircle
 10
2178.343137375766
 20
1324.999999751427
 30
0.0
 40
155.0000002408059
100
AcDbArc
 50
30.00000000000532
 51
90.0
1001
Sigma
1000

  0
ARC
  5
101
330
70
100
AcDbEntity
  8
Center
100
AcDbCircle
 10
2178.343137375766
 20
1324.999999751427
 30
0.0
 40
160.0000002485738
100
AcDbArc
 50
30.00000000000532
 51
90.0
1001
Sigma
1000

  0
LINE
  5
102
330
70
100
AcDbEntity
  8
Center
100
AcDbLine
 10
1796.434633269139
 20
1485.000000000001
 30
0.0
 11
3914.930806428305
 21
1485.000000000001
 31
0.0
1001
Sigma
1000

  0
LINE
  5
103
330
70
100
AcDbEntity
  8
Line
100
AcDbLine
 10
2334.350145245358
 20
1364.787936266119
 30
0.0
 11
2312.57707517089
 21
1402.49999987183
 31
0.0
1001
Sigma
1000

  0
LINE
  5
104
330
70
100
AcDbEntity
  8
Line
100
AcDbLine
 10
2339.162283890126
 20
1376.453067671358
 30
0.0
 11
2321.237329222194
 21
1407.499999879598
 31
0.0
1001
Sigma
1000

  0
LINE
  5
105
330
70
100
AcDbEntity
  8
Center
100
AcDbLine
 10
2316.907202196547
 20
1404.999999875714
 30
0.0
 11
2544.388074025538
 21
1010.991572117838
 31
0.0
1001
Sigma
1000

  0
LINE
  5
106
330
70
100
AcDbEntity
  8
Line
 62
     4
370
     9
100
AcDbLine
 10
2003.929204462265
 20
1697.500000330128
 30
0.0
 11
2003.929204462265
 21
1704.500000341013
 31
0.0
1001
Sigma
1000

  0
LINE
  5
107
330
70
100
AcDbEntity
  8
Line
 62
     4
370
     9
100
AcDbLine
 10
1994.32920444735
 20
1697.500000330128
 30
0.0
 11
1994.32920444735
 21
1704.500000341013
 31
0.0
1001
Sigma
1000

  0
LINE
  5
108
330
70
100
AcDbEntity
  8
Line
100
AcDbLine
 10
2003.929204462265
 20
1697.500000330128
 30
0.0
 11
2005.12920446413
 21
1698.700000331992
 31
0.0
1001
Sigma
1000

  0
LINE
  5
109
330
70
100
AcDbEntity
  8
Line
100
AcDbLine
 10
2005.12920446413
 20
1698.700000331992
 30
0.0
 11
2005.12920446413
 21
1704.500000341003
 31
0.0
1001
Sigma
1000

  0
LINE
  5
10A
330
70
100
AcDbEntity
  8
Line
100
AcDbLine
 10
1993.129204445486
 20
1698.700000331992
 30
0.0
 11
2005.12920446413
 21
1698.700000331992
 31
0.0
1001
Sigma
1000

  0
LINE
  5
10B
330
70
100
AcDbEntity
  8
Line
100
AcDbLine
 10
1993.129204445486
 20
1698.700000331992
 30
0.0
 11
1993.129204445486
 21
1704.500000341003
 31
0.0
1001
Sigma
1000

  0
LINE
  5
10C
330
70
100
AcDbEntity
  8
Line
100
AcDbLine
 10
1994.32920444735
 20
1697.500000330128
 30
0.0
 11
2003.929204462265
 21
1697.500000330128
 31
0.0
1001
Sigma
1000

  0
LINE
  5
10D
330
70
100
AcDbEntity
  8
Line
100
AcDbLine
 10
1993.129204445486
 20
1698.700000331992
 30
0.0
 11
1994.32920444735
 21
1697.500000330128
 31
0.0
1001
Sigma
1000

  0
LINE
  5
10E
330
70
100
AcDbEntity
  8
Line
100
AcDbLine
 10
1987.129204436165
 20
1714.500000356539
 30
0.0
 11
2011.129204473451
 21
1714.500000356549
 31
0.0
1001
Sigma
1000

  0
LINE
  5
10F
330
70
100
AcDbEntity
  8
0
  6
Continuous
 62
     3
100
AcDbLine
 10
2011.129204473451
 20
1714.500000356539
 30
0.0
 11
2010.07920447182
 21
1714.500000356549
 31
0.0
1001
Sigma
1000

  0
LINE
  5
110
330
70
100
AcDbEntity
  8
Line
100
AcDbLine
 10
2011.129204473451
 20
1714.500000356539
 30
0.0
 11
2011.129204473451
 21
1717.000000360433
 31
0.0
1001
Sigma
1000

  0
LINE
  5
111
330
70
100
AcDbEntity
  8
Line
100
AcDbLine
 10
1987.129204436165
 20
1714.500000356539
 30
0.0
 11
1987.129204436165
 21
1717.000000360433
 31
0.0
1001
Sigma
1000

  0
LINE
  5
112
330
70
100
AcDbEntity
  8
Line
100
AcDbLine
 10
1988.179204437797
 20
1705.439361834483
 30
0.0
 11
1988.179204437797
 21
1714.500000356549
 31
0.0
1001
Sigma
1000

  0
LINE
  5
113
330
70
100
AcDbEntity
  8
Line
100
AcDbLine
 10
2010.07920447182
 20
1714.500000356549
 30
0.0
 11
2010.07920447182
 21
1705.439361834483
 31
0.0
1001
Sigma
1000

  0
LINE
  5
114
330
70
100
AcDbEntity
  8
Line
100
AcDbLine
 10
1993.654204446302
 20
1714.500000356549
 30
0.0
 11
1993.654204446302
 21
1705.439361834483
 31
0.0
1001
Sigma
1000

  0
LINE
  5
115
330
70
100
AcDbEntity
  8
Line
100
AcDbLine
 10
2004.604204463314
 20
1714.500000356549
 30
0.0
 11
2004.604204463314
 21
1705.439361834483
 31
0.0
1001
Sigma
1000

  0
ARC
  5
116
330
70
100
AcDbEntity
  8
Line
100
AcDbCircle
 10
1999.129204454808
 20
1720.925000366521
 30
0.0
 40
16.42500002551765
100
AcDbArc
 50
250.5287793655091
 51
289.4712206344909
1001
Sigma
1000

  0
ARC
  5
117
330
70
100
AcDbEntity
  8
Line
100
AcDbCircle
 10
2007.341704467567
 20
1708.958510907439
 30
0.0
 40
4.458510566432181
100
AcDbArc
 50
232.1211205082824
 51
307.8788794917175
1001
Sigma
1000

  0
ARC
  5
118
330
70
100
AcDbEntity
  8
Line
100
AcDbCircle
 10
1990.916704442049
 20
1708.958510907439
 30
0.0
 40
4.458510566432181
100
AcDbArc
 50
232.1211205082824
 51
307.8788794917175
1001
Sigma
1000

  0
LINE
  5
119
330
70
100
AcDbEntity
  8
Line
100
AcDbLine
 10
2007.341704467567
 20
1704.500000341013
 30
0.0
 11
1990.916704442049
 21
1704.500000341013
 31
0.0
1001
Sigma
1000

  0
LINE
  5
11A
330
70
100
AcDbEntity
  8
Line
100
AcDbLine
 10
2007.341704467567
 20
1735.500000389164
 30
0.0
 11
1990.916704442049
 21
1735.500000389164
 31
0.0
1001
Sigma
1000

  0
ARC
  5
11B
330
70
100
AcDbEntity
  8
Line
100
AcDbCircle
 10
1990.916704442049
 20
1731.041489822737
 30
0.0
 40
4.458510566432181
100
AcDbArc
 50
52.12112050828246
 51
127.8788794917175
1001
Sigma
1000

  0
ARC
  5
11C
330
70
100
AcDbEntity
  8
Line
100
AcDbCircle
 10
2007.341704467567
 20
1731.041489822737
 30
0.0
 40
4.458510566432181
100
AcDbArc
 50
52.12112050828246
 51
127.8788794917175
1001
Sigma
1000

  0
ARC
  5
11D
330
70
100
AcDbEntity
  8
Line
100
AcDbCircle
 10
1999.129204454808
 20
1719.075000363647
 30
0.0
 40
16.42500002551765
100
AcDbArc
 50
70.52877936550906
 51
109.4712206344909
1001
Sigma
1000

  0
LINE
  5
11E
330
70
100
AcDbEntity
  8
Line
100
AcDbLine
 10
2004.604204463314
 20
1727.500000376736
 30
0.0
 11
2004.604204463314
 21
1734.560638895695
 31
0.0
1001
Sigma
1000

  0
LINE
  5
11F
330
70
100
AcDbEntity
  8
Line
100
AcDbLine
 10
1993.654204446302
 20
1727.500000376736
 30
0.0
 11
1993.654204446302
 21
1734.560638895695
 31
0.0
1001
Sigma
1000

  0
LINE
  5
120
330
70
100
AcDbEntity
  8
Line
100
AcDbLine
 10
2010.07920447182
 20
1727.500000376736
 30
0.0
 11
2010.07920447182
 21
1734.560638895695
 31
0.0
1001
Sigma
1000

  0
LINE
  5
121
330
70
100
AcDbEntity
  8
Line
100
AcDbLine
 10
1988.179204437797
 20
1727.500000376736
 30
0.0
 11
2010.07920447182
 21
1727.500000376736
 31
0.0
1001
Sigma
1000

  0
LINE
  5
122
330
70
100
AcDbEntity
  8
Line
100
AcDbLine
 10
1988.179204437797
 20
1734.560638895695
 30
0.0
 11
1988.179204437797
 21
1727.500000376736
 31
0.0
1001
Sigma
1000

  0
LINE
  5
123
330
70
100
AcDbEntity
  8
Line
100
AcDbLine
 10
2271.987918736942
 20
1967.00000074883
 30
0.0
 11
3583.987920775257
 21
1967.00000074883
 31
0.0
1001
Sigma
1000

  0
LINE
  5
124
330
70
100
AcDbEntity
  8
Line
100
AcDbLine
 10
2267.987918730738
 20
1963.000000742615
 30
0.0
 11
2263.987918724524
 21
1967.00000074883
 31
0.0
1001
Sigma
1000

  0
LINE
  5
125
330
70
100
AcDbEntity
  8
Line
100
AcDbLine
 10
2263.987918724524
 20
1967.00000074883
 30
0.0
 11
2246.958980513099
 21
1967.00000074883
 31
0.0
1001
Sigma
1000

  0
ARC
  5
126
330
70
100
AcDbEntity
  8
Line
100
AcDbCircle
 10
3587.987920781472
 20
1964.000000744169
 30
0.0
 40
5.00000000776783
100
AcDbArc
 50
36.8698976458717
 51
143.130102354169
1001
Sigma
1000

  0
LINE
  5
127
330
70
100
AcDbEntity
  8
Line
100
AcDbLine
 10
3583.987920775257
 20
1967.00000074883
 30
0.0
 11
3587.987920781472
 21
1963.000000742615
 31
0.0
1001
Sigma
1000

  0
LINE
  5
128
330
70
100
AcDbEntity
  8
Line
100
AcDbLine
 10
2271.987918736942
 20
1967.00000074883
 30
0.0
 11
2267.987918730738
 21
1963.000000742615
 31
0.0
1001
Sigma
1000

  0
ARC
  5
129
330
70
100
AcDbEntity
  8
Line
100
AcDbCircle
 10
2267.987918730738
 20
1964.000000744169
 30
0.0
 40
5.00000000776783
100
AcDbArc
 50
36.869897645831
 51
143.130102354169
1001
Sigma
1000

  0
LINE
  5
12A
330
70
100
AcDbEntity
  8
Line
100
AcDbLine
 10
3587.987920781472
 20
1963.000000742615
 30
0.0
 11
3591.987920787687
 21
1967.00000074883
 31
0.0
1001
Sigma
1000

  0
LINE
  5
12B
330
70
100
AcDbEntity
  8
Line
100
AcDbLine
 10
2267.987918730793
 20
1002.999999251069
 30
0.0
 11
2267.987918730738
 21
1269.296755900079
 31
0.0
1001
Sigma
1000

  0
LINE
  5
12C
330
70
100
AcDbEntity
  8
Line
100
AcDbLine
 10
1956.84570165432
 20
1431.249999916496
 30
0.0
 11
1957.845701655873
 21
1431.249999916496
 31
0.0
1001
Sigma
1000

  0
ARC
  5
12D
330
70
100
AcDbEntity
  8
Line
370
     9
100
AcDbCircle
 10
1937.656461034539
 20
1485.000000000001
 30
0.0
 40
40.00000006214345
100
AcDbArc
 50
302.7718433635731
 51
334.7031344231334
1001
Sigma
1000

  0
ARC
  5
12E
330
70
100
AcDbEntity
  8
Line
370
     9
100
AcDbCircle
 10
1937.656461034539
 20
1485.000000000001
 30
0.0
 40
40.00000006214345
100
AcDbArc
 50
25.17810950953311
 51
58.6990650534949
1001
Sigma
1000

  0
LINE
  5
12F
330
70
100
AcDbEntity
  8
Line
370
     9
100
AcDbLine
 10
2022.487918349332
 20
1471.399999978874
 30
0.0
 11
2090.942465125517
 21
1471.399999978863
 31
0.0
1001
Sigma
1000

  0
LINE
  5
130
330
70
100
AcDbEntity
  8
Line
370
     9
100
AcDbLine
 10
2022.487918349332
 20
1498.600000021132
 30
0.0
 11
2090.942465125522
 21
1498.600000021121
 31
0.0
1001
Sigma
1000

  0
LINE
  5
131
330
70
100
AcDbEntity
  8
Center
100
AcDbLine
 10
1937.656461034539
 20
1472.74999998097
 30
0.0
 11
1937.656461034539
 21
1542.494877138494
 31
0.0
1001
Sigma
1000

  0
LINE
  5
132
330
70
100
AcDbEntity
  8
Line
100
AcDbLine
 10
2022.487918349332
 20
1342.999999779382
 30
0.0
 11
2067.25521962099
 21
1342.999999779382
 31
0.0
1001
Sigma
1000

  0
LINE
  5
133
330
70
100
AcDbEntity
  8
Line
 62
     6
100
AcDbLine
 10
1929.187918204382
 20
1385.999999846186
 30
0.0
 11
1929.187918204382
 21
1382.999999841525
 31
0.0
1001
Sigma
1000

  0
LINE
  5
134
330
70
100
AcDbEntity
  8
Line
 62
     6
100
AcDbLine
 10
1964.454031992971
 20
1385.999999846186
 30
0.0
 11
1929.187918204382
 21
1385.999999846186
 31
0.0
1001
Sigma
1000

  0
LINE
  5
135
330
70
100
AcDbEntity
  8
Line
 62
     6
100
AcDbLine
 10
1964.454031992971
 20
1386.799999847429
 30
0.0
 11
1927.989899166421
 21
1386.799999847429
 31
0.0
1001
Sigma
1000

  0
LINE
  5
136
330
70
100
AcDbEntity
  8
Line
 62
     6
100
AcDbLine
 10
1964.454031992971
 20
1389.79999985209
 30
0.0
 11
1929.524553144805
 21
1389.79999985209
 31
0.0
1001
Sigma
1000

  0
LINE
  5
137
330
70
100
AcDbEntity
  8
Line
 62
     6
100
AcDbLine
 10
1964.454031992971
 20
1389.79999985209
 30
0.0
 11
1964.454031992971
 21
1386.799999847429
 31
0.0
1001
Sigma
1000

  0
ARC
  5
138
330
70
100
AcDbEntity
  8
Line
 62
     6
100
AcDbCircle
 10
1929.524553144805
 20
1391.799999855197
 30
0.0
 40
2.000000003107172
100
AcDbArc
 50
194.9999999999992
 51
270.0
1001
Sigma
1000

  0
ARC
  5
139
330
70
100
AcDbEntity
  8
Line
 62
     6
100
AcDbCircle
 10
1927.989899166421
 20
1389.79999985209
 30
0.0
 40
3.000000004660758
100
AcDbArc
 50
194.9999999999992
 51
270.0
1001
Sigma
1000

  0
LINE
  5
13A
330
70
100
AcDbEntity
  8
Line
 62
     6
100
AcDbLine
 10
1940.187918221472
 20
1390.799999853643
 30
0.0
 11
1932.187918209043
 21
1390.799999853643
 31
0.0
1001
Sigma
1000

  0
LINE
  5
13B
330
70
100
AcDbEntity
  8
Line
 62
     6
100
AcDbLine
 10
1961.187918254097
 20
1391.799999855197
 30
0.0
 11
1945.18791822924
 21
1391.799999855197
 31
0.0
1001
Sigma
1000

  0
LINE
  5
13C
330
70
100
AcDbEntity
  8
Line
 62
     6
100
AcDbLine
 10
1959.18791825099
 20
1386.799999847429
 30
0.0
 11
1959.18791825099
 21
1385.999999846186
 31
0.0
1001
Sigma
1000

  0
LINE
  5
13D
330
70
100
AcDbEntity
  8
Line
 62
     6
100
AcDbLine
 10
1961.187918254097
 20
1391.799999855197
 30
0.0
 11
1961.187918254097
 21
1389.79999985209
 31
0.0
1001
Sigma
1000

  0
LINE
  5
13E
330
70
100
AcDbEntity
  8
Line
 62
     6
100
AcDbLine
 10
1945.18791822924
 20
1391.799999855197
 30
0.0
 11
1945.18791822924
 21
1389.79999985209
 31
0.0
1001
Sigma
1000

  0
LINE
  5
13F
330
70
100
AcDbEntity
  8
Line
 62
     6
100
AcDbLine
 10
1938.187918218365
 20
1390.799999853643
 30
0.0
 11
1938.187918218365
 21
1389.79999985209
 31
0.0
1001
Sigma
1000

  0
LINE
  5
140
330
70
100
AcDbEntity
  8
Line
 62
     6
100
AcDbLine
 10
1934.18791821215
 20
1390.799999853643
 30
0.0
 11
1934.18791821215
 21
1389.79999985209
 31
0.0
1001
Sigma
1000

  0
LINE
  5
141
330
70
100
AcDbEntity
  8
Line
 62
     6
100
AcDbLine
 10
1947.187918232347
 20
1386.799999847429
 30
0.0
 11
1947.187918232347
 21
1385.999999846186
 31
0.0
1001
Sigma
1000

  0
LINE
  5
142
330
70
100
AcDbEntity
  8
Line
 62
     6
100
AcDbLine
 10
1932.187918209043
 20
1385.999999846186
 30
0.0
 11
1932.187918209043
 21
1386.799999847429
 31
0.0
1001
Sigma
1000

  0
LINE
  5
143
330
70
100
AcDbEntity
  8
Line
 62
     6
100
AcDbLine
 10
1940.187918221472
 20
1385.999999846186
 30
0.0
 11
1940.187918221472
 21
1386.799999847429
 31
0.0
1001
Sigma
1000

  0
ARC
  5
144
330
70
100
AcDbEntity
  8
Line
 62
     6
100
AcDbCircle
 10
1909.187918173311
 20
1383.920122549854
 30
0.0
 40
1.000000001553586
100
AcDbArc
 50
0.0
 51
94.39870535499741
1001
Sigma
1000

  0
ARC
  5
145
330
70
100
AcDbEntity
  8
Line
 62
     6
100
AcDbCircle
 10
1916.187918184186
 20
1379.999999836864
 30
0.0
 40
1.000000001553586
100
AcDbArc
 50
180.0
 51
270.0
1001
Sigma
1000

  0
ARC
  5
146
330
70
100
AcDbEntity
  8
Line
 62
     6
100
AcDbCircle
 10
1919.187918188846
 20
1379.999999836864
 30
0.0
 40
1.000000001553586
100
AcDbArc
 50
270.0
 51
0.0
1001
Sigma
1000

  0
ARC
  5
147
330
70
100
AcDbEntity
  8
Line
 62
     6
100
AcDbCircle
 10
1916.187918184186
 20
1339.999999774721
 30
0.0
 40
1.000000001553586
100
AcDbArc
 50
90.0
 51
180.0
1001
Sigma
1000

  0
ARC
  5
148
330
70
100
AcDbEntity
  8
Line
 62
     6
100
AcDbCircle
 10
1919.187918188846
 20
1339.999999774721
 30
0.0
 40
1.000000001553586
100
AcDbArc
 50
0.0
 51
90.0
1001
Sigma
1000

  0
ARC
  5
149
330
70
100
AcDbEntity
  8
Line
 62
     6
100
AcDbCircle
 10
1909.187918173311
 20
1336.079877061741
 30
0.0
 40
1.000000001553586
100
AcDbArc
 50
265.6012946450026
 51
0.0
1001
Sigma
1000

  0
LINE
  5
14A
330
70
100
AcDbEntity
  8
Line
 62
     6
100
AcDbLine
 10
1967.187918263419
 20
1338.82150684814
 30
0.0
 11
1988.687918296821
 21
1339.572303393376
 31
0.0
1001
Sigma
1000

  0
ARC
  5
14B
330
70
100
AcDbEntity
  8
Line
 62
     6
100
AcDbCircle
 10
1939.187918219918
 20
1339.999999774721
 30
0.0
 40
2.000000003107172
100
AcDbArc
 50
90.0
 51
180.0
1001
Sigma
1000

  0
ARC
  5
14C
330
70
100
AcDbEntity
  8
Line
 62
     6
100
AcDbCircle
 10
1965.187918260312
 20
1339.999999774721
 30
0.0
 40
2.000000003107172
100
AcDbArc
 50
0.0
 51
90.0
1001
Sigma
1000

  0
LINE
  5
14D
330
70
100
AcDbEntity
  8
Line
 62
     6
100
AcDbLine
 10
1990.187918299151
 20
1378.896315061589
 30
0.0
 11
1988.687918296821
 21
1380.427696218198
 31
0.0
1001
Sigma
1000

  0
LINE
  5
14E
330
70
100
AcDbEntity
  8
Line
 62
     6
100
AcDbLine
 10
1990.187918299151
 20
1341.103684549996
 30
0.0
 11
1990.187918299151
 21
1378.896315061589
 31
0.0
1001
Sigma
1000

  0
LINE
  5
14F
330
70
100
AcDbEntity
  8
Line
 62
     6
100
AcDbLine
 10
1965.454031994525
 20
1379.253203483824
 30
0.0
 11
1966.187918261865
 21
1379.253203483824
 31
0.0
1001
Sigma
1000

  0
LINE
  5
150
330
70
100
AcDbEntity
  8
Line
 62
     6
100
AcDbLine
 10
1967.187918263419
 20
1381.083906846718
 30
0.0
 11
1967.187918263419
 21
1338.916092764867
 31
0.0
1001
Sigma
1000

  0
ARC
  5
151
330
70
100
AcDbEntity
  8
Line
 62
     6
100
AcDbCircle
 10
1965.454031994525
 20
1380.253203485378
 30
0.0
 40
1.000000001553586
100
AcDbArc
 50
180.0
 51
270.0
1001
Sigma
1000

  0
ARC
  5
152
330
70
100
AcDbEntity
  8
Line
 62
     6
100
AcDbCircle
 10
1966.187918261865
 20
1380.253203485378
 30
0.0
 40
1.000000001553586
100
AcDbArc
 50
270.0
 51
0.0
1001
Sigma
1000

  0
LINE
  5
153
330
70
100
AcDbEntity
  8
Line
 62
     6
100
AcDbLine
 10
1920.1879181904
 20
1382.999999841525
 30
0.0
 11
1964.454031992971
 21
1382.999999841525
 31
0.0
1001
Sigma
1000

  0
LINE
  5
154
330
70
100
AcDbEntity
  8
Line
 62
     6
100
AcDbLine
 10
1947.562918232929
 20
1391.799999855197
 30
0.0
 11
1958.812918250407
 21
1391.799999855197
 31
0.0
1001
Sigma
1000

  0
LINE
  5
155
330
70
100
AcDbEntity
  8
Line
 62
     6
100
AcDbLine
 10
1945.687918230017
 20
1392.443398138397
 30
0.0
 11
1945.687918230017
 21
1395.656601578988
 31
0.0
1001
Sigma
1000

  0
LINE
  5
156
330
70
100
AcDbEntity
  8
Line
 62
     6
100
AcDbLine
 10
1949.437918235842
 20
1392.443398138397
 30
0.0
 11
1949.437918235842
 21
1395.656601578988
 31
0.0
1001
Sigma
1000

  0
LINE
  5
157
330
70
100
AcDbEntity
  8
Line
 62
     6
100
AcDbLine
 10
1960.68791825332
 20
1392.443398138397
 30
0.0
 11
1960.68791825332
 21
1395.656601578988
 31
0.0
1001
Sigma
1000

  0
LINE
  5
158
330
70
100
AcDbEntity
  8
Line
 62
     6
100
AcDbLine
 10
1956.937918247495
 20
1392.443398138397
 30
0.0
 11
1956.937918247495
 21
1395.656601578988
 31
0.0
1001
Sigma
1000

  0
ARC
  5
159
330
70
100
AcDbEntity
  8
Line
 62
     6
100
AcDbCircle
 10
1953.187918241668
 20
1385.04999984471
 30
0.0
 40
11.25000001747784
100
AcDbArc
 50
70.52877936550906
 51
109.4712206344909
1001
Sigma
1000

  0
ARC
  5
15A
330
70
100
AcDbEntity
  8
Line
 62
     6
100
AcDbCircle
 10
1958.812918250407
 20
1393.246225501614
 30
0.0
 40
3.053774360570002
100
AcDbArc
 50
52.12112050828246
 51
127.8788794917175
1001
Sigma
1000

  0
ARC
  5
15B
330
70
100
AcDbEntity
  8
Line
 62
     6
100
AcDbCircle
 10
1947.562918232929
 20
1393.246225501614
 30
0.0
 40
3.053774360570002
100
AcDbArc
 50
52.12112050828246
 51
127.8788794917175
1001
Sigma
1000

  0
LINE
  5
15C
330
70
100
AcDbEntity
  8
Line
 62
     6
100
AcDbLine
 10
1958.812918250407
 20
1396.299999862188
 30
0.0
 11
1947.562918232929
 21
1396.299999862188
 31
0.0
1001
Sigma
1000

  0
ARC
  5
15D
330
70
100
AcDbEntity
  8
Line
 62
     6
100
AcDbCircle
 10
1953.187918241668
 20
1403.049999872675
 30
0.0
 40
11.25000001747784
100
AcDbArc
 50
250.5287793655091
 51
289.4712206344909
1001
Sigma
1000

  0
ARC
  5
15E
330
70
100
AcDbEntity
  8
Line
 62
     6
100
AcDbCircle
 10
1958.812918250407
 20
1394.853774215771
 30
0.0
 40
3.053774360570002
100
AcDbArc
 50
232.1211205082824
 51
307.8788794917175
1001
Sigma
1000

  0
ARC
  5
15F
330
70
100
AcDbEntity
  8
Line
 62
     6
100
AcDbCircle
 10
1947.562918232929
 20
1394.853774215771
 30
0.0
 40
3.053774360570002
100
AcDbArc
 50
232.1211205082824
 51
307.8788794917175
1001
Sigma
1000

  0
LINE
  5
160
330
70
100
AcDbEntity
  8
Line
 62
     6
100
AcDbLine
 10
1958.812918250407
 20
1396.299999862188
 30
0.0
 11
1947.562918232929
 21
1396.299999862188
 31
0.0
1001
Sigma
1000

  0
ARC
  5
161
330
70
100
AcDbEntity
  8
Line
 62
     6
100
AcDbCircle
 10
1936.187918215257
 20
1387.299999848206
 30
0.0
 40
8.500000013205582
100
AcDbArc
 50
61.92751306414512
 51
118.0724869358549
1001
Sigma
1000

  0
LINE
  5
162
330
70
100
AcDbEntity
  8
Line
 62
     6
100
AcDbLine
 10
1932.187918209043
 20
1394.799999859858
 30
0.0
 11
1940.187918221472
 21
1394.799999859858
 31
0.0
1001
Sigma
1000

  0
LINE
  5
163
330
70
100
AcDbEntity
  8
Line
 62
     6
100
AcDbLine
 10
1957.187918247883
 20
1397.655968462774
 30
0.0
 11
1956.38791824664
 21
1398.455968464017
 31
0.0
1001
Sigma
1000

  0
LINE
  5
164
330
70
100
AcDbEntity
  8
Line
 62
     6
100
AcDbLine
 10
1956.38791824664
 20
1398.455968464017
 30
0.0
 11
1949.987918236697
 21
1398.455968464017
 31
0.0
1001
Sigma
1000

  0
LINE
  5
165
330
70
100
AcDbEntity
  8
Line
 62
     6
100
AcDbLine
 10
1957.187918247883
 20
1396.299999862188
 30
0.0
 11
1957.187918247883
 21
1397.655968462774
 31
0.0
1001
Sigma
1000

  0
LINE
  5
166
330
70
100
AcDbEntity
  8
Line
 62
     6
100
AcDbLine
 10
1957.187918247883
 20
1397.655968462774
 30
0.0
 11
1949.187918235454
 21
1397.655968462774
 31
0.0
1001
Sigma
1000

  0
LINE
  5
167
330
70
100
AcDbEntity
  8
Line
 62
     6
100
AcDbLine
 10
1949.187918235454
 20
1397.655968462774
 30
0.0
 11
1949.187918235454
 21
1396.299999862188
 31
0.0
1001
Sigma
1000

  0
LINE
  5
168
330
70
100
AcDbEntity
  8
Line
 62
     6
100
AcDbLine
 10
1949.987918236697
 20
1398.455968464017
 30
0.0
 11
1949.187918235454
 21
1397.655968462774
 31
0.0
1001
Sigma
1000

  0
LINE
  5
169
330
70
100
AcDbEntity
  8
Line
 62
     6
100
AcDbLine
 10
1956.38791824664
 20
1396.299999862188
 30
0.0
 11
1956.38791824664
 21
1398.455968464017
 31
0.0
1001
Sigma
1000

  0
LINE
  5
16A
330
70
100
AcDbEntity
  8
Line
 62
     6
100
AcDbLine
 10
1949.987918236697
 20
1398.455968464017
 30
0.0
 11
1949.987918236697
 21
1396.299999862188
 31
0.0
1001
Sigma
1000

  0
LINE
  5
16B
330
70
100
AcDbEntity
  8
Line
 62
     6
100
AcDbLine
 10
1940.187918221472
 20
1390.799999853643
 30
0.0
 11
1940.187918221472
 21
1394.799999859858
 31
0.0
1001
Sigma
1000

  0
LINE
  5
16C
330
70
100
AcDbEntity
  8
Line
 62
     6
100
AcDbLine
 10
1932.187918209043
 20
1390.799999853643
 30
0.0
 11
1932.187918209043
 21
1394.799999859858
 31
0.0
1001
Sigma
1000

  0
LINE
  5
16D
330
70
100
AcDbEntity
  8
Line
100
AcDbLine
 10
2022.487918349332
 20
1376.999999832204
 30
0.0
 11
2067.25521962099
 21
1376.999999832204
 31
0.0
1001
Sigma
1000

  0
LINE
  5
16E
330
70
100
AcDbEntity
  8
Line
 62
     4
370
     9
100
AcDbLine
 10
1967.187918263419
 20
1379.699492761148
 30
0.0
 11
1990.187918299151
 21
1378.896315061589
 31
0.0
1001
Sigma
1000

  0
LINE
  5
16F
330
70
100
AcDbEntity
  8
Line
 62
     6
100
AcDbLine
 10
2006.187918324009
 20
1357.999999802686
 30
0.0
 11
2006.187918324009
 21
1361.9999998089
 31
0.0
1001
Sigma
1000

  0
LINE
  5
170
330
70
100
AcDbEntity
  8
Line
 62
     6
100
AcDbLine
 10
2001.187918316241
 20
1372.499999825213
 30
0.0
 11
1999.117254535824
 21
1372.499999825213
 31
0.0
1001
Sigma
1000

  0
LINE
  5
171
330
70
100
AcDbEntity
  8
Line
 62
     6
100
AcDbLine
 10
1967.187918263419
 20
1381.178492763445
 30
0.0
 11
1988.687918296821
 21
1380.427696218198
 31
0.0
1001
Sigma
1000

  0
LINE
  5
172
330
70
100
AcDbEntity
  8
Line
 62
     6
100
AcDbLine
 10
1993.687918304589
 20
1341.999999777828
 30
0.0
 11
1990.187918299151
 21
1341.999999777828
 31
0.0
1001
Sigma
1000

  0
LINE
  5
173
330
70
100
AcDbEntity
  8
Line
 62
     6
100
AcDbLine
 10
1993.687918304589
 20
1377.999999833757
 30
0.0
 11
1990.187918299151
 21
1377.999999833757
 31
0.0
1001
Sigma
1000

  0
LINE
  5
174
330
70
100
AcDbEntity
  8
Line
 62
     6
100
AcDbLine
 10
1915.187918182633
 20
1382.999999841525
 30
0.0
 11
1915.187918182633
 21
1379.999999836864
 31
0.0
1001
Sigma
1000

  0
LINE
  5
175
330
70
100
AcDbEntity
  8
Line
 62
     6
100
AcDbLine
 10
1916.187918184186
 20
1378.999999835311
 30
0.0
 11
1919.187918188846
 21
1378.999999835311
 31
0.0
1001
Sigma
1000

  0
LINE
  5
176
330
70
100
AcDbEntity
  8
Line
 62
     6
100
AcDbLine
 10
1964.454031992971
 20
1380.253203485378
 30
0.0
 11
1964.454031992971
 21
1385.999999846186
 31
0.0
1001
Sigma
1000

  0
LINE
  5
177
330
70
100
AcDbEntity
  8
Line
 62
     6
100
AcDbLine
 10
1920.1879181904
 20
1382.999999841525
 30
0.0
 11
1920.1879181904
 21
1379.999999836864
 31
0.0
1001
Sigma
1000

  0
LINE
  5
178
330
70
100
AcDbEntity
  8
Line
 62
     6
100
AcDbLine
 10
1995.187918306919
 20
1376.499999831427
 30
0.0
 11
1995.187918306919
 21
1343.499999780158
 31
0.0
1001
Sigma
1000

  0
LINE
  5
179
330
70
100
AcDbEntity
  8
Line
 62
     6
100
AcDbLine
 10
2001.187918316241
 20
1347.499999786373
 30
0.0
 11
1999.117254535824
 21
1347.499999786373
 31
0.0
1001
Sigma
1000

  0
LINE
  5
17A
330
70
100
AcDbEntity
  8
Line
 62
     6
100
AcDbLine
 10
1910.187918174864
 20
1383.920122549854
 30
0.0
 11
1910.187918174864
 21
1336.079877061741
 31
0.0
1001
Sigma
1000

  0
LINE
  5
17B
330
70
100
AcDbEntity
  8
Line
 62
     6
100
AcDbLine
 10
2006.187918324009
 20
1361.9999998089
 30
0.0
 11
2001.187918316241
 21
1361.9999998089
 31
0.0
1001
Sigma
1000

  0
LINE
  5
17C
330
70
100
AcDbEntity
  8
Line
 62
     6
100
AcDbLine
 10
1939.187918219918
 20
1341.999999777828
 30
0.0
 11
1965.187918260312
 21
1341.999999777828
 31
0.0
1001
Sigma
1000

  0
LINE
  5
17D
330
70
100
AcDbEntity
  8
Line
 62
     6
100
AcDbLine
 10
1915.187918182633
 20
1336.99999977006
 30
0.0
 11
1915.187918182633
 21
1339.999999774721
 31
0.0
1001
Sigma
1000

  0
LINE
  5
17E
330
70
100
AcDbEntity
  8
Line
 62
     6
100
AcDbLine
 10
1916.187918184186
 20
1340.999999776275
 30
0.0
 11
1919.187918188846
 21
1340.999999776275
 31
0.0
1001
Sigma
1000

  0
LINE
  5
17F
330
70
100
AcDbEntity
  8
Line
 62
     6
100
AcDbLine
 10
1920.1879181904
 20
1336.99999977006
 30
0.0
 11
1920.1879181904
 21
1339.999999774721
 31
0.0
1001
Sigma
1000

  0
LINE
  5
180
330
70
100
AcDbEntity
  8
Line
 62
     6
100
AcDbLine
 10
1910.187918174864
 20
1382.999999841525
 30
0.0
 11
1915.187918182633
 21
1382.999999841525
 31
0.0
1001
Sigma
1000

  0
LINE
  5
181
330
70
100
AcDbEntity
  8
Line
 62
     6
100
AcDbLine
 10
2006.187918324009
 20
1357.999999802686
 30
0.0
 11
2001.187918316241
 21
1357.999999802686
 31
0.0
1001
Sigma
1000

  0
LINE
  5
182
330
70
100
AcDbEntity
  8
Line
 62
     6
100
AcDbLine
 10
1909.111221674291
 20
1335.082822574691
 30
0.0
 11
1899.187918157775
 21
1335.846153614427
 31
0.0
1001
Sigma
1000

  0
LINE
  5
183
330
70
100
AcDbEntity
  8
Line
 62
     6
100
AcDbLine
 10
1909.111221674291
 20
1384.917177036904
 30
0.0
 11
1899.187918157775
 21
1384.153845997168
 31
0.0
1001
Sigma
1000

  0
LINE
  5
184
330
70
100
AcDbEntity
  8
Line
 62
     6
100
AcDbLine
 10
2001.187918316241
 20
1347.499999786373
 30
0.0
 11
2001.187918316241
 21
1372.499999825213
 31
0.0
1001
Sigma
1000

  0
LINE
  5
185
330
70
100
AcDbEntity
  8
Line
 62
     6
100
AcDbLine
 10
1910.187918174864
 20
1336.99999977006
 30
0.0
 11
1915.187918182633
 21
1336.99999977006
 31
0.0
1001
Sigma
1000

  0
LINE
  5
186
330
70
100
AcDbEntity
  8
Line
 62
     6
100
AcDbLine
 10
1920.1879181904
 20
1336.99999977006
 30
0.0
 11
1937.187918216811
 21
1336.99999977006
 31
0.0
1001
Sigma
1000

  0
LINE
  5
187
330
70
100
AcDbEntity
  8
Line
 62
     6
100
AcDbLine
 10
1998.18791831158
 20
1349.109657344083
 30
0.0
 11
1998.18791831158
 21
1370.890342267512
 31
0.0
1001
Sigma
1000

  0
LINE
  5
188
330
70
100
AcDbEntity
  8
Line
 62
     6
100
AcDbLine
 10
1899.187918157775
 20
1384.153845997168
 30
0.0
 11
1899.187918157775
 21
1335.846153614427
 31
0.0
1001
Sigma
1000

  0
LINE
  5
189
330
70
100
AcDbEntity
  8
Line
 62
     6
100
AcDbLine
 10
1995.187918306919
 20
1363.999999812007
 30
0.0
 11
1998.18791831158
 21
1363.999999812007
 31
0.0
1001
Sigma
1000

  0
LINE
  5
18A
330
70
100
AcDbEntity
  8
Line
 62
     6
100
AcDbLine
 10
1937.187918216811
 20
1336.99999977006
 30
0.0
 11
1937.187918216811
 21
1339.999999774721
 31
0.0
1001
Sigma
1000

  0
LINE
  5
18B
330
70
100
AcDbEntity
  8
Line
 62
     6
100
AcDbLine
 10
1995.187918306919
 20
1355.999999799578
 30
0.0
 11
1998.18791831158
 21
1355.999999799578
 31
0.0
1001
Sigma
1000

  0
LINE
  5
18C
330
70
100
AcDbEntity
  8
Line
 62
     6
100
AcDbLine
 10
1998.18791831158
 20
1349.109657344083
 30
0.0
 11
1999.117254535824
 21
1347.499999786373
 31
0.0
1001
Sigma
1000

  0
LINE
  5
18D
330
70
100
AcDbEntity
  8
Line
 62
     6
100
AcDbLine
 10
1998.18791831158
 20
1370.890342267512
 30
0.0
 11
1999.117254535824
 21
1372.499999825213
 31
0.0
1001
Sigma
1000

  0
LINE
  5
18E
330
70
100
AcDbEntity
  8
Line
 62
     6
100
AcDbLine
 10
1993.687918304589
 20
1377.999999833757
 30
0.0
 11
1995.187918306919
 21
1376.499999831427
 31
0.0
1001
Sigma
1000

  0
LINE
  5
18F
330
70
100
AcDbEntity
  8
Line
 62
     6
100
AcDbLine
 10
1995.187918306919
 20
1343.499999780158
 30
0.0
 11
1993.687918304589
 21
1341.999999777828
 31
0.0
1001
Sigma
1000

  0
ARC
  5
190
330
70
100
AcDbEntity
  8
Line
100
AcDbCircle
 10
2005.987918323698
 20
1378.499999834534
 30
0.0
 40
2.500000003883966
100
AcDbArc
 50
0.0
 51
180.0
1001
Sigma
1000

  0
LINE
  5
191
330
70
100
AcDbEntity
  8
Line
100
AcDbLine
 10
2003.487918319814
 20
1378.499999834534
 30
0.0
 11
2003.487918319814
 21
1341.499999777051
 31
0.0
1001
Sigma
1000

  0
LINE
  5
192
330
70
100
AcDbEntity
  8
Line
100
AcDbLine
 10
2036.487918371082
 20
1342.249999778216
 30
0.0
 11
2037.487918372636
 21
1341.249999776663
 31
0.0
1001
Sigma
1000

  0
LINE
  5
193
330
70
100
AcDbEntity
  8
Line
100
AcDbLine
 10
2036.487918371082
 20
1377.749999833369
 30
0.0
 11
2037.487918372636
 21
1378.749999834922
 31
0.0
1001
Sigma
1000

  0
LINE
  5
194
330
70
100
AcDbEntity
  8
Line
100
AcDbLine
 10
2036.487918371082
 20
1342.249999778216
 30
0.0
 11
2036.487918371082
 21
1342.999999779382
 31
0.0
1001
Sigma
1000

  0
LINE
  5
195
330
70
100
AcDbEntity
  8
Line
100
AcDbLine
 10
2036.487918371082
 20
1376.999999832204
 30
0.0
 11
2036.487918371082
 21
1377.749999833369
 31
0.0
1001
Sigma
1000

  0
LINE
  5
196
330
70
100
AcDbEntity
  8
Line
100
AcDbLine
 10
2036.987918371859
 20
1398.999999866383
 30
0.0
 11
2037.487918372636
 21
1398.499999865606
 31
0.0
1001
Sigma
1000

  0
LINE
  5
197
330
70
100
AcDbEntity
  8
0
  6
Continuous
 62
     3
100
AcDbLine
 10
2037.487918372636
 20
1321.499999745979
 30
0.0
 11
2036.987918371859
 21
1320.999999745203
 31
0.0
1001
Sigma
1000

  0
LINE
  5
198
330
70
100
AcDbEntity
  8
Line
100
AcDbLine
 10
1979.487918282528
 20
1398.999999866383
 30
0.0
 11
1977.487918279421
 21
1396.999999863276
 31
0.0
1001
Sigma
1000

  0
LINE
  5
199
330
70
100
AcDbEntity
  8
Line
100
AcDbLine
 10
1977.487918279421
 20
1322.99999974831
 30
0.0
 11
1979.487918282528
 21
1320.999999745203
 31
0.0
1001
Sigma
1000

  0
LINE
  5
19A
330
70
100
AcDbEntity
  8
Line
100
AcDbLine
 10
2036.487918371082
 20
1377.749999833369
 30
0.0
 11
2022.487918349332
 21
1377.749999833369
 31
0.0
1001
Sigma
1000

  0
LINE
  5
19B
330
70
100
AcDbEntity
  8
Line
100
AcDbLine
 10
2036.487918371082
 20
1342.249999778216
 30
0.0
 11
2022.487918349332
 21
1342.249999778216
 31
0.0
1001
Sigma
1000

  0
LINE
  5
19C
330
70
100
AcDbEntity
  8
Line
100
AcDbLine
 10
2022.487918349332
 20
1372.499999825213
 30
0.0
 11
2008.487918327582
 21
1372.499999825213
 31
0.0
1001
Sigma
1000

  0
LINE
  5
19D
330
70
100
AcDbEntity
  8
Line
100
AcDbLine
 10
2022.487918349332
 20
1347.499999786373
 30
0.0
 11
2008.487918327582
 21
1347.499999786373
 31
0.0
1001
Sigma
1000

  0
LINE
  5
19E
330
70
100
AcDbEntity
  8
Line
100
AcDbLine
 10
2008.487918327582
 20
1378.499999834534
 30
0.0
 11
2008.487918327582
 21
1341.499999777051
 31
0.0
1001
Sigma
1000

  0
ARC
  5
19F
330
70
100
AcDbEntity
  8
Line
100
AcDbCircle
 10
2005.987918323698
 20
1341.499999777051
 30
0.0
 40
2.500000003883966
100
AcDbArc
 50
180.0
 51
0.0
1001
Sigma
1000

  0
LINE
  5
1A0
330
70
100
AcDbEntity
  8
Line
100
AcDbLine
 10
2037.487918372636
 20
1321.499999745979
 30
0.0
 11
2037.487918372636
 21
1342.999999779382
 31
0.0
1001
Sigma
1000

  0
LINE
  5
1A1
330
70
100
AcDbEntity
  8
Line
100
AcDbLine
 10
2037.487918372636
 20
1376.999999832204
 30
0.0
 11
2037.487918372636
 21
1398.499999865606
 31
0.0
1001
Sigma
1000

  0
LINE
  5
1A2
330
70
100
AcDbEntity
  8
Line
100
AcDbLine
 10
1993.845701711802
 20
1498.750000021363
 30
0.0
 11
1993.845701711802
 21
1499.586767710792
 31
0.0
1001
Sigma
1000

  0
LINE
  5
1A3
330
70
100
AcDbEntity
  8
Line
100
AcDbLine
 10
1993.845701711802
 20
1498.750000021363
 30
0.0
 11
1994.845701713356
 21
1498.750000021363
 31
0.0
1001
Sigma
1000

  0
ARC
  5
1A4
330
70
100
AcDbEntity
  8
Line
100
AcDbCircle
 10
1916.345701591399
 20
1481.249999994175
 30
0.0
 40
1.500000002330379
100
AcDbArc
 50
180.0
 51
270.0
1001
Sigma
1000

  0
ARC
  5
1A5
330
70
100
AcDbEntity
  8
Line
100
AcDbCircle
 10
1916.345701591399
 20
1489.250000006603
 30
0.0
 40
1.500000002330379
100
AcDbArc
 50
90.0
 51
180.0
1001
Sigma
1000

  0
LINE
  5
1A6
330
70
100
AcDbEntity
  8
Line
370
     9
100
AcDbLine
 10
1915.845701590623
 20
1489.750000007381
 30
0.0
 11
1919.845701596837
 21
1489.750000007381
 31
0.0
1001
Sigma
1000

  0
LINE
  5
1A7
330
70
100
AcDbEntity
  8
Line
370
     9
100
AcDbLine
 10
1915.845701590623
 20
1488.750000005827
 30
0.0
 11
1919.845701596837
 21
1488.750000005827
 31
0.0
1001
Sigma
1000

  0
LINE
  5
1A8
330
70
100
AcDbEntity
  8
Line
370
     9
100
AcDbLine
 10
1915.845701590623
 20
1487.750000004273
 30
0.0
 11
1919.845701596837
 21
1487.750000004273
 31
0.0
1001
Sigma
1000

  0
LINE
  5
1A9
330
70
100
AcDbEntity
  8
Line
370
     9
100
AcDbLine
 10
1915.845701590623
 20
1486.75000000272
 30
0.0
 11
1919.845701596837
 21
1486.75000000272
 31
0.0
1001
Sigma
1000

  0
LINE
  5
1AA
330
70
100
AcDbEntity
  8
Line
370
     9
100
AcDbLine
 10
1915.845701590623
 20
1485.750000001166
 30
0.0
 11
1919.845701596837
 21
1485.750000001166
 31
0.0
1001
Sigma
1000

  0
LINE
  5
1AB
330
70
100
AcDbEntity
  8
Line
370
     9
100
AcDbLine
 10
1915.845701590623
 20
1484.249999998836
 30
0.0
 11
1919.845701596837
 21
1484.249999998836
 31
0.0
1001
Sigma
1000

  0
LINE
  5
1AC
330
70
100
AcDbEntity
  8
Line
370
     9
100
AcDbLine
 10
1915.845701590623
 20
1483.249999997282
 30
0.0
 11
1919.845701596837
 21
1483.249999997282
 31
0.0
1001
Sigma
1000

  0
LINE
  5
1AD
330
70
100
AcDbEntity
  8
Line
370
     9
100
AcDbLine
 10
1915.845701590623
 20
1482.249999995729
 30
0.0
 11
1919.845701596837
 21
1482.249999995729
 31
0.0
1001
Sigma
1000

  0
LINE
  5
1AE
330
70
100
AcDbEntity
  8
Line
370
     9
100
AcDbLine
 10
1915.845701590623
 20
1481.249999994175
 30
0.0
 11
1919.845701596837
 21
1481.249999994175
 31
0.0
1001
Sigma
1000

  0
LINE
  5
1AF
330
70
100
AcDbEntity
  8
Line
370
     9
100
AcDbLine
 10
1915.845701590623
 20
1480.249999992621
 30
0.0
 11
1919.845701596837
 21
1480.249999992621
 31
0.0
1001
Sigma
1000

  0
LINE
  5
1B0
330
70
100
AcDbEntity
  8
Line
100
AcDbLine
 10
1919.845701596837
 20
1479.749999991845
 30
0.0
 11
1916.345701591399
 21
1479.749999991845
 31
0.0
1001
Sigma
1000

  0
LINE
  5
1B1
330
70
100
AcDbEntity
  8
Line
100
AcDbLine
 10
1919.845701596837
 20
1490.750000008934
 30
0.0
 11
1916.345701591399
 21
1490.750000008934
 31
0.0
1001
Sigma
1000

  0
LINE
  5
1B2
330
70
100
AcDbEntity
  8
Line
100
AcDbLine
 10
1919.845701596837
 20
1480.249999992621
 30
0.0
 11
1920.345701597614
 21
1480.249999992621
 31
0.0
1001
Sigma
1000

  0
LINE
  5
1B3
330
70
100
AcDbEntity
  8
Line
100
AcDbLine
 10
1919.845701596837
 20
1490.250000008157
 30
0.0
 11
1920.345701597614
 21
1490.250000008157
 31
0.0
1001
Sigma
1000

  0
LINE
  5
1B4
330
70
100
AcDbEntity
  8
Line
100
AcDbLine
 10
1920.345701597614
 20
1481.249999994175
 30
0.0
 11
1921.845701599944
 21
1481.249999994175
 31
0.0
1001
Sigma
1000

  0
LINE
  5
1B5
330
70
100
AcDbEntity
  8
Line
100
AcDbLine
 10
1920.345701597614
 20
1489.250000006603
 30
0.0
 11
1921.845701599944
 21
1489.250000006603
 31
0.0
1001
Sigma
1000

  0
LINE
  5
1B6
330
70
100
AcDbEntity
  8
Line
100
AcDbLine
 10
1914.845701589069
 20
1489.250000006603
 30
0.0
 11
1914.845701589069
 21
1481.249999994175
 31
0.0
1001
Sigma
1000

  0
LINE
  5
1B7
330
70
100
AcDbEntity
  8
Line
100
AcDbLine
 10
1915.845701590623
 20
1490.664213571171
 30
0.0
 11
1915.845701590623
 21
1479.835786429598
 31
0.0
1001
Sigma
1000

  0
ARC
  5
1B8
330
70
100
AcDbEntity
  8
Line
100
AcDbCircle
 10
1950.915108899806
 20
1456.249999955335
 30
0.0
 40
8.00000001242869
100
AcDbArc
 50
180.0
 51
270.0
1001
Sigma
1000

  0
LINE
  5
1B9
330
70
100
AcDbEntity
  8
Line
100
AcDbLine
 10
1920.345701597614
 20
1490.250000008157
 30
0.0
 11
1920.345701597614
 21
1480.249999992621
 31
0.0
1001
Sigma
1000

  0
LINE
  5
1BA
330
70
100
AcDbEntity
  8
Line
100
AcDbLine
 10
1949.845701643445
 20
1442.012601971786
 30
0.0
 11
1949.845701643445
 21
1448.321799130498
 31
0.0
1001
Sigma
1000

  0
ARC
  5
1BB
330
70
100
AcDbEntity
  8
Line
100
AcDbCircle
 10
1952.01171213531
 20
1432.249999918039
 30
0.0
 40
10.00000001553586
100
AcDbArc
 50
90.0
 51
164.1733798681208
1001
Sigma
1000

  0
ARC
  5
1BC
330
70
100
AcDbEntity
  8
Line
100
AcDbCircle
 10
1922.915108856306
 20
1458.770860046212
 30
0.0
 40
10.00000001553586
100
AcDbArc
 50
291.1297688147394
 51
0.0
1001
Sigma
1000

  0
LINE
  5
1BD
330
70
100
AcDbEntity
  8
Line
100
AcDbLine
 10
1919.845701596837
 20
1490.750000008934
 30
0.0
 11
1919.845701596837
 21
1479.749999991845
 31
0.0
1001
Sigma
1000

  0
LINE
  5
1BE
330
70
100
AcDbEntity
  8
Line
100
AcDbLine
 10
1954.845701651213
 20
1442.249999933585
 30
0.0
 11
1954.845701651213
 21
1448.249999942907
 31
0.0
1001
Sigma
1000

  0
LINE
  5
1BF
330
70
100
AcDbEntity
  8
Line
100
AcDbLine
 10
1954.845701651213
 20
1442.249999933585
 30
0.0
 11
1952.01171213531
 21
1442.249999933585
 31
0.0
1001
Sigma
1000

  0
LINE
  5
1C0
330
70
100
AcDbEntity
  8
Line
100
AcDbLine
 10
1954.845701651213
 20
1448.249999942907
 30
0.0
 11
1950.915108899806
 21
1448.249999942907
 31
0.0
1001
Sigma
1000

  0
LINE
  5
1C1
330
70
100
AcDbEntity
  8
Line
100
AcDbLine
 10
1942.915108887378
 20
1472.74999998097
 30
0.0
 11
1942.915108887378
 21
1456.249999955335
 31
0.0
1001
Sigma
1000

  0
LINE
  5
1C2
330
70
100
AcDbEntity
  8
Line
100
AcDbLine
 10
1932.915108871842
 20
1472.74999998097
 30
0.0
 11
1932.915108871842
 21
1458.770860046212
 31
0.0
1001
Sigma
1000

  0
LINE
  5
1C3
330
70
100
AcDbEntity
  8
Line
100
AcDbLine
 10
1943.915108888932
 20
1472.74999998097
 30
0.0
 11
1931.915108870289
 21
1472.74999998097
 31
0.0
1001
Sigma
1000

  0
ARC
  5
1C4
330
70
100
AcDbEntity
  8
Line
100
AcDbCircle
 10
1930.845701613927
 20
1438.249999927371
 30
0.0
 40
12.00000001864303
100
AcDbArc
 50
111.1297688147394
 51
344.1733798681208
1001
Sigma
1000

  0
CIRCLE
  5
1C5
330
70
100
AcDbEntity
  8
Line
100
AcDbCircle
 10
1930.845701613927
 20
1438.249999927371
 30
0.0
 40
6.000000009321517
1001
Sigma
1000

  0
LINE
  5
1C6
330
70
100
AcDbEntity
  8
Line
100
AcDbLine
 10
1934.915108874949
 20
1502.2500000268
 30
0.0
 11
1934.915108874949
 21
1501.250000025247
 31
0.0
1001
Sigma
1000

  0
LINE
  5
1C7
330
70
100
AcDbEntity
  8
Line
100
AcDbLine
 10
1940.915108884271
 20
1501.250000025247
 30
0.0
 11
1940.915108884271
 21
1502.2500000268
 31
0.0
1001
Sigma
1000

  0
LINE
  5
1C8
330
70
100
AcDbEntity
  8
Line
100
AcDbLine
 10
1942.915108887378
 20
1501.250000025247
 30
0.0
 11
1940.915108884271
 21
1501.250000025247
 31
0.0
1001
Sigma
1000

  0
LINE
  5
1C9
330
70
100
AcDbEntity
  8
Line
100
AcDbLine
 10
1934.915108874949
 20
1501.250000025247
 30
0.0
 11
1932.915108871842
 21
1501.250000025247
 31
0.0
1001
Sigma
1000

  0
LINE
  5
1CA
330
70
100
AcDbEntity
  8
Line
100
AcDbLine
 10
1940.915108884271
 20
1502.2500000268
 30
0.0
 11
1934.915108874949
 21
1502.2500000268
 31
0.0
1001
Sigma
1000

  0
LINE
  5
1CB
330
70
100
AcDbEntity
  8
Line
100
AcDbLine
 10
1932.915108871842
 20
1501.250000025247
 30
0.0
 11
1932.915108871842
 21
1497.750000019809
 31
0.0
1001
Sigma
1000

  0
LINE
  5
1CC
330
70
100
AcDbEntity
  8
Line
100
AcDbLine
 10
1942.915108887378
 20
1497.750000019809
 30
0.0
 11
1942.915108887378
 21
1501.250000025247
 31
0.0
1001
Sigma
1000

  0
LINE
  5
1CD
330
70
100
AcDbEntity
  8
Line
100
AcDbLine
 10
1931.915108870289
 20
1497.750000019809
 30
0.0
 11
1932.915108871842
 21
1497.750000019809
 31
0.0
1001
Sigma
1000

  0
LINE
  5
1CE
330
70
100
AcDbEntity
  8
Line
100
AcDbLine
 10
1942.915108887378
 20
1497.750000019809
 30
0.0
 11
1943.915108888932
 21
1497.750000019809
 31
0.0
1001
Sigma
1000

  0
LINE
  5
1CF
330
70
100
AcDbEntity
  8
Line
100
AcDbLine
 10
1931.915108870289
 20
1491.750000010488
 30
0.0
 11
1931.915108870289
 21
1497.750000019809
 31
0.0
1001
Sigma
1000

  0
LINE
  5
1D0
330
70
100
AcDbEntity
  8
Line
100
AcDbLine
 10
1943.915108888932
 20
1491.750000010488
 30
0.0
 11
1943.915108888932
 21
1497.750000019809
 31
0.0
1001
Sigma
1000

  0
LINE
  5
1D1
330
70
100
AcDbEntity
  8
Line
100
AcDbLine
 10
1931.915108870289
 20
1478.749999990291
 30
0.0
 11
1931.915108870289
 21
1472.74999998097
 31
0.0
1001
Sigma
1000

  0
LINE
  5
1D2
330
70
100
AcDbEntity
  8
Line
100
AcDbLine
 10
1944.915108890485
 20
1478.749999990291
 30
0.0
 11
1921.845701599944
 21
1478.749999990291
 31
0.0
1001
Sigma
1000

  0
LINE
  5
1D3
330
70
100
AcDbEntity
  8
Line
100
AcDbLine
 10
1944.915108890485
 20
1491.750000010488
 30
0.0
 11
1921.845701599944
 21
1491.750000010488
 31
0.0
1001
Sigma
1000

  0
LINE
  5
1D4
330
70
100
AcDbEntity
  8
Line
100
AcDbLine
 10
1921.845701599944
 20
1491.750000010488
 30
0.0
 11
1921.845701599944
 21
1478.749999990291
 31
0.0
1001
Sigma
1000

  0
LINE
  5
1D5
330
70
100
AcDbEntity
  8
Line
100
AcDbLine
 10
2002.48791831826
 20
1495.750000016702
 30
0.0
 11
2002.48791831826
 21
1484.999999999991
 31
0.0
1001
Sigma
1000

  0
LINE
  5
1D6
330
70
100
AcDbEntity
  8
Line
100
AcDbLine
 10
1996.845701716463
 20
1495.750000016702
 30
0.0
 11
1996.845701716463
 21
1485.000000000001
 31
0.0
1001
Sigma
1000

  0
ARC
  5
1D7
330
70
100
AcDbEntity
  8
Line
100
AcDbCircle
 10
1994.845701713356
 20
1472.249999980193
 30
0.0
 40
1.000000001553586
100
AcDbArc
 50
270.0
 51
0.0
1001
Sigma
1000

  0
LINE
  5
1D8
330
70
100
AcDbEntity
  8
Line
100
AcDbLine
 10
2002.845701725785
 20
1495.750000016702
 30
0.0
 11
1996.845701716463
 21
1495.750000016702
 31
0.0
1001
Sigma
1000

  0
LINE
  5
1D9
330
70
100
AcDbEntity
  8
Line
100
AcDbLine
 10
1993.845701711802
 20
1471.249999978639
 30
0.0
 11
1994.845701713356
 21
1471.249999978639
 31
0.0
1001
Sigma
1000

  0
LINE
  5
1DA
330
70
100
AcDbEntity
  8
Line
100
AcDbLine
 10
1996.845701716463
 20
1480.249999992621
 30
0.0
 11
1995.84570171491
 21
1480.249999992621
 31
0.0
1001
Sigma
1000

  0
LINE
  5
1DB
330
70
100
AcDbEntity
  8
Line
100
AcDbLine
 10
1996.845701716463
 20
1490.250000008157
 30
0.0
 11
1995.84570171491
 21
1490.250000008157
 31
0.0
1001
Sigma
1000

  0
LINE
  5
1DC
330
70
100
AcDbEntity
  8
Line
100
AcDbLine
 10
1993.845701711802
 20
1498.750000021363
 30
0.0
 11
1994.845701713356
 21
1498.750000021363
 31
0.0
1001
Sigma
1000

  0
LINE
  5
1DD
330
70
100
AcDbEntity
  8
Line
100
AcDbLine
 10
2002.845701725785
 20
1474.2499999833
 30
0.0
 11
1996.845701716463
 21
1474.2499999833
 31
0.0
1001
Sigma
1000

  0
LINE
  5
1DE
330
70
100
AcDbEntity
  8
Line
100
AcDbLine
 10
1995.84570171491
 20
1472.249999980193
 30
0.0
 11
1995.84570171491
 21
1497.750000019809
 31
0.0
1001
Sigma
1000

  0
LINE
  5
1DF
330
70
100
AcDbEntity
  8
Line
100
AcDbLine
 10
1971.845701677624
 20
1504.106009805314
 30
0.0
 11
1970.337412582481
 21
1508.250000036122
 31
0.0
1001
Sigma
1000

  0
LINE
  5
1E0
330
70
100
AcDbEntity
  8
Line
100
AcDbLine
 10
1971.845701677624
 20
1466.393990195455
 30
0.0
 11
1970.337412582481
 21
1462.249999964657
 31
0.0
1001
Sigma
1000

  0
LINE
  5
1E1
330
70
100
AcDbEntity
  8
Line
100
AcDbLine
 10
1952.280168674127
 20
1465.249999969318
 30
0.0
 11
1951.845701646552
 21
1466.443688317042
 31
0.0
1001
Sigma
1000

  0
LINE
  5
1E2
330
70
100
AcDbEntity
  8
Line
100
AcDbLine
 10
1952.280168674127
 20
1505.250000031461
 30
0.0
 11
1951.845701646552
 21
1504.056311683726
 31
0.0
1001
Sigma
1000

  0
LINE
  5
1E3
330
70
100
AcDbEntity
  8
Line
100
AcDbLine
 10
1956.84570165432
 20
1539.250000084283
 30
0.0
 11
1957.845701655873
 21
1539.250000084283
 31
0.0
1001
Sigma
1000

  0
LINE
  5
1E4
330
70
100
AcDbEntity
  8
Line
100
AcDbLine
 10
1957.845701655873
 20
1539.250000084283
 30
0.0
 11
1957.845701655873
 21
1431.249999916496
 31
0.0
1001
Sigma
1000

  0
LINE
  5
1E5
330
70
100
AcDbEntity
  8
Line
100
AcDbLine
 10
1956.84570165432
 20
1539.250000084283
 30
0.0
 11
1956.84570165432
 21
1431.249999916496
 31
0.0
1001
Sigma
1000

  0
LINE
  5
1E6
330
70
100
AcDbEntity
  8
Line
100
AcDbLine
 10
1946.4053408101
 20
1469.249999975532
 30
0.0
 11
1951.022629464073
 21
1469.249999975532
 31
0.0
1001
Sigma
1000

  0
LINE
  5
1E7
330
70
100
AcDbEntity
  8
Line
100
AcDbLine
 10
1944.915108890485
 20
1473.344378524503
 30
0.0
 11
1944.915108890485
 21
1478.749999990291
 31
0.0
1001
Sigma
1000

  0
LINE
  5
1E8
330
70
100
AcDbEntity
  8
Line
100
AcDbLine
 10
1946.4053408101
 20
1501.250000025247
 30
0.0
 11
1951.022629464073
 21
1501.250000025247
 31
0.0
1001
Sigma
1000

  0
LINE
  5
1E9
330
70
100
AcDbEntity
  8
Line
100
AcDbLine
 10
1958.845701657427
 20
1508.250000036122
 30
0.0
 11
1970.337412582481
 21
1508.250000036122
 31
0.0
1001
Sigma
1000

  0
LINE
  5
1EA
330
70
100
AcDbEntity
  8
Line
100
AcDbLine
 10
1971.845701677624
 20
1504.106009805314
 30
0.0
 11
1971.845701677624
 21
1466.393990195455
 31
0.0
1001
Sigma
1000

  0
LINE
  5
1EB
330
70
100
AcDbEntity
  8
Line
100
AcDbLine
 10
1958.845701657427
 20
1462.249999964657
 30
0.0
 11
1970.337412582481
 21
1462.249999964657
 31
0.0
1001
Sigma
1000

  0
LINE
  5
1EC
330
70
100
AcDbEntity
  8
Line
100
AcDbLine
 10
1996.845701716463
 20
1474.2499999833
 30
0.0
 11
1996.845701716463
 21
1485.000000000001
 31
0.0
1001
Sigma
1000

  0
LINE
  5
1ED
330
70
100
AcDbEntity
  8
Line
100
AcDbLine
 10
2002.48791831826
 20
1474.2499999833
 30
0.0
 11
2002.48791831826
 21
1485.000000000011
 31
0.0
1001
Sigma
1000

  0
LINE
  5
1EE
330
70
100
AcDbEntity
  8
Line
100
AcDbLine
 10
1951.022629464073
 20
1472.557803905191
 30
0.0
 11
1951.022629464073
 21
1469.249999975532
 31
0.0
1001
Sigma
1000

  0
LINE
  5
1EF
330
70
100
AcDbEntity
  8
Line
100
AcDbLine
 10
1951.022629464073
 20
1472.557803905191
 30
0.0
 11
1951.845701646552
 21
1472.557803905191
 31
0.0
1001
Sigma
1000

  0
LINE
  5
1F0
330
70
100
AcDbEntity
  8
Line
100
AcDbLine
 10
1951.022629464073
 20
1497.942196095578
 30
0.0
 11
1951.845701646552
 21
1497.942196095578
 31
0.0
1001
Sigma
1000

  0
LINE
  5
1F1
330
70
100
AcDbEntity
  8
Line
100
AcDbLine
 10
1951.022629464073
 20
1497.942196095578
 30
0.0
 11
1951.022629464073
 21
1501.250000025247
 31
0.0
1001
Sigma
1000

  0
LINE
  5
1F2
330
70
100
AcDbEntity
  8
Line
100
AcDbLine
 10
1946.4053408101
 20
1469.249999975532
 30
0.0
 11
1944.915108890485
 21
1473.344378524503
 31
0.0
1001
Sigma
1000

  0
LINE
  5
1F3
330
70
100
AcDbEntity
  8
Line
100
AcDbLine
 10
1946.4053408101
 20
1501.250000025247
 30
0.0
 11
1944.915108890485
 21
1497.155621476266
 31
0.0
1001
Sigma
1000

  0
LINE
  5
1F4
330
70
100
AcDbEntity
  8
Line
100
AcDbLine
 10
1951.845701646552
 20
1472.557803905191
 30
0.0
 11
1951.845701646552
 21
1466.443688317042
 31
0.0
1001
Sigma
1000

  0
LINE
  5
1F5
330
70
100
AcDbEntity
  8
Line
100
AcDbLine
 10
1958.845701657427
 20
1465.249999969318
 30
0.0
 11
1958.845701657427
 21
1462.249999964657
 31
0.0
1001
Sigma
1000

  0
LINE
  5
1F6
330
70
100
AcDbEntity
  8
Line
100
AcDbLine
 10
1958.845701657427
 20
1465.249999969318
 30
0.0
 11
1957.845701655873
 21
1465.249999969308
 31
0.0
1001
Sigma
1000

  0
LINE
  5
1F7
330
70
100
AcDbEntity
  8
Line
100
AcDbLine
 10
1958.845701657427
 20
1505.250000031461
 30
0.0
 11
1957.845701655873
 21
1505.250000031461
 31
0.0
1001
Sigma
1000

  0
LINE
  5
1F8
330
70
100
AcDbEntity
  8
Line
100
AcDbLine
 10
1943.915108888932
 20
1478.749999990291
 30
0.0
 11
1943.915108888932
 21
1472.74999998097
 31
0.0
1001
Sigma
1000

  0
LINE
  5
1F9
330
70
100
AcDbEntity
  8
Line
100
AcDbLine
 10
1944.915108890485
 20
1491.750000010488
 30
0.0
 11
1944.915108890485
 21
1497.155621476266
 31
0.0
1001
Sigma
1000

  0
LINE
  5
1FA
330
70
100
AcDbEntity
  8
Line
100
AcDbLine
 10
1958.845701657427
 20
1508.250000036122
 30
0.0
 11
1958.845701657427
 21
1505.250000031461
 31
0.0
1001
Sigma
1000

  0
LINE
  5
1FB
330
70
100
AcDbEntity
  8
Line
100
AcDbLine
 10
1977.845701686945
 20
1458.249999958312
 30
0.0
 11
1979.845701690052
 21
1456.249999955205
 31
0.0
1001
Sigma
1000

  0
LINE
  5
1FC
330
70
100
AcDbEntity
  8
Line
100
AcDbLine
 10
1979.845701690052
 20
1514.250000045313
 30
0.0
 11
1977.845701686945
 21
1512.250000042206
 31
0.0
1001
Sigma
1000

  0
LINE
  5
1FD
330
70
100
AcDbEntity
  8
Line
370
     9
100
AcDbLine
 10
2022.487918349332
 20
1475.249999984723
 30
0.0
 11
2013.48791833535
 21
1475.249999984723
 31
0.0
1001
Sigma
1000

  0
LINE
  5
1FE
330
70
100
AcDbEntity
  8
Line
370
     9
100
AcDbLine
 10
2036.487918371082
 20
1499.500000022398
 30
0.0
 11
2037.487918372636
 21
1500.500000023951
 31
0.0
1001
Sigma
1000

  0
LINE
  5
1FF
330
70
100
AcDbEntity
  8
Line
370
     9
100
AcDbLine
 10
2036.487918371082
 20
1470.999999978121
 30
0.0
 11
2037.487918372636
 21
1469.999999976567
 31
0.0
1001
Sigma
1000

  0
LINE
  5
200
330
70
100
AcDbEntity
  8
Line
370
     9
100
AcDbLine
 10
2022.487918349332
 20
1475.249999984723
 30
0.0
 11
2013.459491998806
 21
1475.249999984723
 31
0.0
1001
Sigma
1000

  0
LINE
  5
201
330
70
100
AcDbEntity
  8
Line
370
     9
100
AcDbLine
 10
2022.487918349332
 20
1495.250000015795
 30
0.0
 11
2013.459491998806
 21
1495.250000015795
 31
0.0
1001
Sigma
1000

  0
LINE
  5
202
330
70
100
AcDbEntity
  8
Line
370
     9
100
AcDbLine
 10
2036.487918371082
 20
1470.999999978121
 30
0.0
 11
2022.487918349332
 21
1470.999999978121
 31
0.0
1001
Sigma
1000

  0
LINE
  5
203
330
70
100
AcDbEntity
  8
Line
370
     9
100
AcDbLine
 10
2022.487918349332
 20
1499.500000022398
 30
0.0
 11
2036.487918371082
 21
1499.500000022398
 31
0.0
1001
Sigma
1000

  0
LINE
  5
204
330
70
100
AcDbEntity
  8
Line
100
AcDbLine
 10
3587.987920781525
 20
1002.999999215588
 30
0.0
 11
3587.987920781472
 21
1484.999999999991
 31
0.0
1001
Sigma
1000

  0
LINE
  5
205
330
70
100
AcDbEntity
  8
Line
100
AcDbLine
 10
1951.845701646552
 20
1497.942196095578
 30
0.0
 11
1951.845701646552
 21
1504.056311683726
 31
0.0
1001
Sigma
1000

  0
LINE
  5
206
330
70
100
AcDbEntity
  8
Line
100
AcDbLine
 10
1977.845701686945
 20
1512.250000042206
 30
0.0
 11
1977.845701686945
 21
1501.624500025829
 31
0.0
1001
Sigma
1000

  0
LINE
  5
207
330
70
100
AcDbEntity
  8
Hidden
 62
     3
100
AcDbLine
 10
1977.845701686945
 20
1501.624500025829
 30
0.0
 11
1977.845701686945
 21
1468.375499974174
 31
0.0
1001
Sigma
1000

  0
LINE
  5
208
330
70
100
AcDbEntity
  8
Line
100
AcDbLine
 10
1977.845701686945
 20
1468.375499974174
 30
0.0
 11
1977.845701686945
 21
1458.249999958312
 31
0.0
1001
Sigma
1000

  0
LINE
  5
209
330
70
100
AcDbEntity
  8
Line
100
AcDbLine
 10
1990.487918299616
 20
1659.241026977136
 30
0.0
 11
1990.487918299616
 21
1634.758487719617
 31
0.0
1001
Sigma
1000

  0
LINE
  5
20A
330
70
100
AcDbEntity
  8
Line
100
AcDbLine
 10
1979.487918282528
 20
1398.999999866383
 30
0.0
 11
2036.987918371859
 21
1398.999999866383
 31
0.0
1001
Sigma
1000

  0
LINE
  5
20B
330
70
100
AcDbEntity
  8
Line
100
AcDbLine
 10
1989.490133298066
 20
1660.307545820536
 30
0.0
 11
1990.487918457516
 21
1659.241026808359
 31
0.0
1001
Sigma
1000

  0
LINE
  5
20C
330
70
100
AcDbEntity
  8
Line
100
AcDbLine
 10
1989.490133298066
 20
1660.307545820536
 30
0.0
 11
1989.490133298066
 21
1633.691968876207
 31
0.0
1001
Sigma
1000

  0
LINE
  5
20D
330
70
100
AcDbEntity
  8
Line
100
AcDbLine
 10
2022.487918349332
 20
1660.600000272811
 30
0.0
 11
2084.928489528227
 21
1660.600000272811
 31
0.0
1001
Sigma
1000

  0
LINE
  5
20E
330
70
100
AcDbEntity
  8
Line
100
AcDbLine
 10
1979.487918282528
 20
1320.999999745203
 30
0.0
 11
2036.987918371859
 21
1320.999999745203
 31
0.0
1001
Sigma
1000

  0
LINE
  5
20F
330
70
100
AcDbEntity
  8
Line
100
AcDbLine
 10
1977.487918279421
 20
1620.000000209735
 30
0.0
 11
1979.487918282528
 21
1618.000000206628
 31
0.0
1001
Sigma
1000

  0
LINE
  5
210
330
70
100
AcDbEntity
  8
Line
100
AcDbLine
 10
1979.487918282528
 20
1676.000000296736
 30
0.0
 11
1977.487918279421
 21
1674.000000293629
 31
0.0
1001
Sigma
1000

  0
LINE
  5
211
330
70
100
AcDbEntity
  8
Line
100
AcDbLine
 10
1989.490133298066
 20
1633.691968876207
 30
0.0
 11
1990.487918457516
 21
1634.758487888394
 31
0.0
1001
Sigma
1000

  0
LINE
  5
212
330
70
100
AcDbEntity
  8
Line
100
AcDbLine
 10
2022.487918349332
 20
1342.249999778216
 30
0.0
 11
2022.487918349332
 21
1377.749999833369
 31
0.0
1001
Sigma
1000

  0
LINE
  5
213
330
70
100
AcDbEntity
  8
Line
100
AcDbLine
 10
1977.487918279421
 20
1322.99999974831
 30
0.0
 11
1977.487918279421
 21
1339.181190774462
 31
0.0
1001
Sigma
1000

  0
LINE
  5
214
330
70
100
AcDbEntity
  8
Hidden
 62
     3
100
AcDbLine
 10
1977.487918279421
 20
1339.181190774462
 30
0.0
 11
1977.487918279421
 21
1380.818808837118
 31
0.0
1001
Sigma
1000

  0
LINE
  5
215
330
70
100
AcDbEntity
  8
Line
100
AcDbLine
 10
1977.487918279421
 20
1380.818808837118
 30
0.0
 11
1977.487918279421
 21
1396.999999863276
 31
0.0
1001
Sigma
1000

  0
LINE
  5
216
330
70
100
AcDbEntity
  8
Line
100
AcDbLine
 10
2037.487918372636
 20
1633.400000230553
 30
0.0
 11
2037.487757581906
 21
1633.400000230553
 31
0.0
1001
Sigma
1000

  0
LINE
  5
217
330
70
100
AcDbEntity
  8
Line
100
AcDbLine
 10
2022.487918349332
 20
1637.000000236146
 30
0.0
 11
2013.48791833535
 21
1637.000000236146
 31
0.0
1001
Sigma
1000

  0
LINE
  5
218
330
70
100
AcDbEntity
  8
Line
100
AcDbLine
 10
2036.487918371082
 20
1661.250000273821
 30
0.0
 11
2036.487918371082
 21
1660.600000272811
 31
0.0
1001
Sigma
1000

  0
LINE
  5
219
330
70
100
AcDbEntity
  8
Line
100
AcDbLine
 10
2036.487918371082
 20
1633.400000230553
 30
0.0
 11
2036.487918371082
 21
1632.750000229543
 31
0.0
1001
Sigma
1000

  0
LINE
  5
21A
330
70
100
AcDbEntity
  8
Line
100
AcDbLine
 10
2036.487918371082
 20
1661.250000273821
 30
0.0
 11
2037.487918372636
 21
1662.250000275374
 31
0.0
1001
Sigma
1000

  0
LINE
  5
21B
330
70
100
AcDbEntity
  8
Line
100
AcDbLine
 10
2036.487918371082
 20
1632.750000229543
 30
0.0
 11
2037.487918372636
 21
1631.75000022799
 31
0.0
1001
Sigma
1000

  0
LINE
  5
21C
330
70
100
AcDbEntity
  8
Line
100
AcDbLine
 10
2022.487918349332
 20
1637.000000236146
 30
0.0
 11
2008.487825341375
 21
1637.000000236146
 31
0.0
1001
Sigma
1000

  0
LINE
  5
21D
330
70
100
AcDbEntity
  8
Line
100
AcDbLine
 10
2022.487918349332
 20
1657.000000267218
 30
0.0
 11
2008.487825341375
 21
1657.000000267218
 31
0.0
1001
Sigma
1000

  0
LINE
  5
21E
330
70
100
AcDbEntity
  8
Line
100
AcDbLine
 10
2036.487918371082
 20
1632.750000229543
 30
0.0
 11
2022.487918349332
 21
1632.750000229543
 31
0.0
1001
Sigma
1000

  0
LINE
  5
21F
330
70
100
AcDbEntity
  8
Line
100
AcDbLine
 10
2022.487918349332
 20
1661.250000273821
 30
0.0
 11
2036.487918371082
 21
1661.250000273821
 31
0.0
1001
Sigma
1000

  0
LINE
  5
220
330
70
100
AcDbEntity
  8
Line
100
AcDbLine
 10
2022.487918349332
 20
1661.250000273821
 30
0.0
 11
2022.487918349332
 21
1632.750000229543
 31
0.0
1001
Sigma
1000

  0
LINE
  5
221
330
70
100
AcDbEntity
  8
Line
100
AcDbLine
 10
1979.487918282528
 20
1676.000000296736
 30
0.0
 11
2037.487918372636
 21
1676.000000296736
 31
0.0
1001
Sigma
1000

  0
LINE
  5
222
330
70
100
AcDbEntity
  8
Line
100
AcDbLine
 10
1979.487918282528
 20
1618.000000206628
 30
0.0
 11
2037.487918372636
 21
1618.000000206628
 31
0.0
1001
Sigma
1000

  0
LINE
  5
223
330
70
100
AcDbEntity
  8
Line
100
AcDbLine
 10
1977.487918279421
 20
1674.000000293629
 30
0.0
 11
1977.487918279448
 21
1661.00000027343
 31
0.0
1001
Sigma
1000

  0
LINE
  5
224
330
70
100
AcDbEntity
  8
Hidden
 62
     3
100
AcDbLine
 10
1977.487918279448
 20
1661.00000027343
 30
0.0
 11
1977.487918279419
 21
1633.000000229932
 31
0.0
1001
Sigma
1000

  0
LINE
  5
225
330
70
100
AcDbEntity
  8
Line
100
AcDbLine
 10
1977.487918279419
 20
1633.000000229932
 30
0.0
 11
1977.487918279419
 21
1620.000000209736
 31
0.0
1001
Sigma
1000

  0
LINE
  5
226
330
70
100
AcDbEntity
  8
Line
100
AcDbLine
 10
2037.487918372636
 20
1618.000000206628
 30
0.0
 11
2037.487918372636
 21
1633.400000230553
 31
0.0
1001
Sigma
1000

  0
LINE
  5
227
330
70
100
AcDbEntity
  8
Line
100
AcDbLine
 10
2037.487918372636
 20
1660.600000272811
 30
0.0
 11
2037.487918372636
 21
1676.000000296736
 31
0.0
1001
Sigma
1000

  0
LINE
  5
228
330
70
100
AcDbEntity
  8
Line
100
AcDbLine
 10
2029.052313448346
 20
1242.499999623256
 30
0.0
 11
2029.052313448346
 21
1246.999999630247
 31
0.0
1001
Sigma
1000

  0
LINE
  5
229
330
70
100
AcDbEntity
  8
Hidden
 62
     3
100
AcDbLine
 10
2006.052313412664
 20
1246.999999630247
 30
0.0
 11
2006.052313412664
 21
1252.999999639569
 31
0.0
1001
Sigma
1000

  0
LINE
  5
22A
330
70
100
AcDbEntity
  8
Line
100
AcDbLine
 10
2029.129204501456
 20
1727.500000376736
 30
0.0
 11
2029.129204501456
 21
1723.000000369745
 31
0.0
1001
Sigma
1000

  0
LINE
  5
22B
330
70
100
AcDbEntity
  8
Hidden
 62
     3
100
AcDbLine
 10
2006.129204465683
 20
1723.000000369745
 30
0.0
 11
2006.129204465683
 21
1717.000000360433
 31
0.0
1001
Sigma
1000

  0
LINE
  5
22C
330
70
100
AcDbEntity
  8
Hidden
 62
     3
100
AcDbLine
 10
1992.129204443933
 20
1723.000000369745
 30
0.0
 11
1992.129204443933
 21
1717.000000360433
 31
0.0
1001
Sigma
1000

  0
LINE
  5
22D
330
70
100
AcDbEntity
  8
Line
100
AcDbLine
 10
1985.286272708902
 20
1252.999999639569
 30
0.0
 11
2034.052313456114
 21
1252.999999639569
 31
0.0
1001
Sigma
1000

  0
LINE
  5
22E
330
70
100
AcDbEntity
  8
Line
100
AcDbLine
 10
1992.052313390913
 20
1242.499999623256
 30
0.0
 11
1992.052313390913
 21
1246.999999630247
 31
0.0
1001
Sigma
1000

  0
LINE
  5
22F
330
70
100
AcDbEntity
  8
Center
100
AcDbLine
 10
1999.052313401788
 20
1263.829278671633
 30
0.0
 11
1999.052313401788
 21
1231.670720591192
 31
0.0
1001
Sigma
1000

  0
LINE
  5
230
330
70
100
AcDbEntity
  8
Line
100
AcDbLine
 10
1979.129204423736
 20
1717.000000360423
 30
0.0
 11
1979.129204423736
 21
1723.000000369745
 31
0.0
1001
Sigma
1000

  0
LINE
  5
231
330
70
100
AcDbEntity
  8
Line
100
AcDbLine
 10
2034.129204509223
 20
1717.000000360433
 30
0.0
 11
1979.129204423736
 21
1717.000000360423
 31
0.0
1001
Sigma
1000

  0
LINE
  5
232
330
70
100
AcDbEntity
  8
Center
100
AcDbLine
 10
2067.25521962099
 20
1359.999999805793
 30
0.0
 11
1876.460580412966
 21
1359.999999805793
 31
0.0
1001
Sigma
1000

  0
LINE
  5
233
330
70
100
AcDbEntity
  8
Center
100
AcDbLine
 10
1870.601578058307
 20
1647.000000251682
 30
0.0
 11
2084.928489528227
 21
1647.000000251682
 31
0.0
1001
Sigma
1000

  0
LINE
  5
234
330
70
100
AcDbEntity
  8
Line
100
AcDbLine
 10
1836.129204201574
 20
1707.500000345674
 30
0.0
 11
1840.629204208565
 21
1707.500000345674
 31
0.0
1001
Sigma
1000

  0
LINE
  5
235
330
70
100
AcDbEntity
  8
Line
100
AcDbLine
 10
2006.129204465683
 20
1727.500000376736
 30
0.0
 11
2006.129204465683
 21
1723.000000369745
 31
0.0
1001
Sigma
1000

  0
LINE
  5
236
330
70
100
AcDbEntity
  8
Center
100
AcDbLine
 10
1999.129204454808
 20
1745.626537290137
 30
0.0
 11
1999.129204454808
 21
1692.373463436923
 31
0.0
1001
Sigma
1000

  0
LINE
  5
237
330
70
100
AcDbEntity
  8
Line
100
AcDbLine
 10
1992.129204443933
 20
1727.500000376736
 30
0.0
 11
1992.129204443933
 21
1723.000000369745
 31
0.0
1001
Sigma
1000

  0
LINE
  5
238
330
70
100
AcDbEntity
  8
Line
100
AcDbLine
 10
2006.052313412664
 20
1242.499999623256
 30
0.0
 11
2006.052313412664
 21
1246.999999630247
 31
0.0
1001
Sigma
1000

  0
LINE
  5
239
330
70
100
AcDbEntity
  8
Line
100
AcDbLine
 10
2034.052313456114
 20
1252.999999639569
 30
0.0
 11
1979.052313370717
 21
1252.999999639569
 31
0.0
1001
Sigma
1000

  0
LINE
  5
23A
330
70
100
AcDbEntity
  8
Line
100
AcDbLine
 10
1979.052313370717
 20
1252.999999639569
 30
0.0
 11
1979.052313370717
 21
1246.999999630247
 31
0.0
1001
Sigma
1000

  0
LINE
  5
23B
330
70
100
AcDbEntity
  8
Line
100
AcDbLine
 10
1836.129204201574
 20
1262.499999654328
 30
0.0
 11
1840.629204208565
 21
1262.499999654328
 31
0.0
1001
Sigma
1000

  0
LINE
  5
23C
330
70
100
AcDbEntity
  8
Center
100
AcDbLine
 10
1939.129204361593
 20
1268.947874592165
 30
0.0
 11
1939.129204361593
 21
1220.940840519922
 31
0.0
1001
Sigma
1000

  0
LINE
  5
23D
330
70
100
AcDbEntity
  8
Hidden
 62
     3
100
AcDbLine
 10
1992.052313390913
 20
1246.999999630247
 30
0.0
 11
1992.052313390913
 21
1252.999999639569
 31
0.0
1001
Sigma
1000

  0
LINE
  5
23E
330
70
100
AcDbEntity
  8
Line
100
AcDbLine
 10
2258.487931493734
 20
1457.671820611919
 30
0.0
 11
2258.488012992018
 21
1260.502570938503
 31
0.0
1001
Sigma
1000

  0
LINE
  5
23F
330
70
100
AcDbEntity
  8
Line
100
AcDbLine
 10
1856.029204232589
 20
1723.000000369745
 30
0.0
 11
2034.129204509223
 21
1723.000000369745
 31
0.0
1001
Sigma
1000

  0
LINE
  5
240
330
70
100
AcDbEntity
  8
Hidden
 62
     3
100
AcDbLine
 10
3587.987920781472
 20
1963.000000742615
 30
0.0
 11
3587.987920781472
 21
1485.000000000001
 31
0.0
1001
Sigma
1000

  0
ARC
  5
241
330
70
100
AcDbEntity
  8
Line
100
AcDbCircle
 10
1994.845701713356
 20
1497.750000019809
 30
0.0
 40
1.000000001553586
100
AcDbArc
 50
0.0
 51
90.0
1001
Sigma
1000

  0
LINE
  5
242
330
70
100
AcDbEntity
  8
Line
100
AcDbLine
 10
1856.129204232745
 20
1727.500000376736
 30
0.0
 11
2029.129204501456
 21
1727.500000376736
 31
0.0
1001
Sigma
1000

  0
LINE
  5
243
330
70
100
AcDbEntity
  8
Line
100
AcDbLine
 10
1856.129204232745
 20
1242.499999623246
 30
0.0
 11
2029.052313448346
 21
1242.499999623256
 31
0.0
1001
Sigma
1000

  0
LINE
  5
244
330
70
100
AcDbEntity
  8
Line
100
AcDbLine
 10
1836.129204201574
 20
1707.500000345664
 30
0.0
 11
1836.129204201574
 21
1262.499999654318
 31
0.0
1001
Sigma
1000

  0
LINE
  5
245
330
70
100
AcDbEntity
  8
Line
100
AcDbLine
 10
1856.029204232589
 20
1246.999999630247
 30
0.0
 11
2034.052313456114
 21
1246.999999630238
 31
0.0
1001
Sigma
1000

  0
LINE
  5
246
330
70
100
AcDbEntity
  8
Line
100
AcDbLine
 10
1840.629204208565
 20
1707.600000345819
 30
0.0
 11
1840.629204208565
 21
1262.399999654173
 31
0.0
1001
Sigma
1000

  0
ARC
  5
247
330
70
100
AcDbEntity
  8
Line
100
AcDbCircle
 10
1856.129204232745
 20
1707.500000345664
 30
0.0
 40
20.00000003107173
100
AcDbArc
 50
90.0
 51
180.0
1001
Sigma
1000

  0
ARC
  5
248
330
70
100
AcDbEntity
  8
Line
100
AcDbCircle
 10
1856.029204232589
 20
1707.600000345819
 30
0.0
 40
15.40000002392523
100
AcDbArc
 50
90.0
 51
180.0
1001
Sigma
1000

  0
ARC
  5
249
330
70
100
AcDbEntity
  8
Line
100
AcDbCircle
 10
1856.029204232589
 20
1262.399999654173
 30
0.0
 40
15.40000002392523
100
AcDbArc
 50
180.0
 51
270.0
1001
Sigma
1000

  0
ARC
  5
24A
330
70
100
AcDbEntity
  8
Line
100
AcDbCircle
 10
1856.129204232745
 20
1262.499999654318
 30
0.0
 40
20.00000003107173
100
AcDbArc
 50
180.0
 51
270.0
1001
Sigma
1000

  0
LINE
  5
24B
330
70
100
AcDbEntity
  8
Center
100
AcDbLine
 10
1939.129204361593
 20
1703.473080425498
 30
0.0
 11
1939.129204361593
 21
1749.018215314546
 31
0.0
1001
Sigma
1000

  0
LINE
  5
24C
330
70
100
AcDbEntity
  8
Line
100
AcDbLine
 10
2277.487918745497
 20
1456.891289879854
 30
0.0
 11
2277.487918745497
 21
1960.000000737954
 31
0.0
1001
Sigma
1000

  0
LINE
  5
24D
330
70
100
AcDbEntity
  8
Line
100
AcDbLine
 10
2258.487695364448
 20
1959.999996272154
 30
0.0
 11
2258.487926061366
 21
1469.228335840884
 31
0.0
1001
Sigma
1000

  0
LINE
  5
24E
330
70
100
AcDbEntity
  8
Line
100
AcDbLine
 10
2258.487918715978
 20
1954.000000728633
 30
0.0
 11
2277.487918745487
 21
1954.000000728633
 31
0.0
1001
Sigma
1000

  0
LINE
  5
24F
330
70
100
AcDbEntity
  8
Hidden
 62
     3
100
AcDbLine
 10
2267.987918730738
 20
1963.000000742615
 30
0.0
 11
2267.987918730738
 21
1269.296755900079
 31
0.0
1001
Sigma
1000

  0
LINE
  5
250
330
70
100
AcDbEntity
  8
Line
100
AcDbLine
 10
3597.48792079623
 20
1953.854498188207
 30
0.0
 11
3578.487920766713
 21
1953.854498188207
 31
0.0
1001
Sigma
1000

  0
LINE
  5
251
330
70
100
AcDbEntity
  8
Line
100
AcDbLine
 10
3597.48792079623
 20
1484.854497459535
 30
0.0
 11
3597.48814414783
 21
1959.999996272154
 31
0.0
1001
Sigma
1000

  0
LINE
  5
252
330
70
100
AcDbEntity
  8
Line
100
AcDbLine
 10
3578.487920766713
 20
1484.854497459535
 30
0.0
 11
3578.487920766713
 21
1960.000000737954
 31
0.0
1001
Sigma
1000

  0
LINE
  5
253
330
70
100
AcDbEntity
  8
Line
100
AcDbLine
 10
3609.016858999101
 20
1960.000000737833
 30
0.0
 11
2246.958980513114
 21
1960.000000737954
 31
0.0
1001
Sigma
1000

  0
LINE
  5
254
330
70
100
AcDbEntity
  8
Line
100
AcDbLine
 10
1979.129204423736
 20
1723.000000369745
 30
0.0
 11
1979.129204423736
 21
1727.500000376736
 31
0.0
1001
Sigma
1000

  0
LINE
  5
255
330
70
100
AcDbEntity
  8
Line
100
AcDbLine
 10
1899.12920429945
 20
1723.000000369745
 30
0.0
 11
1899.12920429945
 21
1727.500000376736
 31
0.0
1001
Sigma
1000

  0
LINE
  5
256
330
70
100
AcDbEntity
  8
Line
100
AcDbLine
 10
1899.12920429945
 20
1246.999999630238
 30
0.0
 11
1899.12920429945
 21
1242.499999623246
 31
0.0
1001
Sigma
1000

  0
LINE
  5
257
330
70
100
AcDbEntity
  8
Line
100
AcDbLine
 10
2022.487918349332
 20
1633.400000230553
 30
0.0
 11
2084.928489528227
 21
1633.400000230553
 31
0.0
1001
Sigma
1000

  0
LINE
  5
258
330
70
100
AcDbEntity
  8
Line
100
AcDbLine
 10
2246.958980512808
 20
1002.999999251634
 30
0.0
 11
3609.016858998907
 21
1002.999999215023
 31
0.0
1001
Sigma
1000

  0
LINE
  5
259
330
70
100
AcDbEntity
  8
Line
100
AcDbLine
 10
1979.129204423736
 20
1246.999999630238
 30
0.0
 11
1979.129204423736
 21
1242.499999623246
 31
0.0
1001
Sigma
1000

  0
LINE
  5
25A
330
70
100
AcDbEntity
  8
Hidden
 62
     3
100
AcDbLine
 10
2246.958980512808
 20
1009.999999262509
 30
0.0
 11
2686.4039015158
 21
1009.999999262038
 31
0.0
1001
Sigma
1000

  0
LINE
  5
25B
330
70
100
AcDbEntity
  8
Hidden
 62
     3
100
AcDbLine
 10
2400.622991359107
 20
1253.999999641123
 30
0.0
 11
2536.588979964492
 21
1018.499999275253
 31
0.0
1001
Sigma
1000

  0
LINE
  5
25C
330
70
100
AcDbEntity
  8
Line
100
AcDbLine
 10
3587.987920781472
 20
1963.000000742615
 30
0.0
 11
3587.987920781472
 21
1960.000000737954
 31
0.0
1001
Sigma
1000

  0
LINE
  5
25D
330
70
100
AcDbEntity
  8
Hidden
 62
     3
100
AcDbLine
 10
2398.890940548846
 20
1252.999999639569
 30
0.0
 11
2334.350145245355
 21
1364.787936266113
 31
0.0
1001
Sigma
1000

  0
LINE
  5
25E
330
70
100
AcDbEntity
  8
Hidden
 62
     3
100
AcDbLine
 10
2407.551194600141
 20
1257.999999647337
 30
0.0
 11
2339.162283890128
 21
1376.453067671363
 31
0.0
1001
Sigma
1000

  0
LINE
  5
25F
330
70
100
AcDbEntity
  8
Line
100
AcDbLine
 10
2277.487918745497
 20
1444.144082280934
 30
0.0
 11
2277.487918745497
 21
1278.902581644341
 31
0.0
1001
Sigma
1000

  0
LINE
  5
260
330
70
100
AcDbEntity
  8
Line
100
AcDbLine
 10
2034.052313456114
 20
1252.999999639569
 30
0.0
 11
2034.052313456114
 21
1246.999999630247
 31
0.0
1001
Sigma
1000

  0
LINE
  5
261
330
70
100
AcDbEntity
  8
Line
100
AcDbLine
 10
2034.129204509223
 20
1717.000000360433
 30
0.0
 11
2034.129204509223
 21
1723.000000369745
 31
0.0
1001
Sigma
1000

  0
ARC
  5
262
330
70
100
AcDbEntity
  8
Line
 62
     6
100
AcDbCircle
 10
1855.687918090193
 20
1413.04999988821
 30
0.0
 40
1.500000002330379
100
AcDbArc
 50
180.0
 51
270.0
1001
Sigma
1000

  0
ARC
  5
263
330
70
100
AcDbEntity
  8
Line
 62
     6
100
AcDbCircle
 10
1855.687918090193
 20
1413.549999888987
 30
0.0
 40
1.500000002330379
100
AcDbArc
 50
90.0
 51
180.0
1001
Sigma
1000

  0
LINE
  5
264
330
70
100
AcDbEntity
  8
Line
 62
     6
100
AcDbLine
 10
1916.187918184186
 20
1411.54999988588
 30
0.0
 11
1855.687918090193
 21
1411.54999988588
 31
0.0
1001
Sigma
1000

  0
LINE
  5
265
330
70
100
AcDbEntity
  8
Line
 62
     6
100
AcDbLine
 10
1916.187918184186
 20
1415.049999891318
 30
0.0
 11
1855.687918090193
 21
1415.049999891318
 31
0.0
1001
Sigma
1000

  0
LINE
  5
266
330
70
100
AcDbEntity
  8
Line
 62
     6
100
AcDbLine
 10
1854.187918087864
 20
1413.549999888987
 30
0.0
 11
1854.187918087864
 21
1413.04999988821
 31
0.0
1001
Sigma
1000

  0
LINE
  5
267
330
70
100
AcDbEntity
  8
Line
 62
     6
100
AcDbLine
 10
1916.187918184186
 20
1411.54999988588
 30
0.0
 11
1916.187918184186
 21
1415.049999891318
 31
0.0
1001
Sigma
1000

  0
ARC
  5
268
330
70
100
AcDbEntity
  8
Line
 62
     6
100
AcDbCircle
 10
1918.989188377738
 20
1411.799999886269
 30
0.0
 40
3.000000004660758
100
AcDbArc
 50
14.9999999999993
 51
90.0
1001
Sigma
1000

  0
ARC
  5
269
330
70
100
AcDbEntity
  8
Line
 62
     6
100
AcDbCircle
 10
1917.454534399453
 20
1409.799999883162
 30
0.0
 40
2.000000003107172
100
AcDbArc
 50
14.9999999999993
 51
90.0
1001
Sigma
1000

  0
LINE
  5
26A
330
70
100
AcDbEntity
  8
Line
 62
     6
100
AcDbLine
 10
1927.592701489204
 20
1391.282361764182
 30
0.0
 11
1921.886965861139
 21
1412.576457022785
 31
0.0
1001
Sigma
1000

  0
LINE
  5
26B
330
70
100
AcDbEntity
  8
Line
 62
     6
100
AcDbLine
 10
1925.092121683119
 20
1389.023542715573
 30
0.0
 11
1919.386386054955
 21
1410.317637974165
 31
0.0
1001
Sigma
1000

  0
LINE
  5
26C
330
70
100
AcDbEntity
  8
Line
 62
     6
100
AcDbLine
 10
1918.989188377738
 20
1414.799999890929
 30
0.0
 11
1916.187918184186
 21
1414.799999890929
 31
0.0
1001
Sigma
1000

  0
LINE
  5
26D
330
70
100
AcDbEntity
  8
Line
 62
     6
100
AcDbLine
 10
1917.454534399453
 20
1411.799999886269
 30
0.0
 11
1916.187918184186
 21
1411.799999886269
 31
0.0
1001
Sigma
1000

  0
LINE
  5
26E
330
70
100
AcDbEntity
  8
Line
 62
     4
370
     9
100
AcDbLine
 10
1977.487918279421
 20
1339.044999773237
 30
0.0
 11
2004.009871383125
 21
1339.971166784046
 31
0.0
1001
Sigma
1000

  0
LINE
  5
26F
330
70
100
AcDbEntity
  8
Line
100
AcDbLine
 10
1990.049793551454
 20
1379.037329485293
 30
0.0
 11
2003.488844043916
 21
1378.56802750086
 31
0.0
1001
Sigma
1000

  0
LINE
  5
270
330
70
100
AcDbEntity
  8
Line
100
AcDbLine
 10
1990.049793551456
 20
1340.962670126292
 30
0.0
 11
2003.488844043916
 21
1341.431972110725
 31
0.0
1001
Sigma
1000

  0
LINE
  5
271
330
70
100
AcDbEntity
  8
Line
 62
     4
370
     9
100
AcDbLine
 10
1977.487918279421
 20
1380.954999838348
 30
0.0
 11
2004.009871383125
 21
1380.028832827539
 31
0.0
1001
Sigma
1000

  0
LINE
  5
272
330
70
100
AcDbEntity
  8
Line
100
AcDbLine
 10
1971.845701677624
 20
1468.165975356898
 30
0.0
 11
1992.345701709472
 21
1468.88185113259
 31
0.0
1001
Sigma
1000

  0
LINE
  5
273
330
70
100
AcDbEntity
  8
Line
 62
     4
370
     9
100
AcDbLine
 10
1971.845701677624
 20
1469.644975359195
 30
0.0
 11
1993.845701711802
 21
1470.41323228921
 31
0.0
1001
Sigma
1000

  0
LINE
  5
274
330
70
100
AcDbEntity
  8
Line
100
AcDbLine
 10
1993.845701711802
 20
1470.41323228921
 30
0.0
 11
1992.345701709472
 21
1468.88185113259
 31
0.0
1001
Sigma
1000

  0
LINE
  5
275
330
70
100
AcDbEntity
  8
Line
100
AcDbLine
 10
1993.845701711802
 20
1499.586767710792
 30
0.0
 11
1992.345701709472
 21
1501.118148867412
 31
0.0
1001
Sigma
1000

  0
LINE
  5
276
330
70
100
AcDbEntity
  8
Line
100
AcDbLine
 10
1993.845701711802
 20
1499.586767710792
 30
0.0
 11
1993.845701711802
 21
1470.41323228921
 31
0.0
1001
Sigma
1000

  0
LINE
  5
277
330
70
100
AcDbEntity
  8
Line
 62
     4
370
     9
100
AcDbLine
 10
1977.845701686945
 20
1501.624500025829
 30
0.0
 11
2002.845701725785
 21
1500.751480787182
 31
0.0
1001
Sigma
1000

  0
LINE
  5
278
330
70
100
AcDbEntity
  8
Line
100
AcDbLine
 10
1993.845701711802
 20
1470.413232289204
 30
0.0
 11
2002.845701725785
 21
1470.727519215117
 31
0.0
1001
Sigma
1000

  0
LINE
  5
279
330
70
100
AcDbEntity
  8
Line
100
AcDbLine
 10
1993.845701711802
 20
1499.586767710792
 30
0.0
 11
2002.845701725785
 21
1499.272480784884
 31
0.0
1001
Sigma
1000

  0
LINE
  5
27A
330
70
100
AcDbEntity
  8
Line
 62
     4
370
     9
100
AcDbLine
 10
1977.845701686945
 20
1468.375499974174
 30
0.0
 11
2002.845701725785
 21
1469.248519212819
 31
0.0
1001
Sigma
1000

  0
LINE
  5
27B
330
70
100
AcDbEntity
  8
Line
100
AcDbLine
 10
2010.845701738213
 20
1478.441686281702
 30
0.0
 11
2010.845701738213
 21
1464.999999968929
 31
0.0
1001
Sigma
1000

  0
LINE
  5
27C
330
70
100
AcDbEntity
  8
Line
 62
     4
370
     9
100
AcDbLine
 10
1971.845701677624
 20
1500.355024640806
 30
0.0
 11
1993.845701711802
 21
1499.586767710792
 31
0.0
1001
Sigma
1000

  0
LINE
  5
27D
330
70
100
AcDbEntity
  8
Line
100
AcDbLine
 10
1971.845701677624
 20
1501.834024643104
 30
0.0
 11
1992.345701709472
 21
1501.118148867412
 31
0.0
1001
Sigma
1000

  0
LINE
  5
27E
330
70
100
AcDbEntity
  8
Line
370
     9
100
AcDbLine
 10
2022.487918349332
 20
1478.825907593779
 30
0.0
 11
2022.487918349332
 21
1470.999999978121
 31
0.0
1001
Sigma
1000

  0
LINE
  5
27F
330
70
100
AcDbEntity
  8
Line
370
     9
100
AcDbLine
 10
2022.487918349332
 20
1499.500000022398
 30
0.0
 11
2022.487918349332
 21
1490.736768268023
 31
0.0
1001
Sigma
1000

  0
LINE
  5
280
330
70
100
AcDbEntity
  8
Line
370
     9
100
AcDbLine
 10
2036.487918371082
 20
1471.399999978872
 30
0.0
 11
2036.487918371082
 21
1470.999999978121
 31
0.0
1001
Sigma
1000

  0
LINE
  5
281
330
70
100
AcDbEntity
  8
Line
370
     9
100
AcDbLine
 10
2036.487918371082
 20
1499.500000022398
 30
0.0
 11
2036.487918371082
 21
1498.60000002113
 31
0.0
1001
Sigma
1000

  0
LINE
  5
282
330
70
100
AcDbEntity
  8
Line
370
     9
100
AcDbLine
 10
2037.487918372636
 20
1498.60000002113
 30
0.0
 11
2037.487918372636
 21
1514.250000045313
 31
0.0
1001
Sigma
1000

  0
LINE
  5
283
330
70
100
AcDbEntity
  8
Line
370
     9
100
AcDbLine
 10
2037.487918372636
 20
1456.249999955205
 30
0.0
 11
2037.487918372638
 21
1471.399999978872
 31
0.0
1001
Sigma
1000

  0
LINE
  5
284
330
70
100
AcDbEntity
  8
Line
100
AcDbLine
 10
2002.48791831826
 20
1510.000000038841
 30
0.0
 11
2002.48791831826
 21
1514.250000045313
 31
0.0
1001
Sigma
1000

  0
LINE
  5
285
330
70
100
AcDbEntity
  8
Line
370
     9
100
AcDbLine
 10
2013.459491998806
 20
1456.249999955205
 30
0.0
 11
2037.487918372636
 21
1456.249999955205
 31
0.0
1001
Sigma
1000

  0
LINE
  5
286
330
70
100
AcDbEntity
  8
Line
100
AcDbLine
 10
1979.845701690052
 20
1456.249999955205
 30
0.0
 11
2002.845701725785
 21
1456.249999955205
 31
0.0
1001
Sigma
1000

  0
LINE
  5
287
330
70
100
AcDbEntity
  8
Line
370
     9
100
AcDbLine
 10
2013.459491998806
 20
1514.250000045313
 30
0.0
 11
2037.487918372636
 21
1514.250000045313
 31
0.0
1001
Sigma
1000

  0
LINE
  5
288
330
70
100
AcDbEntity
  8
Line
100
AcDbLine
 10
1979.845701690052
 20
1514.250000045313
 30
0.0
 11
2002.845701725785
 21
1514.250000045313
 31
0.0
1001
Sigma
1000

  0
LINE
  5
289
330
70
100
AcDbEntity
  8
Line
100
AcDbLine
 10
2005.845701730446
 20
1510.000000038841
 30
0.0
 11
2010.845701738213
 21
1505.000000031073
 31
0.0
1001
Sigma
1000

  0
LINE
  5
28A
330
70
100
AcDbEntity
  8
Line
100
AcDbLine
 10
2005.845701730446
 20
1459.999999961161
 30
0.0
 11
2010.845701738213
 21
1464.999999968929
 31
0.0
1001
Sigma
1000

  0
LINE
  5
28B
330
70
100
AcDbEntity
  8
Line
100
AcDbLine
 10
2002.845701725785
 20
1467.499999972813
 30
0.0
 11
2002.845701725785
 21
1502.500000027189
 31
0.0
1001
Sigma
1000

  0
LINE
  5
28C
330
70
100
AcDbEntity
  8
Line
100
AcDbLine
 10
2002.845701725785
 20
1467.499999972813
 30
0.0
 11
2010.845701738213
 21
1467.499999972813
 31
0.0
1001
Sigma
1000

  0
LINE
  5
28D
330
70
100
AcDbEntity
  8
Line
100
AcDbLine
 10
2002.845701725785
 20
1502.500000027189
 30
0.0
 11
2010.845701738213
 21
1502.500000027189
 31
0.0
1001
Sigma
1000

  0
LINE
  5
28E
330
70
100
AcDbEntity
  8
Line
100
AcDbLine
 10
2005.845701730446
 20
1459.999999961161
 30
0.0
 11
2002.845701725785
 21
1459.999999961161
 31
0.0
1001
Sigma
1000

  0
LINE
  5
28F
330
70
100
AcDbEntity
  8
Line
100
AcDbLine
 10
2005.845701730446
 20
1510.000000038841
 30
0.0
 11
2002.845701725785
 21
1510.000000038841
 31
0.0
1001
Sigma
1000

  0
LINE
  5
290
330
70
100
AcDbEntity
  8
Line
100
AcDbLine
 10
2010.845701738213
 20
1505.000000031073
 30
0.0
 11
2010.845701738213
 21
1490.967301055262
 31
0.0
1001
Sigma
1000

  0
LINE
  5
291
330
70
100
AcDbEntity
  8
Line
100
AcDbLine
 10
2002.845701725785
 20
1456.249999955205
 30
0.0
 11
2002.845701725785
 21
1459.999999961161
 31
0.0
1001
Sigma
1000

  0
LINE
  5
292
330
70
100
AcDbEntity
  8
Line
 62
     4
370
     9
100
AcDbLine
 10
1967.187918263419
 20
1340.300506850438
 30
0.0
 11
1990.187918299151
 21
1341.103684549996
 31
0.0
1001
Sigma
1000

  0
LINE
  5
293
330
70
100
AcDbEntity
  8
Line
 62
     6
100
AcDbLine
 10
1990.187918299151
 20
1341.103684549996
 30
0.0
 11
1988.687918296821
 21
1339.572303393376
 31
0.0
1001
Sigma
1000

  0
LINE
  5
294
330
70
100
AcDbEntity
  8
Line
370
     9
100
AcDbLine
 10
2000.206508347882
 20
1717.000000360423
 30
0.0
 11
1996.322099739747
 21
1714.500000356549
 31
0.0
1001
Sigma
1000

  0
LINE
  5
295
330
70
100
AcDbEntity
  8
Line
370
     9
100
AcDbLine
 10
2001.936309169969
 20
1717.000000360423
 30
0.0
 11
1998.051900561734
 21
1714.500000356549
 31
0.0
1001
Sigma
1000

  0
LINE
  5
296
330
70
100
AcDbEntity
  8
Hidden
 62
     3
100
AcDbLine
 10
2277.487918745497
 20
1278.902581644341
 30
0.0
 11
2277.487918745497
 21
1009.999999262047
 31
0.0
1001
Sigma
1000

  0
LINE
  5
297
330
70
100
AcDbEntity
  8
Hidden
 62
     3
100
AcDbLine
 10
2258.488012992018
 20
1261.841208165129
 30
0.0
 11
2258.488012992019
 21
1009.999999262047
 31
0.0
1001
Sigma
1000

  0
LINE
  5
298
330
70
100
AcDbEntity
  8
Line
100
AcDbLine
 10
2267.987918730738
 20
1960.000000737954
 30
0.0
 11
2267.987918730738
 21
1963.000000742615
 31
0.0
1001
Sigma
1000

  0
LINE
  5
299
330
70
100
AcDbEntity
  8
Hidden
 62
     3
100
AcDbLine
 10
3597.487920864631
 20
1485.000000000001
 30
0.0
 11
3597.487920864631
 21
1009.999999262038
 31
0.0
1001
Sigma
1000

  0
LINE
  5
29A
330
70
100
AcDbEntity
  8
Hidden
 62
     3
100
AcDbLine
 10
3578.487920766713
 20
1484.854497459535
 30
0.0
 11
3578.487920766713
 21
1009.999999262038
 31
0.0
1001
Sigma
1000

  0
LINE
  5
29B
330
70
100
AcDbEntity
  8
Hidden
 62
     3
100
AcDbLine
 10
3609.016858999392
 20
1009.999999262509
 30
0.0
 11
2773.183192932954
 21
1009.999999262038
 31
0.0
1001
Sigma
1000

  0
LINE
  5
29C
330
70
100
AcDbEntity
  8
Center
100
AcDbLine
 10
2927.9879197561
 20
1997.000000795437
 30
0.0
 11
2927.9879197561
 21
972.9999992045557
 31
0.0
  0
ARC
  5
29D
330
70
100
AcDbEntity
  8
Line
 62
     3
370
     9
100
AcDbCircle
 10
2059.48825262929
 20
1485.000000000001
 30
0.0
 40
300.0000004660759
100
AcDbArc
 50
269.3496012853262
 51
0.0
  0
LINE
  5
29E
330
70
100
AcDbEntity
  8
Line
100
AcDbLine
 10
2147.427063327529
 20
1281.481980427318
 30
0.0
 11
2167.852033722944
 21
1205.254953168547
 31
0.0
1001
Sigma
1000

  0
LINE
  5
29F
330
70
100
AcDbEntity
  8
Hidden
 62
     3
100
AcDbLine
 10
2167.852033722944
 20
1205.254953168547
 30
0.0
 11
2218.153845392289
 21
1017.52603630582
 31
0.0
1001
Sigma
1000

  0
LINE
  5
2A0
330
70
100
AcDbEntity
  8
Hidden
 62
     3
100
AcDbLine
 10
2250.995323537138
 20
1026.325883852971
 30
0.0
 11
2218.153845392287
 21
1017.52603630582
 31
0.0
1001
Sigma
1000

  0
LINE
  5
2A1
330
70
100
AcDbEntity
  8
Line
100
AcDbLine
 10
2180.268541472383
 20
1290.281827974465
 30
0.0
 11
2199.225958663117
 21
1219.531783838349
 31
0.0
1001
Sigma
1000

  0
LINE
  5
2A2
330
70
100
AcDbEntity
  8
Hidden
 62
     3
100
AcDbLine
 10
2199.225958663117
 20
1219.531783838349
 30
0.0
 11
2250.995323537114
 21
1026.325883852981
 31
0.0
1001
Sigma
1000

  0
LINE
  5
2A3
330
70
100
AcDbEntity
  8
Center
100
AcDbLine
 10
2239.116979681884
 20
1004.973510340838
 30
0.0
 11
2163.847802399962
 21
1285.881904200894
 31
0.0
1001
Sigma
1000

  0
ARC
  5
2A4
330
70
100
AcDbEntity
  8
Center
100
AcDbCircle
 10
2067.25521962099
 20
1259.999999650434
 30
0.0
 40
100.0000001553586
100
AcDbArc
 50
14.9999999999993
 51
90.0
1001
Sigma
1000

  0
ARC
  5
2A5
330
70
100
AcDbEntity
  8
Line
100
AcDbCircle
 10
2067.25521962099
 20
1259.999999650434
 30
0.0
 40
83.00000012894768
100
AcDbArc
 50
14.9999999999993
 51
90.0
1001
Sigma
1000

  0
ARC
  5
2A6
330
70
100
AcDbEntity
  8
Line
100
AcDbCircle
 10
2067.25521962099
 20
1259.999999650434
 30
0.0
 40
117.0000001817696
100
AcDbArc
 50
14.9999999999993
 51
90.0
1001
Sigma
1000

  0
LINE
  5
2A7
330
70
100
AcDbEntity
  8
Line
100
AcDbLine
 10
2221.085231402118
 20
1949.956945885361
 30
0.0
 11
2247.358413917995
 21
1942.917067847625
 31
0.0
1001
Sigma
1000

  0
LINE
  5
2A8
330
70
100
AcDbEntity
  8
Line
100
AcDbLine
 10
2247.358413917995
 20
1942.917067847625
 30
0.0
 11
2184.998405287249
 21
1710.186347277226
 31
0.0
1001
Sigma
1000

  0
LINE
  5
2A9
330
70
100
AcDbEntity
  8
Center
100
AcDbLine
 10
2171.8618140293
 20
1713.706286296085
 30
0.0
 11
2239.403282934969
 21
1965.774479869825
 31
0.0
1001
Sigma
1000

  0
ARC
  5
2AA
330
70
100
AcDbEntity
  8
Center
100
AcDbCircle
 10
2084.928489528227
 20
1737.000000391505
 30
0.0
 40
90.00000013982276
100
AcDbArc
 50
270.0
 51
345.0000000000007
1001
Sigma
1000

  0
ARC
  5
2AB
330
70
100
AcDbEntity
  8
Line
100
AcDbCircle
 10
2084.928489528227
 20
1737.000000391505
 30
0.0
 40
103.6000001609515
100
AcDbArc
 50
270.0
 51
345.0000000000007
1001
Sigma
1000

  0
ARC
  5
2AC
330
70
100
AcDbEntity
  8
Line
100
AcDbCircle
 10
2084.928489528227
 20
1737.000000391505
 30
0.0
 40
76.40000011869401
100
AcDbArc
 50
270.0
 51
345.0000000000007
1001
Sigma
1000

  0
LINE
  5
2AD
330
70
100
AcDbEntity
  8
Line
100
AcDbLine
 10
2221.085231402118
 20
1949.956945885361
 30
0.0
 11
2158.725222771361
 21
1717.226225314951
 31
0.0
1001
Sigma
1000

  0
ARC
  5
2AE
330
70
100
AcDbEntity
  8
Center
100
AcDbCircle
 10
2090.942465125534
 20
1575.000000139824
 30
0.0
 40
90.00000013982276
100
AcDbArc
 50
270.0
 51
351.8618074694856
1001
Sigma
1000

  0
ARC
  5
2AF
330
70
100
AcDbEntity
  8
Line
370
     9
100
AcDbCircle
 10
2090.942465125534
 20
1575.00000013983
 30
0.0
 40
103.600000160958
100
AcDbArc
 50
270.0
 51
289.8869657860004
1001
Sigma
1000

  0
ARC
  5
2B0
330
70
100
AcDbEntity
  8
Line
100
AcDbCircle
 10
2090.942465125535
 20
1575.000000139823
 30
0.0
 40
103.6000001609512
100
AcDbArc
 50
309.2075700177603
 51
351.8618074694856
1001
Sigma
1000

  0
ARC
  5
2B1
330
70
100
AcDbEntity
  8
Line
100
AcDbCircle
 10
2090.942465125534
 20
1575.000000139824
 30
0.0
 40
76.40000011869401
100
AcDbArc
 50
270.0
 51
351.8618074694856
1001
Sigma
1000

  0
LINE
  5
2B2
330
70
100
AcDbEntity
  8
Line
100
AcDbLine
 10
2190.259013423158
 20
1729.819204119154
 30
0.0
 11
2166.573080194146
 21
1564.184729339653
 31
0.0
1001
Sigma
1000

  0
LINE
  5
2B3
330
70
100
AcDbEntity
  8
Center
100
AcDbLine
 10
2180.036121619965
 20
1562.259497888313
 30
0.0
 11
2234.946220238364
 21
1946.242905120386
 31
0.0
1001
Sigma
1000

  0
LINE
  5
2B4
330
70
100
AcDbEntity
  8
Line
100
AcDbLine
 10
2247.198322484387
 20
1935.849640212346
 30
0.0
 11
2193.499163045789
 21
1560.334266436973
 31
0.0
1001
Sigma
1000

  0
ARC
  5
2B5
330
70
100
AcDbEntity
  8
Hidden
 62
     3
100
AcDbCircle
 10
2987.21595153308
 20
1484.999999999879
 30
0.0
 40
859.2750013349579
100
AcDbArc
 50
333.4324020000015
 51
0.0
1001
AcDbBlockRepETag
1070
     1
1071
        2
1005
2B5
  0
ARC
  5
2B6
330
70
100
AcDbEntity
  8
Line
100
AcDbCircle
 10
2987.21595153308
 20
1484.999999999879
 30
0.0
 40
859.2750013349579
100
AcDbArc
 50
0.0
 51
26.56759799999845
1001
AcDbBlockRepETag
1070
     1
1071
        2
1005
2B5
  0
ARC
  5
2B7
330
70
100
AcDbEntity
  8
Line
100
AcDbCircle
 10
2987.21595153308
 20
1484.999999999879
 30
0.0
 40
866.2750013458332
100
AcDbArc
 50
333.4324020000015
 51
26.56759799999845
1001
AcDbBlockRepETag
1070
     1
1071
        2
1005
2B5
  0
ARC
  5
2B8
330
70
100
AcDbEntity
  8
Line
100
AcDbCircle
 10
3609.016858999101
 20
1795.935000482944
 30
0.0
 40
164.0650002548891
100
AcDbArc
 50
26.56759799999845
 51
90.0
1001
AcDbBlockRepETag
1070
     1
1071
        3
1005
2B8
  0
ARC
  5
2B9
330
70
100
AcDbEntity
  8
Line
100
AcDbCircle
 10
3609.016858999101
 20
1795.935000482944
 30
0.0
 40
171.0650002657642
100
AcDbArc
 50
26.56759799999845
 51
90.0
1001
AcDbBlockRepETag
1070
     1
1071
        3
1005
2B8
  0
ARC
  5
2BA
330
70
100
AcDbEntity
  8
Hidden
 62
     3
100
AcDbCircle
 10
3609.016858999392
 20
1174.064999517399
 30
0.0
 40
164.0650002548891
100
AcDbArc
 50
270.0000000000488
 51
333.4324020000562
1001
AcDbBlockRepETag
1070
     1
1071
        5
1005
2BA
  0
ARC
  5
2BB
330
70
100
AcDbEntity
  8
Line
100
AcDbCircle
 10
3609.016858999392
 20
1174.064999517399
 30
0.0
 40
171.0650002657642
100
AcDbArc
 50
270.0000000000488
 51
333.4324020000562
1001
AcDbBlockRepETag
1070
     1
1071
        5
1005
2BA
  0
LINE
  5
2BC
330
70
100
AcDbEntity
  8
Line
100
AcDbLine
 10
3591.987920787684
 20
1967.000000748831
 30
0.0
 11
3609.016858999101
 21
1967.000000748708
 31
0.0
  0
ARC
  5
2BD
330
70
100
AcDbEntity
  8
Line
100
AcDbCircle
 10
2868.75988797912
 20
1484.999999999879
 30
0.0
 40
859.2750013349579
100
AcDbArc
 50
181.6672155556422
 51
185.7440290948258
1001
AcDbBlockRepETag
1070
     1
1071
        2
1005
2B5
  0
ARC
  5
2BE
330
70
100
AcDbEntity
  8
Line
100
AcDbCircle
 10
2868.75988797912
 20
1484.999999999879
 30
0.0
 40
859.2750013349579
100
AcDbArc
 50
191.0028937478366
 51
200.4322527121305
1001
AcDbBlockRepETag
1070
     1
1071
        2
1005
2B5
  0
ARC
  5
2BF
330
70
100
AcDbEntity
  8
Hidden
 62
     3
100
AcDbCircle
 10
2868.75988797912
 20
1484.999999999879
 30
0.0
 40
859.2750013349579
100
AcDbArc
 50
200.4322527121305
 51
206.5675979999948
1001
AcDbBlockRepETag
1070
     1
1071
        2
1005
2B5
  0
ARC
  5
2C0
330
70
100
AcDbEntity
  8
Line
100
AcDbCircle
 10
2868.75988797912
 20
1484.999999999879
 30
0.0
 40
859.2750013349579
100
AcDbArc
 50
153.4324020000052
 51
167.15699210921
1001
AcDbBlockRepETag
1070
     1
1071
        2
1005
2B5
  0
ARC
  5
2C1
330
70
100
AcDbEntity
  8
Line
100
AcDbCircle
 10
2868.75988797912
 20
1484.999999999879
 30
0.0
 40
859.2750013349579
100
AcDbArc
 50
171.0958672625518
 51
178.3327844443577
1001
AcDbBlockRepETag
1070
     1
1071
        2
1005
2B5
  0
ARC
  5
2C2
330
70
100
AcDbEntity
  8
Line
100
AcDbCircle
 10
2868.75988797912
 20
1484.999999999879
 30
0.0
 40
866.2750013458332
100
AcDbArc
 50
153.4324020000052
 51
167.2625226610696
1001
AcDbBlockRepETag
1070
     1
1071
        2
1005
2B5
  0
ARC
  5
2C3
330
70
100
AcDbEntity
  8
Hidden
 62
     3
100
AcDbCircle
 10
2868.75988797912
 20
1484.999999999879
 30
0.0
 40
866.2750013458332
100
AcDbArc
 50
167.2625226610696
 51
171.1683954815526
1001
AcDbBlockRepETag
1070
     1
1071
        2
1005
2B5
  0
ARC
  5
2C4
330
70
100
AcDbEntity
  8
Line
100
AcDbCircle
 10
2868.75988797912
 20
1484.999999999879
 30
0.0
 40
866.2750013458332
100
AcDbArc
 50
171.1683954815526
 51
185.6974598102258
1001
AcDbBlockRepETag
1070
     1
1071
        2
1005
2B5
  0
ARC
  5
2C5
330
70
100
AcDbEntity
  8
Hidden
 62
     3
100
AcDbCircle
 10
2868.75988797912
 20
1484.999999999879
 30
0.0
 40
866.2750013458332
100
AcDbArc
 50
185.6974598102258
 51
190.912888442326
1001
AcDbBlockRepETag
1070
     1
1071
        2
1005
2B5
  0
ARC
  5
2C6
330
70
100
AcDbEntity
  8
Line
100
AcDbCircle
 10
2868.75988797912
 20
1484.999999999879
 30
0.0
 40
866.2750013458332
100
AcDbArc
 50
190.912888442326
 51
206.5675979999948
1001
AcDbBlockRepETag
1070
     1
1071
        2
1005
2B5
  0
ARC
  5
2C7
330
70
100
AcDbEntity
  8
Line
100
AcDbCircle
 10
2246.958980513099
 20
1795.935000482944
 30
0.0
 40
164.0650002548891
100
AcDbArc
 50
90.0
 51
153.4324020000052
1001
AcDbBlockRepETag
1070
     1
1071
        3
1005
2B8
  0
ARC
  5
2C8
330
70
100
AcDbEntity
  8
Line
100
AcDbCircle
 10
2246.958980513099
 20
1795.935000482944
 30
0.0
 40
171.0650002657642
100
AcDbArc
 50
90.0
 51
153.4324020000052
1001
AcDbBlockRepETag
1070
     1
1071
        3
1005
2B8
  0
ARC
  5
2C9
330
70
100
AcDbEntity
  8
Hidden
 62
     3
100
AcDbCircle
 10
2246.958980512808
 20
1174.064999517399
 30
0.0
 40
164.0650002548891
100
AcDbArc
 50
206.5675979999584
 51
269.9999999999512
1001
AcDbBlockRepETag
1070
     1
1071
        5
1005
2BA
  0
ARC
  5
2CA
330
70
100
AcDbEntity
  8
Line
100
AcDbCircle
 10
2246.958980512808
 20
1174.064999517399
 30
0.0
 40
171.0650002657642
100
AcDbArc
 50
206.5675979999584
 51
269.9999999999512
1001
AcDbBlockRepETag
1070
     1
1071
        5
1005
2BA
  0
LINE
  5
2CB
330
70
100
AcDbEntity
  8
Hidden
 62
     3
100
AcDbLine
 10
2037.487918372636
 20
1376.999999832204
 30
0.0
 11
2037.487918372636
 21
1342.999999779382
 31
0.0
  0
LINE
  5
2CC
330
70
100
AcDbEntity
  8
Hidden
 62
     3
100
AcDbLine
 10
2037.487918372636
 20
1660.600000272811
 30
0.0
 11
2037.487918372636
 21
1633.400000230553
 31
0.0
  0
LINE
  5
2CD
330
70
100
AcDbEntity
  8
Hidden
 62
     3
100
AcDbLine
 10
2037.487918372636
 20
1498.60000002113
 30
0.0
 11
2037.487918372636
 21
1490.736768268023
 31
0.0
  0
LINE
  5
2CE
330
70
100
AcDbEntity
  8
Hidden
 62
     3
100
AcDbLine
 10
2037.487918372638
 20
1471.399999978872
 30
0.0
 11
2037.487918372638
 21
1478.825907593779
 31
0.0
  0
LINE
  5
2CF
330
70
100
AcDbEntity
  8
Line
 62
     3
370
    30
100
AcDbLine
 10
1891.987918146589
 20
1634.000000231485
 30
0.0
 11
1892.755959147782
 21
1634.000000231485
 31
0.0
  0
LINE
  5
2D0
330
70
100
AcDbEntity
  8
Line
 62
     3
370
    30
100
AcDbLine
 10
1891.987918146589
 20
1632.000000228378
 30
0.0
 11
1891.987918146589
 21
1634.000000231485
 31
0.0
  0
LINE
  5
2D1
330
70
100
AcDbEntity
  8
Line
 62
     3
370
    30
100
AcDbLine
 10
1891.987918146589
 20
1660.000000271878
 30
0.0
 11
1891.987918146589
 21
1662.000000274986
 31
0.0
  0
LINE
  5
2D2
330
70
100
AcDbEntity
  8
Line
 62
     3
370
    30
100
AcDbLine
 10
1891.987918146589
 20
1660.000000271878
 30
0.0
 11
1892.755959147782
 21
1660.000000271878
 31
0.0
  0
LINE
  5
2D3
330
70
100
AcDbEntity
  8
Line
 62
     3
370
    30
100
AcDbLine
 10
1949.987918236697
 20
1637.000253236146
 30
0.0
 11
1948.43890423429
 21
1637.000253236146
 31
0.0
  0
LINE
  5
2D4
330
70
100
AcDbEntity
  8
Line
 62
     3
370
    30
100
AcDbLine
 10
1949.987918236697
 20
1657.000253267218
 30
0.0
 11
1948.43890423429
 21
1657.000253267218
 31
0.0
  0
LINE
  5
2D5
330
70
100
AcDbEntity
  8
Line
 62
     3
370
    30
100
AcDbLine
 10
1962.987918256894
 20
1632.999747229932
 30
0.0
 11
1949.987918236697
 21
1632.999747229932
 31
0.0
  0
LINE
  5
2D6
330
70
100
AcDbEntity
  8
Line
 62
     3
370
    30
100
AcDbLine
 10
1949.987918236697
 20
1661.000253273433
 30
0.0
 11
1949.987918236697
 21
1657.000253267218
 31
0.0
  0
LINE
  5
2D7
330
70
100
AcDbEntity
  8
Line
 62
     3
370
    30
100
AcDbLine
 10
1949.987918236697
 20
1661.000253273433
 30
0.0
 11
1962.987918256894
 21
1661.000253273433
 31
0.0
  0
ARC
  5
2D8
330
70
100
AcDbEntity
  8
Line
 62
     3
370
    30
100
AcDbCircle
 10
1963.48791825767
 20
1659.944128271792
 30
0.0
 40
0.5000000007767932
100
AcDbArc
 50
180.0
 51
270.0
  0
LINE
  5
2D9
330
70
100
AcDbEntity
  8
Line
 62
     3
370
    30
100
AcDbLine
 10
1963.48791825767
 20
1659.444128271015
 30
0.0
 11
1963.987918258447
 21
1659.444128271015
 31
0.0
  0
LINE
  5
2DA
330
70
100
AcDbEntity
  8
Line
 62
     3
370
    30
100
AcDbLine
 10
1886.487918138044
 20
1662.000000274986
 30
0.0
 11
1891.987918146589
 21
1662.000000274986
 31
0.0
  0
LINE
  5
2DB
330
70
100
AcDbEntity
  8
Line
 62
     3
370
    30
100
AcDbLine
 10
1886.487918138044
 20
1632.000000228378
 30
0.0
 11
1891.987918146589
 21
1632.000000228378
 31
0.0
  0
ARC
  5
2DC
330
70
100
AcDbEntity
  8
Line
 62
     3
370
    30
100
AcDbCircle
 10
1963.987918258447
 20
1659.944128271792
 30
0.0
 40
0.5000000007767932
100
AcDbArc
 50
270.0
 51
0.0
  0
LINE
  5
2DD
330
70
100
AcDbEntity
  8
Line
 62
     3
370
    30
100
AcDbLine
 10
1964.487918259224
 20
1661.749913508117
 30
0.0
 11
1964.487918259224
 21
1659.944946175104
 31
0.0
  0
ARC
  5
2DE
330
70
100
AcDbEntity
  8
Line
 62
     3
370
    30
100
AcDbCircle
 10
1963.48791825767
 20
1634.055872231573
 30
0.0
 40
0.5000000007767932
100
AcDbArc
 50
90.0
 51
180.0
  0
LINE
  5
2DF
330
70
100
AcDbEntity
  8
Line
 62
     3
370
    30
100
AcDbLine
 10
1962.987918256894
 20
1661.000253273433
 30
0.0
 11
1962.987918256894
 21
1659.944128271792
 31
0.0
  0
ARC
  5
2E0
330
70
100
AcDbEntity
  8
Line
 62
     3
370
    30
100
AcDbCircle
 10
1963.987918258447
 20
1634.055872231573
 30
0.0
 40
0.5000000007767932
100
AcDbArc
 50
0.0
 51
90.0
  0
LINE
  5
2E1
330
70
100
AcDbEntity
  8
Line
 62
     3
370
    30
100
AcDbLine
 10
1962.987918256894
 20
1632.999747229932
 30
0.0
 11
1962.987918256894
 21
1634.055872231573
 31
0.0
  0
LINE
  5
2E2
330
70
100
AcDbEntity
  8
Line
 62
     3
370
    30
100
AcDbLine
 10
1964.487918259224
 20
1632.250398559308
 30
0.0
 11
1964.487918259224
 21
1634.056690134884
 31
0.0
  0
LINE
  5
2E3
330
70
100
AcDbEntity
  8
Line
 62
     3
370
    30
100
AcDbLine
 10
1963.48791825767
 20
1634.555872232349
 30
0.0
 11
1963.987918258447
 21
1634.555872232349
 31
0.0
  0
LINE
  5
2E4
330
70
100
AcDbEntity
  8
Line
 62
     3
370
    30
100
AcDbLine
 10
1949.987918236697
 20
1632.999747229932
 30
0.0
 11
1949.987918236697
 21
1637.000253236146
 31
0.0
  0
LINE
  5
2E5
330
70
100
AcDbEntity
  8
Line
 62
     3
370
    30
100
AcDbLine
 10
1886.487918138044
 20
1662.000000274986
 30
0.0
 11
1886.487918138044
 21
1632.000000228378
 31
0.0
  0
ARC
  5
2E6
330
70
100
AcDbEntity
  8
Line
 62
     4
370
    30
100
AcDbCircle
 10
1912.464995178402
 20
1647.000000251682
 30
0.0
 40
37.29130705793527
100
AcDbArc
 50
319.6673469999991
 51
40.33265300000098
  0
ARC
  5
2E7
330
70
100
AcDbEntity
  8
Line
 62
     4
370
    30
100
AcDbCircle
 10
1921.737918192808
 20
1654.872858360602
 30
0.0
 40
25.12689903903681
100
AcDbArc
 50
40.33265300000098
 51
129.6421210000015
  0
ARC
  5
2E8
330
70
100
AcDbEntity
  8
Line
 62
     4
370
    30
100
AcDbCircle
 10
1921.737918192808
 20
1639.126899239451
 30
0.0
 40
25.12689903903681
100
AcDbArc
 50
230.3578789999985
 51
319.6673469999991
  0
ARC
  5
2E9
330
70
100
AcDbEntity
  8
Line
 62
     4
370
    30
100
AcDbCircle
 10
1910.150071174805
 20
1647.000000251682
 30
0.0
 40
31.10805604832905
100
AcDbArc
 50
317.4857770000063
 51
42.5142229999936
  0
ARC
  5
2EA
330
70
100
AcDbEntity
  8
Line
 62
     4
370
    30
100
AcDbCircle
 10
1914.487918181544
 20
1650.976886257861
 30
0.0
 40
25.22311403918629
100
AcDbArc
 50
42.5142229999936
 51
90.0
  0
ARC
  5
2EB
330
70
100
AcDbEntity
  8
Line
 62
     4
370
    30
100
AcDbCircle
 10
1914.487918181544
 20
1643.023114245503
 30
0.0
 40
25.22311403918629
100
AcDbArc
 50
270.0
 51
317.4857770000063
  0
ARC
  5
2EC
330
70
100
AcDbEntity
  8
Line
 62
     4
370
    30
100
AcDbCircle
 10
1914.487918181544
 20
1654.719253263674
 30
0.0
 40
21.48074703337219
100
AcDbArc
 50
90.0
 51
140.2679629999896
  0
ARC
  5
2ED
330
70
100
AcDbEntity
  8
Line
 62
     4
370
    30
100
AcDbCircle
 10
1923.775232195973
 20
1647.000000251682
 30
0.0
 40
33.55721505213403
100
AcDbArc
 50
140.2679629999896
 51
219.7320370000104
  0
ARC
  5
2EE
330
70
100
AcDbEntity
  8
Line
 62
     4
370
    30
100
AcDbCircle
 10
1914.487918181544
 20
1639.280747239689
 30
0.0
 40
21.48074703337219
100
AcDbArc
 50
219.7320370000104
 51
270.0
  0
ARC
  5
2EF
330
70
100
AcDbEntity
  8
Line
 62
     4
370
    30
100
AcDbCircle
 10
1909.877601174382
 20
1647.000000251682
 30
0.0
 40
7.610317011823283
100
AcDbArc
 50
329.0362430000138
 51
30.96375699998623
  0
ARC
  5
2F0
330
70
100
AcDbEntity
  8
Line
 62
     4
370
    30
100
AcDbCircle
 10
1914.487918181544
 20
1649.76619025598
 30
0.0
 40
2.233810003470416
100
AcDbArc
 50
30.96375699998623
 51
149.0362430000138
  0
ARC
  5
2F1
330
70
100
AcDbEntity
  8
Line
 62
     4
370
    30
100
AcDbCircle
 10
1919.098236188707
 20
1647.000000251682
 30
0.0
 40
7.610317011823283
100
AcDbArc
 50
149.0362430000138
 51
210.9637569999862
  0
ARC
  5
2F2
330
70
100
AcDbEntity
  8
Line
 62
     4
370
    30
100
AcDbCircle
 10
1914.487918181544
 20
1644.233810247385
 30
0.0
 40
2.233810003470416
100
AcDbArc
 50
210.9637569999862
 51
329.0362430000138
  0
LINE
  5
2F3
330
70
100
AcDbEntity
  8
Line
 62
     3
370
    30
100
AcDbLine
 10
1989.490133298066
 20
1633.691968876207
 30
0.0
 11
1964.487918259223
 21
1632.250505873967
 31
0.0
  0
LINE
  5
2F4
330
70
100
AcDbEntity
  8
Line
 62
     3
370
    30
100
AcDbLine
 10
1989.490133298066
 20
1660.307545820536
 30
0.0
 11
1964.487918259223
 21
1661.750020822777
 31
0.0
  0
LINE
  5
2F5
330
70
100
AcDbEntity
  8
Line
 62
     4
370
     9
100
AcDbLine
 10
1990.487918299616
 20
1659.241026818879
 30
0.0
 11
1964.487918259223
 21
1660.741067821209
 31
0.0
  0
LINE
  5
2F6
330
70
100
AcDbEntity
  8
Line
 62
     4
370
     9
100
AcDbLine
 10
1990.487911176962
 20
1634.758381038047
 30
0.0
 11
1964.487911136569
 21
1633.258340035717
 31
0.0
  0
ARC
  5
2F7
330
70
100
AcDbEntity
  8
Line
 62
     3
370
    30
100
AcDbCircle
 10
2066.004783559055
 20
1054.999999332299
 30
0.0
 40
40.00000006214345
100
AcDbArc
 50
139.1078699999892
 51
289.1078699999907
  0
LINE
  5
2F8
330
70
100
AcDbEntity
  8
Line
 62
     3
370
    30
100
AcDbLine
 10
2078.385919432532
 20
1130.399706992826
 30
0.0
 11
2035.767047636335
 21
1081.185478760288
 31
0.0
  0
LINE
  5
2F9
330
70
100
AcDbEntity
  8
Line
 62
     3
370
    30
100
AcDbLine
 10
2141.990263872715
 20
1038.991675567561
 30
0.0
 11
2079.098690667276
 21
1017.203841556723
 31
0.0
  0
CIRCLE
  5
2FA
330
70
100
AcDbEntity
  8
Line
 62
     3
370
    30
100
AcDbCircle
 10
2066.004783559055
 20
1054.999999332299
 30
0.0
 40
17.50000002718776
  0
LINE
  5
2FB
330
70
100
AcDbEntity
  8
Center
 62
     2
370
     9
100
AcDbLine
 10
2008.415409652618
 20
1054.999999332299
 30
0.0
 11
2139.467898173187
 21
1054.999999332299
 31
0.0
  0
LINE
  5
2FC
330
70
100
AcDbEntity
  8
Center
 62
     2
370
     9
100
AcDbLine
 10
2066.004783559055
 20
1003.041225080341
 30
0.0
 11
2066.004783559055
 21
1125.389343941655
 31
0.0
  0
ARC
  5
2FD
330
70
100
AcDbEntity
  8
Line
 62
     3
370
    30
100
AcDbCircle
 10
2066.004783559055
 20
1915.000000667703
 30
0.0
 40
40.00000006214345
100
AcDbArc
 50
70.8921300000093
 51
220.8921300000107
  0
LINE
  5
2FE
330
70
100
AcDbEntity
  8
Line
 62
     3
370
    30
100
AcDbLine
 10
2078.385919432532
 20
1839.600293007176
 30
0.0
 11
2035.767047636335
 21
1888.814521239714
 31
0.0
  0
LINE
  5
2FF
330
70
100
AcDbEntity
  8
Line
 62
     3
370
    30
100
AcDbLine
 10
2141.990263872715
 20
1931.008324432441
 30
0.0
 11
2079.098690667276
 21
1952.796158443279
 31
0.0
  0
CIRCLE
  5
300
330
70
100
AcDbEntity
  8
Line
 62
     3
370
    30
100
AcDbCircle
 10
2066.004783559055
 20
1915.000000667703
 30
0.0
 40
17.50000002718776
  0
LINE
  5
301
330
70
100
AcDbEntity
  8
Center
 62
     2
370
     9
100
AcDbLine
 10
2008.415409652618
 20
1915.000000667703
 30
0.0
 11
2139.467898173187
 21
1915.000000667703
 31
0.0
  0
LINE
  5
302
330
70
100
AcDbEntity
  8
Center
 62
     2
370
     9
100
AcDbLine
 10
2066.004783559055
 20
1966.958774919661
 30
0.0
 11
2066.004783559055
 21
1844.610656058347
 31
0.0
  0
ARC
  5
303
330
70
100
AcDbEntity
  8
Line
 62
     3
370
    30
100
AcDbCircle
 10
3789.971055953145
 20
1054.999999332299
 30
0.0
 40
40.00000006214345
100
AcDbArc
 50
250.8921300000093
 51
40.89213000001072
  0
LINE
  5
304
330
70
100
AcDbEntity
  8
Line
 62
     3
370
    30
100
AcDbLine
 10
3777.589920079667
 20
1130.399706992826
 30
0.0
 11
3820.208791875866
 21
1081.185478760288
 31
0.0
  0
LINE
  5
305
330
70
100
AcDbEntity
  8
Line
 62
     3
370
    30
100
AcDbLine
 10
3713.985575639485
 20
1038.991675567561
 30
0.0
 11
3776.877148844924
 21
1017.203841556723
 31
0.0
  0
CIRCLE
  5
306
330
70
100
AcDbEntity
  8
Line
 62
     3
370
    30
100
AcDbCircle
 10
3789.971055953145
 20
1054.999999332299
 30
0.0
 40
17.50000002718776
  0
LINE
  5
307
330
70
100
AcDbEntity
  8
Center
 62
     2
370
     9
100
AcDbLine
 10
3847.560429859582
 20
1054.999999332299
 30
0.0
 11
3716.507941339013
 21
1054.999999332299
 31
0.0
  0
LINE
  5
308
330
70
100
AcDbEntity
  8
Center
 62
     2
370
     9
100
AcDbLine
 10
3789.971055953145
 20
1003.041225080341
 30
0.0
 11
3789.971055953145
 21
1125.389343941655
 31
0.0
  0
ARC
  5
309
330
70
100
AcDbEntity
  8
Line
 62
     3
370
    30
100
AcDbCircle
 10
3789.971055953145
 20
1915.000000667703
 30
0.0
 40
40.00000006214345
100
AcDbArc
 50
319.1078699999893
 51
109.1078699999907
  0
LINE
  5
30A
330
70
100
AcDbEntity
  8
Line
 62
     3
370
    30
100
AcDbLine
 10
3777.589920079667
 20
1839.600293007176
 30
0.0
 11
3820.208791875866
 21
1888.814521239714
 31
0.0
  0
LINE
  5
30B
330
70
100
AcDbEntity
  8
Line
 62
     3
370
    30
100
AcDbLine
 10
3713.985575639485
 20
1931.008324432441
 30
0.0
 11
3776.877148844924
 21
1952.796158443279
 31
0.0
  0
CIRCLE
  5
30C
330
70
100
AcDbEntity
  8
Line
 62
     3
370
    30
100
AcDbCircle
 10
3789.971055953145
 20
1915.000000667703
 30
0.0
 40
17.50000002718776
  0
LINE
  5
30D
330
70
100
AcDbEntity
  8
Center
 62
     2
370
     9
100
AcDbLine
 10
3847.560429859582
 20
1915.000000667703
 30
0.0
 11
3716.507941339013
 21
1915.000000667703
 31
0.0
  0
LINE
  5
30E
330
70
100
AcDbEntity
  8
Center
 62
     2
370
     9
100
AcDbLine
 10
3789.971055953145
 20
1966.958774919661
 30
0.0
 11
3789.971055953145
 21
1844.610656058347
 31
0.0
  0
LINE
  5
30F
330
70
100
AcDbEntity
  8
Line
 62
     3
370
    30
100
AcDbLine
 10
2003.487918319813
 20
1659.266559622746
 30
0.0
 11
2003.487918319813
 21
1634.734481254419
 31
0.0
  0
LINE
  5
310
330
70
100
AcDbEntity
  8
Line
 62
     3
370
    30
100
AcDbLine
 10
1990.487918299617
 20
1658.629483530611
 30
0.0
 11
2008.487825738506
 21
1657.429489880455
 31
0.0
  0
LINE
  5
311
330
70
100
AcDbEntity
  8
Line
 62
     4
370
     9
100
AcDbLine
 10
2003.487918319813
 20
1659.266666937406
 30
0.0
 11
1977.48791827942
 21
1661.000000273432
 31
0.0
  0
LINE
  5
312
330
70
100
AcDbEntity
  8
Line
 62
     3
370
    30
100
AcDbLine
 10
2008.487825341375
 20
1636.569990349831
 30
0.0
 11
2008.487825341375
 21
1657.430010153533
 31
0.0
  0
LINE
  5
313
330
70
100
AcDbEntity
  8
Line
 62
     4
370
     9
100
AcDbLine
 10
2003.487918319813
 20
1659.266559622746
 30
0.0
 11
2008.487825738505
 21
1657.429902752695
 31
0.0
  0
LINE
  5
314
330
70
100
AcDbEntity
  8
Line
 62
     3
370
    30
100
AcDbLine
 10
1990.487918299617
 20
1635.370516972753
 30
0.0
 11
2008.487825738506
 21
1636.570510622909
 31
0.0
  0
LINE
  5
315
330
70
100
AcDbEntity
  8
Line
 62
     4
370
     9
100
AcDbLine
 10
2003.487918319813
 20
1634.733333565958
 30
0.0
 11
1977.48791827942
 21
1633.000000229932
 31
0.0
  0
LINE
  5
316
330
70
100
AcDbEntity
  8
Line
 62
     4
370
     9
100
AcDbLine
 10
2003.487918319813
 20
1634.733440880618
 30
0.0
 11
2008.487825738505
 21
1636.570097750668
 31
0.0
  0
LINE
  5
319
330
70
100
AcDbEntity
  8
Line
 62
     4
370
     9
390
82
100
AcDbLine
 10
4025.0
 20
1485.0
 30
0.0
 11
4125.0
 21
1485.0
 31
0.0
  0
LINE
  5
31A
330
70
100
AcDbEntity
  8
Line
 62
     4
370
     9
390
82
100
AcDbLine
 10
2100.0
 20
122.4999999999997
 30
0.0
 11
2100.0
 21
22.49999999999972
 31
0.0
  0
LINE
  5
31B
330
70
100
AcDbEntity
  8
Line
 62
     4
370
     9
390
82
100
AcDbLine
 10
2100.0
 20
2847.5
 30
0.0
 11
2100.0
 21
2947.5
 31
0.0
  0
LINE
  5
31C
330
70
100
AcDbEntity
  8
Line
 62
     4
370
    40
390
82
100
AcDbLine
 10
175.0
 20
2847.5
 30
0.0
 11
4025.0
 21
2847.5
 31
0.0
  0
LINE
  5
31D
330
70
100
AcDbEntity
  8
Line
 62
     4
370
     9
390
82
100
AcDbLine
 10
175.0
 20
1485.0
 30
0.0
 11
74.99999999999999
 21
1485.0
 31
0.0
  0
LINE
  5
31E
330
70
100
AcDbEntity
  8
Line
 62
     4
370
    40
390
82
100
AcDbLine
 10
175.0
 20
122.4999999999997
 30
0.0
 11
175.0
 21
2847.5
 31
0.0
  0
LINE
  5
31F
330
70
100
AcDbEntity
  8
Line
 62
     4
370
    40
390
82
100
AcDbLine
 10
175.0
 20
122.4999999999997
 30
0.0
 11
4025.0
 21
122.4999999999997
 31
0.0
  0
LINE
  5
320
330
70
100
AcDbEntity
  8
Line
 62
     4
370
    40
390
82
100
AcDbLine
 10
4025.0
 20
122.4999999999997
 30
0.0
 11
4025.0
 21
2847.5
 31
0.0
  0
LINE
  5
3C7
330
70
100
AcDbEntity
  8
Line
 62
     7
370
     9
100
AcDbLine
 10
1449.690223615157
 20
1049.036482618689
 30
0.0
 11
1296.507533218009
 21
1049.036482618689
 31
0.0
  0
TEXT
  5
3C8
330
70
100
AcDbEntity
  8
Text
100
AcDbText
 10
1310.067279155102
 20
1059.036482618688
 30
0.0
 40
40.0
  1
充填弁
100
AcDbText
  0
LINE
  5
3CC
330
70
100
AcDbEntity
  8
Line
 62
     7
370
     9
100
AcDbLine
 10
1514.756068385522
 20
1944.594805476035
 30
0.0
 11
1266.833294230386
 21
1944.594805476035
 31
0.0
  0
TEXT
  5
3CD
330
70
100
AcDbEntity
  8
Text
100
AcDbText
 10
1280.393040167479
 20
1954.594805476035
 30
0.0
 40
40.0
  1
ガス取出弁
100
AcDbText
  0
LINE
  5
3CE
330
70
100
AcDbEntity
  8
Line
 62
     7
370
     9
100
AcDbLine
 10
448.2048630904568
 20
1802.199489892266
 30
0.0
 11
286.9914213291981
 21
1802.199489892266
 31
0.0
  0
TEXT
  5
3CF
330
70
100
AcDbEntity
  8
Text
100
AcDbText
 10
296.8629806470764
 20
1812.199489892266
 30
0.0
 40
40.0
  1
安全弁
 72
     2
 11
430.1963139804097
 21
1812.199489892266
 31
0.0
100
AcDbText
  0
LINE
  5
3D0
330
70
100
AcDbEntity
  8
Line
 62
     7
370
     9
100
AcDbLine
 10
248.277651040901
 20
152.4999999999997
 30
0.0
 11
1068.277651040902
 21
152.4999999999997
 31
0.0
  0
LINE
  5
3D1
330
70
100
AcDbEntity
  8
Line
 62
     7
370
     9
100
AcDbLine
 10
248.277651040901
 20
212.4999999999997
 30
0.0
 11
1068.277651040902
 21
212.4999999999997
 31
0.0
  0
LINE
  5
3D2
330
70
100
AcDbEntity
  8
Line
 62
     7
370
     9
100
AcDbLine
 10
248.277651040901
 20
272.4999999999997
 30
0.0
 11
1068.277651040902
 21
272.4999999999997
 31
0.0
  0
LINE
  5
3D3
330
70
100
AcDbEntity
  8
Line
 62
     7
370
     9
100
AcDbLine
 10
248.277651040901
 20
332.4999999999997
 30
0.0
 11
1068.277651040902
 21
332.4999999999997
 31
0.0
  0
LINE
  5
3D4
330
70
100
AcDbEntity
  8
Line
 62
     7
370
     9
100
AcDbLine
 10
248.277651040901
 20
392.4999999999997
 30
0.0
 11
1068.277651040902
 21
392.4999999999997
 31
0.0
  0
LINE
  5
3E3
330
70
100
AcDbEntity
  8
Line
 62
     7
370
     9
100
AcDbLine
 10
538.326230460216
 20
452.5000000000003
 30
0.0
 11
778.2290716215871
 21
452.5000000000003
 31
0.0
  0
LINE
  5
3E8
330
70
100
AcDbEntity
  8
0
  6
Continuous
 62
     4
370
    40
390
82
100
AcDbLine
 10
2985.0
 20
122.4999999999997
 30
0.0
 11
2985.0
 21
282.4999999999997
 31
0.0
  0
TEXT
  5
3E9
330
70
100
AcDbEntity
  8
0
 62
     7
370
    30
390
82
100
AcDbText
 10
3052.715476908468
 20
52.05290999999973
 30
0.0
 40
40.0
  1
中国工業株式会社
 41
1.258928571428571
 72
     5
 11
3522.715476908468
 21
52.05290999999973
 31
0.0
100
AcDbText
1001
AcDbBlockRepETag
1070
     1
1071
       26
1005
0
  0
TEXT
  5
3EA
330
70
100
AcDbEntity
  8
0
 62
     7
370
    30
390
82
100
AcDbText
 10
3053.715476908469
 20
52.05290999999973
 30
0.0
 40
40.0
  1
中国工業株式会社
 41
1.258928571428571
 72
     5
 11
3523.715476908468
 21
52.05290999999973
 31
0.0
100
AcDbText
1001
AcDbBlockRepETag
1070
     1
1071
       27
1005
0
  0
TEXT
  5
3EB
330
70
100
AcDbEntity
  8
0
 62
     7
370
    30
390
82
100
AcDbText
 10
3054.715476908468
 20
52.05290999999973
 30
0.0
 40
40.0
  1
中国工業株式会社
 41
1.258928571428574
 72
     5
 11
3524.715476908468
 21
52.05290999999973
 31
0.0
100
AcDbText
1001
AcDbBlockRepETag
1070
     1
1071
       28
1005
0
  0
LINE
  5
3EC
330
70
100
AcDbEntity
  8
0
 62
     7
390
82
100
AcDbLine
 10
2952.513516908467
 20
84.49999999999972
 30
0.0
 11
2963.460366908467
 21
84.49999999999972
 31
0.0
1001
AcDbBlockRepETag
1070
     1
1071
       29
1005
0
  0
LINE
  5
3ED
330
70
100
AcDbEntity
  8
0
 62
     7
390
82
100
AcDbLine
 10
2963.460366908467
 20
60.4999999999997
 30
0.0
 11
2952.513516908467
 21
60.4999999999997
 31
0.0
1001
AcDbBlockRepETag
1070
     1
1071
       30
1005
0
  0
LINE
  5
3EE
330
70
100
AcDbEntity
  8
0
 62
     7
390
82
100
AcDbLine
 10
3007.323786908468
 20
60.4999999999997
 30
0.0
 11
3018.270646908468
 21
60.4999999999997
 31
0.0
1001
AcDbBlockRepETag
1070
     1
1071
       31
1005
0
  0
LINE
  5
3EF
330
70
100
AcDbEntity
  8
0
 62
     7
390
82
100
AcDbLine
 10
3018.270646908468
 20
84.49999999999972
 30
0.0
 11
3007.323786908468
 21
84.49999999999972
 31
0.0
1001
AcDbBlockRepETag
1070
     1
1071
       32
1005
0
  0
ARC
  5
3F0
330
70
100
AcDbEntity
  8
0
 62
     7
390
82
100
AcDbCircle
 10
2985.392079131242
 20
72.49999681828358
 30
0.0
 40
34.99999682108021
100
AcDbArc
 50
200.0510389212315
 51
339.9489606452748
1001
AcDbBlockRepETag
1070
     1
1071
       33
1005
0
  0
ARC
  5
3F1
330
70
100
AcDbEntity
  8
0
 62
     7
390
82
100
AcDbCircle
 10
2985.392076908468
 20
72.49999999999971
 30
0.0
 40
25.0
100
AcDbArc
 50
208.6854019999983
 51
331.3145980000015
1001
AcDbBlockRepETag
1070
     1
1071
       36
1005
0
  0
TEXT
  5
3F2
330
70
100
AcDbEntity
  8
0
 62
     7
370
    30
390
82
100
AcDbText
 10
2944.728353634273
 20
63.05290999999972
 30
0.0
 40
18.0
  1
ＣＫＫ
 41
1.475694444444444
 72
     5
 11
3029.728353634273
 21
63.05290999999972
 31
0.0
100
AcDbText
1001
AcDbBlockRepETag
1070
     1
1071
       38
1005
0
  0
TEXT
  5
3F3
330
70
100
AcDbEntity
  8
0
 62
     7
370
    30
390
82
100
AcDbText
 10
2943.228353634273
 20
63.05290999999972
 30
0.0
 40
18.0
  1
ＣＫＫ
 41
1.475694444444444
 72
     5
 11
3028.228353634273
 21
63.05290999999972
 31
0.0
100
AcDbText
1001
AcDbBlockRepETag
1070
     1
1071
       39
1005
0
  0
TEXT
  5
3F4
330
70
100
AcDbEntity
  8
0
 62
     7
370
    30
390
82
100
AcDbText
 10
2941.728353634273
 20
63.05290999999972
 30
0.0
 40
18.0
  1
ＣＫＫ
 41
1.475694444444444
 72
     5
 11
3026.728353634274
 21
63.05290999999972
 31
0.0
100
AcDbText
1001
AcDbBlockRepETag
1070
     1
1071
       40
1005
0
  0
TEXT
  5
3F5
330
70
100
AcDbEntity
  8
0
 62
     7
370
    30
390
82
100
AcDbText
 10
2940.228353634274
 20
63.05290999999972
 30
0.0
 40
18.0
  1
ＣＫＫ
 41
1.475694444444444
 72
     5
 11
3025.228353634274
 21
63.05290999999972
 31
0.0
100
AcDbText
1001
AcDbBlockRepETag
1070
     1
1071
       41
1005
0
  0
ARC
  5
3F6
330
70
100
AcDbEntity
  8
0
 62
     7
390
82
100
AcDbCircle
 10
2985.392076908468
 20
72.49999999999971
 30
0.0
 40
35.0
100
AcDbArc
 50
20.05104300000073
 51
159.9489569999992
1001
AcDbBlockRepETag
1070
     1
1071
       42
1005
0
  0
ARC
  5
3F7
330
70
100
AcDbEntity
  8
0
 62
     7
390
82
100
AcDbCircle
 10
2985.392076908468
 20
72.49999999999971
 30
0.0
 40
25.0
100
AcDbArc
 50
28.68540199999843
 51
151.3145980000015
1001
AcDbBlockRepETag
1070
     1
1071
       43
1005
0
  0
TEXT
  5
3F8
330
70
100
AcDbEntity
  8
0
 62
     7
370
    30
390
82
100
AcDbText
 10
3055.715476908468
 20
52.05290999999973
 30
0.0
 40
40.0
  1
中国工業株式会社
 41
1.258928571428571
 72
     5
 11
3525.715476908467
 21
52.05290999999973
 31
0.0
100
AcDbText
1001
AcDbBlockRepETag
1070
     1
1071
       45
1005
0
  0
TEXT
  5
3F9
330
70
100
AcDbEntity
  8
0
 62
     7
370
    30
390
82
100
AcDbText
 10
3056.715476908467
 20
52.05290999999973
 30
0.0
 40
40.0
  1
中国工業株式会社
 41
1.258928571428571
 72
     5
 11
3526.715476908468
 21
52.05290999999973
 31
0.0
100
AcDbText
1001
AcDbBlockRepETag
1070
     1
1071
       46
1005
0
  0
TEXT
  5
3FA
330
70
100
AcDbEntity
  8
0
 62
     7
370
    30
390
82
100
AcDbText
 10
3057.715476908468
 20
52.05290999999973
 30
0.0
 40
40.0
  1
中国工業株式会社
 41
1.258928571428571
 72
     5
 11
3527.715476908468
 21
52.05290999999973
 31
0.0
100
AcDbText
1001
AcDbBlockRepETag
1070
     1
1071
       47
1005
0
  0
TEXT
  5
3FB
330
70
100
AcDbEntity
  8
0
 62
     7
370
    30
390
82
100
AcDbText
 10
3058.715476908469
 20
52.05290999999973
 30
0.0
 40
40.0
  1
中国工業株式会社
 41
1.258928571428571
 72
     5
 11
3528.715476908468
 21
52.05290999999973
 31
0.0
100
AcDbText
1001
AcDbBlockRepETag
1070
     1
1071
       48
1005
0
  0
TEXT
  5
3FC
330
70
100
AcDbEntity
  8
0
 62
     7
370
    30
390
82
100
AcDbText
 10
3059.715476908468
 20
52.05290999999973
 30
0.0
 40
40.0
  1
中国工業株式会社
 41
1.258928571428574
 72
     5
 11
3529.715476908469
 21
52.05290999999973
 31
0.0
100
AcDbText
1001
AcDbBlockRepETag
1070
     1
1071
       49
1005
0
  0
TEXT
  5
3FD
330
70
100
AcDbEntity
  8
0
 62
     7
370
    30
390
82
100
AcDbText
 10
3060.715476908467
 20
52.05290999999973
 30
0.0
 40
40.0
  1
中国工業株式会社
 41
1.258928571428571
 72
     5
 11
3530.715476908468
 21
52.05290999999973
 31
0.0
100
AcDbText
1001
AcDbBlockRepETag
1070
     1
1071
       50
1005
0
  0
TEXT
  5
3FE
330
70
100
AcDbEntity
  8
0
 62
     7
370
    30
390
82
100
AcDbText
 10
3051.715476908468
 20
52.05290999999973
 30
0.0
 40
40.0
  1
中国工業株式会社
 41
1.258928571428571
 72
     5
 11
3521.715476908467
 21
52.05290999999973
 31
0.0
100
AcDbText
1001
AcDbBlockRepETag
1070
     1
1071
       51
1005
0
  0
HATCH
  5
3FF
330
70
100
AcDbEntity
  8
0
 62
     7
390
82
100
AcDbHatch
 10
0.0
 20
0.0
 30
0.0
210
0.0
220
0.0
230
1.0
  2
SOLID
 70
     1
 71
     0
 91
        1
 92
        1
 93
        4
 72
     2
 10
2985.392076908468
 20
72.49999999999971
 40
25.0
 50
28.68540199999843
 51
151.3145980000015
 73
     1
 72
     1
 10
2963.460366908467
 20
84.49999999999972
 11
2952.513516908467
 21
84.49999999999972
 72
     2
 10
2985.392076908468
 20
72.49999999999971
 40
35.0
 50
200.0510430000007
 51
339.9489569999993
 73
     0
 72
     1
 10
3018.270646908468
 20
84.49999999999972
 11
3007.323786908468
 21
84.49999999999972
 97
        0
 75
     0
 76
     1
 98
        1
 10
2192.553776908467
 20
-12.50000000000026
450
        0
451
        0
460
0.0
461
0.0
452
        0
462
0.0
453
        0
470

1001
ACAD
1010
0.0
1020
0.0
1030
0.0
1001
AcDbBlockRepETag
1070
     1
1071
      139
1005
0
  0
HATCH
  5
400
330
70
100
AcDbEntity
  8
0
 62
     7
390
82
100
AcDbHatch
 10
0.0
 20
0.0
 30
0.0
210
0.0
220
0.0
230
1.0
  2
SOLID
 70
     1
 71
     0
 91
        1
 92
        1
 93
        4
 72
     2
 10
2985.392076908468
 20
72.49999999999971
 40
25.0
 50
208.6854019999983
 51
331.3145980000015
 73
     1
 72
     1
 10
3007.323786908468
 20
60.4999999999997
 11
3018.270646908468
 21
60.4999999999997
 72
     2
 10
2985.392079131242
 20
72.49999681828358
 40
34.99999682108021
 50
20.05103935472521
 51
159.9489610787685
 73
     0
 72
     1
 10
2952.513516908467
 20
60.4999999999997
 11
2963.460366908467
 21
60.4999999999997
 97
        0
 75
     0
 76
     1
 98
        1
 10
2192.553776908467
 20
-12.50000000000026
450
        0
451
        0
460
0.0
461
0.0
452
        0
462
0.0
453
        0
470

1001
ACAD
1010
0.0
1020
0.0
1030
0.0
1001
AcDbBlockRepETag
1070
     1
1071
      140
1005
0
  0
LINE
  5
401
330
70
100
AcDbEntity
  8
0
  6
Continuous
 62
     4
370
     9
390
82
100
AcDbLine
 10
3045.0
 20
122.4999999999997
 30
0.0
 11
3045.0
 21
282.4999999999997
 31
0.0
  0
LINE
  5
402
330
70
100
AcDbEntity
  8
0
  6
Continuous
 62
     4
370
    40
390
82
100
AcDbLine
 10
2985.0
 20
282.4999999999997
 30
0.0
 11
4025.0
 21
282.4999999999997
 31
0.0
  0
TEXT
  5
403
330
70
100
AcDbEntity
  8
0
 62
     4
370
    30
390
82
100
AcDbText
 10
2999.0
 20
226.4999999999998
 30
0.0
 40
32.0
  1
名
 41
1.083722883575301
 72
     5
 11
3029.055247971155
 21
226.4999999999998
 31
0.0
100
AcDbText
1001
AcDbBlockRepETag
1070
     1
1071
       22
1005
0
  0
TEXT
  5
404
330
70
100
AcDbEntity
  8
0
 62
     4
370
    30
390
82
100
AcDbText
 10
2999.0
 20
146.4999999999998
 30
0.0
 40
32.0
  1
称
 41
1.071428571428571
 72
     5
 11
3031.0
 21
146.4999999999998
 31
0.0
100
AcDbText
1001
AcDbBlockRepETag
1070
     1
1071
       23
1005
0
  0
TEXT
  5
407
330
70
100
AcDbEntity
  8
Text
100
AcDbText
 10
3813.777749090024
 20
53.69000968951127
 30
0.0
 40
40.0
  1
2022年6月
 11
3813.777749090024
 21
73.69000968951127
 31
0.0
100
AcDbText
 73
     2
  0
LINE
  5
409
330
70
100
AcDbEntity
  8
Line
 62
     7
370
     9
100
AcDbLine
 10
1604.420744153691
 20
1711.229508548176
 30
0.0
 11
1451.238053756543
 21
1711.229508548176
 31
0.0
  0
TEXT
  5
40A
330
70
100
AcDbEntity
  8
Text
100
AcDbText
 10
1464.797799693636
 20
1721.229508548177
 30
0.0
 40
40.0
  1
液面計
100
AcDbText
  0
TEXT
  5
73C
330
70
100
AcDbEntity
  8
Text
 62
     2
100
AcDbText
 10
3237.666666666667
 20
182.4999999999997
 30
0.0
 40
40.0
  1
５００ｋｇ型 ＬＰガス容器
100
AcDbText
1001
ACAD
1000
ACAD_MTEXT_DEFINED_HEIGHT_BEGIN
1070
    46
1040
8.0
1000
ACAD_MTEXT_DEFINED_HEIGHT_END
  0
LINE
  5
73D
330
70
100
AcDbEntity
  8
Size
370
     9
100
AcDbLine
 10
1849.879204233453
 20
1242.499999623246
 30
0.0
 11
1723.984101288584
 21
1242.499999623246
 31
0.0
  0
LINE
  5
73E
330
70
100
AcDbEntity
  8
Size
370
     9
100
AcDbLine
 10
1849.879204233452
 20
1727.500000376736
 30
0.0
 11
1723.984101288584
 21
1727.500000376736
 31
0.0
  0
LINE
  5
73F
330
70
100
AcDbEntity
  8
Size
370
     9
100
AcDbLine
 10
1736.484101288584
 20
1242.509999623246
 30
0.0
 11
1736.484101288584
 21
1727.490000376736
 31
0.0
  0
INSERT
  5
740
330
70
100
AcDbEntity
  8
Size
370
     9
100
AcDbBlockReference
  2
30a
 10
1736.484101288584
 20
1242.499999623246
 30
0.0
 41
0.01
 42
0.01
 43
0.01
 50
270.0
  0
INSERT
  5
741
330
70
100
AcDbEntity
  8
Size
370
     9
100
AcDbBlockReference
  2
30a
 10
1736.484101288584
 20
1727.500000376736
 30
0.0
 41
0.01
 42
0.01
 43
0.01
 50
90.0
  0
MTEXT
  5
742
330
70
100
AcDbEntity
  8
Size
100
AcDbMText
 10
1710.234101288583
 20
1484.99999999999
 30
0.0
 40
40.0
 41
0.0
 71
     5
 72
     1
  1
φ485
 11
0.0000000000000001
 21
1.0
 31
0.0
 73
     1
 44
1.0
  0
LINE
  5
743
330
70
100
AcDbEntity
  8
Size
370
     9
100
AcDbLine
 10
1977.48791827942
 20
1680.250000293628
 30
0.0
 11
1977.48791827942
 21
2079.303279592721
 31
0.0
  0
LINE
  5
744
330
70
100
AcDbEntity
  8
Size
370
     9
100
AcDbLine
 10
2002.484886633287
 20
1491.249999999819
 30
0.0
 11
2002.484886633287
 21
2079.303279592721
 31
0.0
  0
LINE
  5
745
330
70
100
AcDbEntity
  8
Size
370
     9
100
AcDbLine
 10
2002.474886633287
 20
2066.803279592722
 30
0.0
 11
1977.49791827942
 21
2066.803279592722
 31
0.0
  0
LINE
  5
746
330
70
100
AcDbEntity
  8
Size
370
     9
100
AcDbLine
 10
1977.48791827942
 20
2066.803279592722
 30
0.0
 11
1874.311251612753
 21
2066.803279592722
 31
0.0
  0
INSERT
  5
747
330
70
100
AcDbEntity
  8
Size
370
     9
100
AcDbBlockReference
  2
30a
 10
2002.484886633287
 20
2066.803279592722
 30
0.0
 41
0.01
 42
0.01
 43
0.01
 50
180.0
  0
LINE
  5
748
330
70
100
AcDbEntity
  8
Size
370
     9
100
AcDbLine
 10
2002.494886633287
 20
2066.803279592722
 30
0.0
 11
2002.504886633287
 21
2066.803279592722
 31
0.0
  0
LINE
  5
749
330
70
100
AcDbEntity
  8
Size
370
     9
100
AcDbLine
 10
2002.484886633287
 20
2066.803279592722
 30
0.0
 11
2002.474886633287
 21
2066.803279592722
 31
0.0
  0
INSERT
  5
74A
330
70
100
AcDbEntity
  8
Size
370
     9
100
AcDbBlockReference
  2
30a
 10
1977.48791827942
 20
2066.803279592722
 30
0.0
 41
0.01
 42
0.01
 43
0.01
  0
LINE
  5
74B
330
70
100
AcDbEntity
  8
Size
370
     9
100
AcDbLine
 10
1977.47791827942
 20
2066.803279592722
 30
0.0
 11
1977.46791827942
 21
2066.803279592722
 31
0.0
  0
LINE
  5
74C
330
70
100
AcDbEntity
  8
Size
370
     9
100
AcDbLine
 10
1977.48791827942
 20
2066.803279592722
 30
0.0
 11
1977.49791827942
 21
2066.803279592722
 31
0.0
  0
MTEXT
  5
74D
330
70
100
AcDbEntity
  8
Size
100
AcDbMText
 10
1901.894584946087
 20
2093.053279592722
 30
0.0
 40
40.0
 41
0.0
 71
     5
 72
     1
  1
25
 73
     1
 44
1.0
  0
LINE
  5
74E
330
70
100
AcDbEntity
  8
Size
370
     9
100
AcDbLine
 10
2002.484886633287
 20
1491.249999999878
 30
0.0
 11
2002.484886633287
 21
2079.303279592781
 31
0.0
  0
LINE
  5
74F
330
70
100
AcDbEntity
  8
Size
370
     9
100
AcDbLine
 10
2267.987918730738
 20
1969.250000742674
 30
0.0
 11
2267.987918730738
 21
2079.303279592781
 31
0.0
  0
LINE
  5
750
330
70
100
AcDbEntity
  8
Size
370
     9
100
AcDbLine
 10
2002.494886633287
 20
2066.803279592781
 30
0.0
 11
2267.977918730738
 21
2066.803279592781
 31
0.0
  0
INSERT
  5
751
330
70
100
AcDbEntity
  8
Size
370
     9
100
AcDbBlockReference
  2
30a
 10
2002.484886633287
 20
2066.803279592781
 30
0.0
 41
0.01
 42
0.01
 43
0.01
 50
180.0
  0
INSERT
  5
752
330
70
100
AcDbEntity
  8
Size
370
     9
100
AcDbBlockReference
  2
30a
 10
2267.987918730738
 20
2066.803279592781
 30
0.0
 41
0.01
 42
0.01
 43
0.01
  0
MTEXT
  5
753
330
70
100
AcDbEntity
  8
Size
100
AcDbMText
 10
2135.236402682012
 20
2093.053279592781
 30
0.0
 40
40.0
 41
0.0
 71
     5
 72
     1
  1
265.5
 73
     1
 44
1.0
  0
LINE
  5
754
330
70
100
AcDbEntity
  8
Size
370
     9
100
AcDbLine
 10
2267.987918730737
 20
1969.250000742614
 30
0.0
 11
2267.987918730737
 21
2079.303279592721
 31
0.0
  0
LINE
  5
755
330
70
100
AcDbEntity
  8
Size
370
     9
100
AcDbLine
 10
3587.987920781471
 20
1969.250000742614
 30
0.0
 11
3587.987920781471
 21
2079.303279592721
 31
0.0
  0
LINE
  5
756
330
70
100
AcDbEntity
  8
Size
370
     9
100
AcDbLine
 10
2267.997918730738
 20
2066.803279592722
 30
0.0
 11
3587.977920781471
 21
2066.803279592722
 31
0.0
  0
INSERT
  5
757
330
70
100
AcDbEntity
  8
Size
370
     9
100
AcDbBlockReference
  2
30a
 10
2267.987918730737
 20
2066.803279592722
 30
0.0
 41
0.01
 42
0.01
 43
0.01
 50
180.0
  0
INSERT
  5
758
330
70
100
AcDbEntity
  8
Size
370
     9
100
AcDbBlockReference
  2
30a
 10
3587.987920781471
 20
2066.803279592722
 30
0.0
 41
0.01
 42
0.01
 43
0.01
  0
MTEXT
  5
759
330
70
100
AcDbEntity
  8
Size
100
AcDbMText
 10
2927.987919756104
 20
2093.053279592722
 30
0.0
 40
40.0
 41
0.0
 71
     5
 72
     1
  1
1320
 73
     1
 44
1.0
  0
LINE
  5
75A
330
70
100
AcDbEntity
  8
Size
370
     9
100
AcDbLine
 10
3587.987920781471
 20
1969.250000742614
 30
0.0
 11
3587.987920781471
 21
2079.303279592721
 31
0.0
  0
LINE
  5
75B
330
70
100
AcDbEntity
  8
Size
370
     9
100
AcDbLine
 10
3853.490952878912
 20
1491.25
 30
0.0
 11
3853.490952878912
 21
2079.303279592721
 31
0.0
  0
LINE
  5
75C
330
70
100
AcDbEntity
  8
Size
370
     9
100
AcDbLine
 10
3587.997920781472
 20
2066.803279592722
 30
0.0
 11
3853.480952878912
 21
2066.803279592722
 31
0.0
  0
INSERT
  5
75D
330
70
100
AcDbEntity
  8
Size
370
     9
100
AcDbBlockReference
  2
30a
 10
3587.987920781471
 20
2066.803279592722
 30
0.0
 41
0.01
 42
0.01
 43
0.01
 50
180.0
  0
INSERT
  5
75E
330
70
100
AcDbEntity
  8
Size
370
     9
100
AcDbBlockReference
  2
30a
 10
3853.490952878912
 20
2066.803279592722
 30
0.0
 41
0.01
 42
0.01
 43
0.01
  0
MTEXT
  5
75F
330
70
100
AcDbEntity
  8
Size
100
AcDbMText
 10
3720.739436830192
 20
2093.053279592722
 30
0.0
 40
40.0
 41
0.0
 71
     5
 72
     1
  1
265.5
 73
     1
 44
1.0
  0
LINE
  5
760
330
70
100
AcDbEntity
  8
Size
370
     9
100
AcDbLine
 10
1836.129204201673
 20
1713.750000347411
 30
0.0
 11
1836.129204201673
 21
2139.303279592781
 31
0.0
  0
LINE
  5
761
330
70
100
AcDbEntity
  8
Size
370
     9
100
AcDbLine
 10
3853.490952878913
 20
1491.25
 30
0.0
 11
3853.490952878913
 21
2139.303279592781
 31
0.0
  0
LINE
  5
762
330
70
100
AcDbEntity
  8
Size
370
     9
100
AcDbLine
 10
1836.139204201673
 20
2126.803279592781
 30
0.0
 11
3853.480952878913
 21
2126.803279592781
 31
0.0
  0
INSERT
  5
763
330
70
100
AcDbEntity
  8
Size
370
     9
100
AcDbBlockReference
  2
30a
 10
1836.129204201673
 20
2126.803279592781
 30
0.0
 41
0.01
 42
0.01
 43
0.01
 50
180.0
  0
INSERT
  5
764
330
70
100
AcDbEntity
  8
Size
370
     9
100
AcDbBlockReference
  2
30a
 10
3853.490952878913
 20
2126.803279592781
 30
0.0
 41
0.01
 42
0.01
 43
0.01
  0
MTEXT
  5
765
330
70
100
AcDbEntity
  8
Size
100
AcDbMText
 10
2844.810078540293
 20
2153.053279592781
 30
0.0
 40
40.0
 41
0.0
 71
     5
 72
     1
  1
(2017)
 73
     1
 44
1.0
  0
LINE
  5
766
330
70
100
AcDbEntity
  8
Size
370
     9
100
AcDbLine
 10
2824.626814945848
 20
1010.009999262377
 30
0.0
 11
2824.626814945848
 21
1959.990000738294
 31
0.0
  0
INSERT
  5
767
330
70
100
AcDbEntity
  8
Size
370
     9
100
AcDbBlockReference
  2
30a
 10
2824.626814945848
 20
1009.999999262377
 30
0.0
 41
0.01
 42
0.01
 43
0.01
 50
270.0
  0
INSERT
  5
768
330
70
100
AcDbEntity
  8
Size
370
     9
100
AcDbBlockReference
  2
30a
 10
2824.626814945848
 20
1960.000000738294
 30
0.0
 41
0.01
 42
0.01
 43
0.01
 50
90.0
  0
MTEXT
  5
769
330
70
100
AcDbEntity
  8
Size
100
AcDbMText
 10
2798.376814945848
 20
1397.358640625291
 30
0.0
 40
40.0
 41
0.0
 71
     5
 72
     1
  1
I.D950
 11
0.0000000000000001
 21
1.0
 31
0.0
 73
     1
 44
1.0
  0
INSERT
  5
76A
330
70
100
AcDbEntity
  8
Size
100
AcDbBlockReference
  2
30a
 10
1932.047948238255
 20
1242.499999622906
 30
0.0
 41
0.001
 42
0.001
 43
0.001
 50
46.62660964357358
1001
ACAD
1000
DSTYLE
1002
{
1070
    40
1040
1.0
1070
   147
1040
0.625
1070
    77
1070
     1
1002
}
  0
LWPOLYLINE
  5
76B
330
70
100
AcDbEntity
  8
Size
100
AcDbPolyline
 90
        3
 70
     0
 43
0.0
 10
1932.047261488258
 20
1242.499272729212
 10
1849.583536342377
 20
1155.215163412992
 10
1660.455587353535
 20
1155.215163412992
1001
ACAD
1000
DSTYLE
1002
{
1070
    40
1040
1.0
1070
   147
1040
0.625
1070
    77
1070
     1
1002
}
  0
TEXT
  5
76C
330
70
100
AcDbEntity
  8
Size
100
AcDbText
 10
1661.856770359518
 20
1155.840163412992
 30
0.0
 40
40.0
  1
4-φ80穴
100
AcDbText
1001
ACAD
1000
ACAD_MTEXT_DEFINED_HEIGHT_BEGIN
1070
    46
1040
0.0
1000
ACAD_MTEXT_DEFINED_HEIGHT_END
  0
INSERT
  5
76D
330
70
100
AcDbEntity
  8
Item
390
82
100
AcDbBlockReference
  2
30a
 10
951.8314084398083
 20
1496.192563589937
 30
0.0
 41
0.001
 42
0.001
 43
0.001
 50
203.295980121788
1001
ACAD
1000
DSTYLE
1002
{
1070
    40
1040
1.0
1070
   176
1070
     7
1070
   147
1040
0.625
1070
    77
1070
     1
1002
}
  0
LWPOLYLINE
  5
76E
330
70
100
AcDbEntity
  8
Item
390
82
100
AcDbPolyline
 90
        2
 70
     0
 43
0.0
 10
951.8323269139388
 20
1496.192959071
 10
1451.238053663329
 20
1711.229508548177
1001
ACAD
1000
DSTYLE
1002
{
1070
    40
1040
1.0
1070
   176
1070
     7
1070
   147
1040
0.625
1070
    77
1070
     1
1002
}
  0
INSERT
  5
76F
330
70
100
AcDbEntity
  8
Item
390
82
100
AcDbBlockReference
  2
30a
 10
950.5793789114624
 20
1660.809314433328
 30
0.0
 41
0.001
 42
0.001
 43
0.001
 50
221.9027180305865
1001
ACAD
1000
DSTYLE
1002
{
1070
    40
1040
1.0
1070
   176
1070
     7
1070
   147
1040
0.625
1070
    77
1070
     1
1002
}
  0
LWPOLYLINE
  5
770
330
70
100
AcDbEntity
  8
Item
390
82
100
AcDbPolyline
 90
        2
 70
     0
 43
0.0
 10
950.5801231913267
 20
1660.809982301192
 10
1266.833294137171
 20
1944.594805476036
1001
ACAD
1000
DSTYLE
1002
{
1070
    40
1040
1.0
1070
   176
1070
     7
1070
   147
1040
0.625
1070
    77
1070
     1
1002
}
  0
INSERT
  5
771
330
70
100
AcDbEntity
  8
Item
390
82
100
AcDbBlockReference
  2
30a
 10
778.6880730494808
 20
1504.582042088272
 30
0.0
 41
0.001
 42
0.001
 43
0.001
 50
317.9953060224625
1001
ACAD
1000
DSTYLE
1002
{
1070
    40
1040
1.0
1070
   176
1070
     7
1070
   147
1040
0.625
1070
    77
1070
     1
1002
}
  0
LWPOLYLINE
  5
772
330
70
100
AcDbEntity
  8
Item
390
82
100
AcDbPolyline
 90
        2
 70
     0
 43
0.0
 10
778.6873299594766
 20
1504.582711279759
 10
448.2048630904568
 20
1802.199489892266
1001
ACAD
1000
DSTYLE
1002
{
1070
    40
1040
1.0
1070
   176
1070
     7
1070
   147
1040
0.625
1070
    77
1070
     1
1002
}
  0
INSERT
  5
773
330
70
100
AcDbEntity
  8
Item
390
82
100
AcDbBlockReference
  2
30a
 10
955.1730133946563
 20
1335.194540637837
 30
0.0
 41
0.001
 42
0.001
 43
0.001
 50
140.0251878470476
1001
ACAD
1000
DSTYLE
1002
{
1070
    40
1040
1.0
1070
   176
1070
     7
1070
   147
1040
0.625
1070
    77
1070
     1
1002
}
  0
LWPOLYLINE
  5
774
330
70
100
AcDbEntity
  8
Item
390
82
100
AcDbPolyline
 90
        2
 70
     0
 43
0.0
 10
955.1737797216018
 20
1335.193898187051
 10
1296.507533124794
 20
1049.036482618689
1001
ACAD
1000
DSTYLE
1002
{
1070
    40
1040
1.0
1070
   176
1070
     7
1070
   147
1040
0.625
1070
    77
1070
     1
1002
}
  0
TEXT
  5
775
330
70
100
AcDbEntity
  8
Text
 62
     7
100
AcDbText
 10
249.2776510409022
 20
222.4999999999997
 30
0.0
 40
40.0
  1
計算刻印質量
100
AcDbText
1001
ACAD
1000
ACAD_MTEXT_DEFINED_HEIGHT_BEGIN
1070
    46
1040
0.0
1000
ACAD_MTEXT_DEFINED_HEIGHT_END
  0
TEXT
  5
776
330
70
100
AcDbEntity
  8
Text
 62
     7
100
AcDbText
 10
246.6109843742355
 20
282.4999999999997
 30
0.0
 40
40.0
  1
内容積
100
AcDbText
1001
ACAD
1000
ACAD_MTEXT_DEFINED_HEIGHT_BEGIN
1070
    46
1040
0.0
1000
ACAD_MTEXT_DEFINED_HEIGHT_END
  0
TEXT
  5
777
330
70
100
AcDbEntity
  8
Text
 62
     7
100
AcDbText
 10
249.2776510409022
 20
342.5000000000003
 30
0.0
 40
40.0
  1
耐圧試験圧力
100
AcDbText
1001
ACAD
1000
ACAD_MTEXT_DEFINED_HEIGHT_BEGIN
1070
    46
1040
3.644643982134057
1000
ACAD_MTEXT_DEFINED_HEIGHT_END
  0
TEXT
  5
778
330
70
100
AcDbEntity
  8
Text
 62
     7
100
AcDbText
 10
896.7464691951271
 20
342.4999999999997
 30
0.0
 40
40.0
  1
ＭＰａ
100
AcDbText
1001
ACAD
1000
ACAD_MTEXT_DEFINED_HEIGHT_BEGIN
1070
    46
1040
0.0
1000
ACAD_MTEXT_DEFINED_HEIGHT_END
  0
TEXT
  5
779
330
70
100
AcDbEntity
  8
Text
 62
     7
100
AcDbText
 10
891.4131358617938
 20
222.4999999999997
 30
0.0
 40
40.0
  1
ｋｇ
100
AcDbText
1001
ACAD
1000
ACAD_MTEXT_DEFINED_HEIGHT_BEGIN
1070
    46
1040
0.0
1000
ACAD_MTEXT_DEFINED_HEIGHT_END
  0
TEXT
  5
77A
330
70
100
AcDbEntity
  8
Text
 62
     7
100
AcDbText
 10
902.0798025284605
 20
282.4999999999997
 30
0.0
 40
40.0
  1

100
AcDbText
1001
ACAD
1000
ACAD_MTEXT_DEFINED_HEIGHT_BEGIN
1070
    46
1040
0.0
1000
ACAD_MTEXT_DEFINED_HEIGHT_END
  0
TEXT
  5
77B
330
70
100
AcDbEntity
  8
Text
 62
     7
100
AcDbText
 10
694.9443177075687
 20
282.4999999999997
 30
0.0
 40
40.0
  1
１１７５
100
AcDbText
1001
ACAD
1000
ACAD_MTEXT_DEFINED_HEIGHT_BEGIN
1070
    46
1040
0.0
1000
ACAD_MTEXT_DEFINED_HEIGHT_END
  0
TEXT
  5
77C
330
70
100
AcDbEntity
  8
Text
 62
     7
100
AcDbText
 10
638.2776510409021
 20
222.4999999999992
 30
0.0
 40
40.0
  1
約 ３６０
100
AcDbText
1001
ACAD
1000
ACAD_MTEXT_DEFINED_HEIGHT_BEGIN
1070
    46
1040
4.000000000000015
1000
ACAD_MTEXT_DEFINED_HEIGHT_END
  0
TEXT
  5
77D
330
70
100
AcDbEntity
  8
Text
 62
     7
100
AcDbText
 10
943.4920981337549
 20
305.3948051185767
 30
0.0
 40
21.0
  1
＋３
100
AcDbText
1001
ACAD
1000
ACAD_MTEXT_DEFINED_HEIGHT_BEGIN
1070
    46
1040
0.0
1000
ACAD_MTEXT_DEFINED_HEIGHT_END
  0
TEXT
  5
77E
330
70
100
AcDbEntity
  8
Text
 62
     7
100
AcDbText
 10
943.4920981337549
 20
276.3184502457016
 30
0.0
 40
21.0
  1
－０
100
AcDbText
1001
ACAD
1000
ACAD_MTEXT_DEFINED_HEIGHT_BEGIN
1070
    46
1040
0.0
1000
ACAD_MTEXT_DEFINED_HEIGHT_END
  0
TEXT
  5
77F
330
70
100
AcDbEntity
  8
Text
 62
     7
100
AcDbText
 10
258.2776510409021
 20
402.5000000000003
 30
0.0
 40
40.0
  1
最高充填圧力
100
AcDbText
1001
ACAD
1000
ACAD_MTEXT_DEFINED_HEIGHT_BEGIN
1070
    46
1040
0.0
1000
ACAD_MTEXT_DEFINED_HEIGHT_END
  0
TEXT
  5
780
330
70
100
AcDbEntity
  8
Text
 62
     7
100
AcDbText
 10
896.7464691951271
 20
402.4999999999996
 30
0.0
 40
40.0
  1
ＭＰａ
100
AcDbText
1001
ACAD
1000
ACAD_MTEXT_DEFINED_HEIGHT_BEGIN
1070
    46
1040
0.0
1000
ACAD_MTEXT_DEFINED_HEIGHT_END
  0
TEXT
  5
781
330
70
100
AcDbEntity
  8
Text
100
AcDbText
 10
258.2776510409021
 20
162.4999999999997
 30
0.0
 40
40.0
  1
充填ガス
100
AcDbText
1001
ACAD
1000
ACAD_MTEXT_DEFINED_HEIGHT_BEGIN
1070
    46
1040
3.999999999999997
1000
ACAD_MTEXT_DEFINED_HEIGHT_END
  0
TEXT
  5
782
330
70
100
AcDbEntity
  8
Text
100
AcDbText
 10
702.9443177075687
 20
162.4999999999997
 30
0.0
 40
40.0
  1
ＬＰガス
100
AcDbText
1001
ACAD
1000
ACAD_MTEXT_DEFINED_HEIGHT_BEGIN
1070
    46
1040
4.000000000000028
1000
ACAD_MTEXT_DEFINED_HEIGHT_END
  0
TEXT
  5
783
330
70
100
AcDbEntity
  8
Text
 62
     7
100
AcDbText
 10
543.3262304602171
 20
462.5000000000002
 30
0.0
 40
40.0
  1
要　　　目
100
AcDbText
1001
ACAD
1000
ACAD_MTEXT_DEFINED_HEIGHT_BEGIN
1070
    46
1040
3.999999999999997
1000
ACAD_MTEXT_DEFINED_HEIGHT_END
  0
TEXT
  5
784
330
70
100
AcDbEntity
  8
Text
 62
     7
100
AcDbText
 10
1007.968230259717
 20
282.4999999999997
 30
0.0
 40
40.0
  1
％
100
AcDbText
1001
ACAD
1000
ACAD_MTEXT_DEFINED_HEIGHT_BEGIN
1070
    46
1040
0.0
1000
ACAD_MTEXT_DEFINED_HEIGHT_END
  0
TEXT
  5
785
330
70
100
AcDbEntity
  8
Text
 62
     7
100
AcDbText
 10
702.9443177075687
 20
342.4999999999997
 30
0.0
 40
40.0
  1
３.５
100
AcDbText
1001
ACAD
1000
ACAD_MTEXT_DEFINED_HEIGHT_BEGIN
1070
    46
1040
3.999999999999992
1000
ACAD_MTEXT_DEFINED_HEIGHT_END
  0
TEXT
  5
786
330
70
100
AcDbEntity
  8
Text
 62
     7
100
AcDbText
 10
702.9443177075687
 20
402.4999999999996
 30
0.0
 40
40.0
  1
２.１０
100
AcDbText
1001
ACAD
1000
ACAD_MTEXT_DEFINED_HEIGHT_BEGIN
1070
    46
1040
0.0
1000
ACAD_MTEXT_DEFINED_HEIGHT_END
  0
VIEWPORT
  5
7A6
102
{ACAD_XDICTIONARY
360
7A7
102
}
330
6C
100
AcDbEntity
 67
     1
  8
0
100
AcDbViewport
 10
148.5
 20
105.0
 30
0.0
 40
361.8936435868331
 41
222.18
 68
     1
 69
     1
 12
148.5
 22
105.0
 13
0.0
 23
0.0
 14
10.0
 24
10.0
 15
10.0
 25
10.0
 16
0.0
 26
0.0
 36
1.0
 17
0.0
 27
0.0
 37
0.0
 42
50.0
 43
0.0
 44
0.0
 45
222.18
 50
0.0
 51
0.0
 72
  1000
 90
   819232
  1

281
     0
 71
     1
 74
     0
110
0.0
120
0.0
130
0.0
111
1.0
121
0.0
131
0.0
112
0.0
122
1.0
132
0.0
 79
     0
146
0.0
170
     0
  0
ENDSEC
  0
SECTION
  2
OBJECTS
  0
DICTIONARY
  5
C
330
0
100
AcDbDictionary
281
     1
  3
ACAD_2007HEADERVARS_RT
350
7B9
  3
ACAD_CIP_PREVIOUS_PRODUCT_INFO
350
633
  3
ACAD_COLOR
350
63
  3
ACAD_DETAILVIEWSTYLE
350
6A
  3
ACAD_GROUP
350
D
  3
ACAD_LAST_SAVED_VERSION_INFO
350
61F
  3
ACAD_LAYOUT
350
62
  3
ACAD_MATERIAL
350
10
  3
ACAD_MLEADERSTYLE
350
66
  3
ACAD_MLINESTYLE
350
5F
  3
ACAD_PLOTSETTINGS
350
61
  3
ACAD_PLOTSTYLENAME
350
E
  3
ACAD_SCALELIST
350
42
  3
ACAD_SECTIONVIEWSTYLE
350
68
  3
ACAD_TABLESTYLE
350
64
  3
ACAD_VISUALSTYLE
350
29
  3
ACDB_RECOMPOSE_DATA
350
7B8
  3
AcDbVariableDictionary
350
620
  3
AcDsDecomposeData
350
7C2
  0
DICTIONARY
  5
793
330
2
100
AcDbDictionary
280
     1
281
     1
  3
ACAD_LAYERSTATES
360
794
  0
DICTIONARY
  5
7B4
330
54
100
AcDbDictionary
280
     1
281
     1
  3
ADSK_XREC_LAYER_RECONCILED
360
7B5
  0
DICTIONARY
  5
94
330
93
100
AcDbDictionary
280
     1
281
     1
  3
ADSK_XREC_LAYER_RECONCILED
360
95
  0
DICTIONARY
  5
AE
330
AD
100
AcDbDictionary
280
     1
281
     1
  3
ADSK_XREC_LAYER_RECONCILED
360
AF
  0
DICTIONARY
  5
B2
330
B1
100
AcDbDictionary
280
     1
281
     1
  3
ADSK_XREC_LAYER_RECONCILED
360
B3
  0
DICTIONARY
  5
35F
330
35E
100
AcDbDictionary
280
     1
281
     1
  3
ADSK_XREC_LAYER_RECONCILED
360
360
  0
DICTIONARY
  5
3C2
330
3C1
100
AcDbDictionary
280
     1
281
     1
  3
ADSK_XREC_LAYER_RECONCILED
360
3C3
  0
DICTIONARY
  5
3CA
330
3C9
100
AcDbDictionary
280
     1
281
     1
  3
ADSK_XREC_LAYER_RECONCILED
360
3CB
  0
DICTIONARY
  5
317
330
70
100
AcDbDictionary
280
     1
281
     1
  3
ACAD_SORTENTS
360
5BB
  0
DICTIONARY
  5
7F
330
7E
100
AcDbDictionary
280
     1
281
     1
  3
ACAD_SORTENTS
360
5BA
  0
DICTIONARY
  5
7A7
330
7A6
100
AcDbDictionary
280
     1
281
     1
  3
ASDK_XREC_ANNOTATION_SCALE_INFO
360
7A8
  0
DICTIONARY
  5
7B9
102
{ACAD_REACTORS
330
C
102
}
330
C
100
AcDbDictionary
281
     1
  3
DIMARCSYM
350
7BB
  3
DIMFXL
350
7BA
  3
DIMJOGANG
350
7BC
  0
XRECORD
  5
633
102
{ACAD_REACTORS
330
C
102
}
330
C
100
AcDbXrecord
280
     1
300
ACD
300
2026
300

  0
DICTIONARY
  5
63
102
{ACAD_REACTORS
330
C
102
}
330
C
100
AcDbDictionary
281
     1
  0
DICTIONARY
  5
6A
102
{ACAD_REACTORS
330
C
102
}
330
C
100
AcDbDictionary
281
     1
  3
Imperial24
350
6B
  3
Metric50
350
62D
  0
DICTIONARY
  5
D
102
{ACAD_REACTORS
330
C
102
}
330
C
100
AcDbDictionary
281
     1
  0
XRECORD
  5
61F
102
{ACAD_REACTORS
330
C
102
}
330
C
100
AcDbXrecord
280
     1
300
{00774D25-5F4E-C843-B541-75E4863C0BD9}
301
{42A4A2DE-818C-3649-9F08-09CC6C03EC4C}
302
{00774D25-5F4E-C843-B541-75E4863C0BD9}
303
C:\Users\CKK004820\Desktop\HP掲載図_500㎏容器_A3.dxf
  0
DICTIONARY
  5
62
102
{ACAD_REACTORS
330
C
102
}
330
C
100
AcDbDictionary
281
     1
  3
Model
350
73
  3
レイアウト1
350
6F
  0
DICTIONARY
  5
10
102
{ACAD_REACTORS
330
C
102
}
330
C
100
AcDbDictionary
281
     1
  3
ByBlock
350
19
  3
ByLayer
350
11
  3
Global
350
21
  0
DICTIONARY
  5
66
102
{ACAD_REACTORS
330
C
102
}
330
C
100
AcDbDictionary
281
     1
  3
Standard
350
67
  0
DICTIONARY
  5
5F
102
{ACAD_REACTORS
330
C
102
}
330
C
100
AcDbDictionary
281
     1
  3
Standard
350
60
  0
DICTIONARY
  5
61
102
{ACAD_REACTORS
330
C
102
}
330
C
100
AcDbDictionary
281
     1
  0
ACDBDICTIONARYWDFLT
  5
E
102
{ACAD_REACTORS
330
C
102
}
330
C
100
AcDbDictionary
281
     1
  3
Normal
350
F
  3
Style_1
350
82
100
AcDbDictionaryWithDefault
340
F
  0
DICTIONARY
  5
42
102
{ACAD_REACTORS
330
C
102
}
330
C
100
AcDbDictionary
281
     1
  3
A0
350
43
  3
A1
350
44
  3
A2
350
45
  3
A3
350
46
  3
A4
350
47
  3
A5
350
48
  3
A6
350
49
  3
A7
350
4A
  3
A8
350
4B
  3
A9
350
4C
  3
B0
350
4D
  3
B1
350
4E
  3
B2
350
4F
  3
B3
350
50
  3
B4
350
51
  3
B5
350
52
  3
B6
350
53
  0
DICTIONARY
  5
68
102
{ACAD_REACTORS
330
C
102
}
330
C
100
AcDbDictionary
281
     1
  3
Imperial24
350
69
  3
Metric50
350
62C
  0
DICTIONARY
  5
64
102
{ACAD_REACTORS
330
C
102
}
330
C
100
AcDbDictionary
281
     1
  3
Standard
350
65
  0
DICTIONARY
  5
29
102
{ACAD_REACTORS
330
C
102
}
330
C
100
AcDbDictionary
281
     1
  3
2dWireframe
350
2F
  3
Basic
350
2E
  3
Brighten
350
35
  3
ColorChange
350
39
  3
Conceptual
350
32
  3
Dim
350
34
  3
EdgeColorOff
350
41
  3
Facepattern
350
38
  3
Flat
350
2A
  3
FlatWithEdges
350
2B
  3
Gouraud
350
2C
  3
GouraudWithEdges
350
2D
  3
Hidden
350
31
  3
JitterOff
350
3F
  3
Linepattern
350
37
  3
OverhangOff
350
40
  3
Realistic
350
33
  3
Shaded
350
3E
  3
Shaded with edges
350
3D
  3
Shades of Gray
350
3A
  3
Sketchy
350
3B
  3
Thicken
350
36
  3
Wireframe
350
30
  3
X-Ray
350
3C
  0
XRECORD
  5
7B8
102
{ACAD_REACTORS
330
C
102
}
330
C
100
AcDbXrecord
280
     1
 90
        1
330
65
  0
DICTIONARY
  5
620
102
{ACAD_REACTORS
330
C
102
}
330
C
100
AcDbDictionary
281
     1
  3
ANNOALLVISIBLE
350
626
  3
CANNOSCALE
350
627
  3
CMLEADERSTYLE
350
622
  3
CTABLESTYLE
350
621
  3
CVIEWDETAILSTYLE
350
623
  3
CVIEWSECTIONSTYLE
350
624
  3
LAYEREVAL
350
629
  3
LAYERNOTIFY
350
62A
  3
LIGHTINGUNITS
350
628
  3
MSLTSCALE
350
625
  0
DICTIONARY
  5
7C2
102
{ACAD_REACTORS
330
C
102
}
330
C
100
AcDbDictionary
281
     1
  3
AcDsRecords
350
7C4
  3
AcDsSchemas
350
7C3
1001
ACAD
1070
     2
  0
DICTIONARY
  5
794
102
{ACAD_REACTORS
330
793
102
}
330
793
100
AcDbDictionary
281
     1
  0
XRECORD
  5
7B5
102
{ACAD_REACTORS
330
7B4
102
}
330
7B4
100
AcDbXrecord
280
     1
290
     1
  0
XRECORD
  5
95
102
{ACAD_REACTORS
330
94
102
}
330
94
100
AcDbXrecord
280
     1
290
     1
  0
XRECORD
  5
AF
102
{ACAD_REACTORS
330
AE
102
}
330
AE
100
AcDbXrecord
280
     1
290
     1
  0
XRECORD
  5
B3
102
{ACAD_REACTORS
330
B2
102
}
330
B2
100
AcDbXrecord
280
     1
290
     1
  0
XRECORD
  5
360
102
{ACAD_REACTORS
330
35F
102
}
330
35F
100
AcDbXrecord
280
     1
290
     1
  0
XRECORD
  5
3C3
102
{ACAD_REACTORS
330
3C2
102
}
330
3C2
100
AcDbXrecord
280
     1
290
     1
  0
XRECORD
  5
3CB
102
{ACAD_REACTORS
330
3CA
102
}
330
3CA
100
AcDbXrecord
280
     1
290
     1
  0
SORTENTSTABLE
  5
5BB
102
{ACAD_REACTORS
330
317
102
}
330
317
100
AcDbSortentsTable
330
70
331
319
  5
3D5
331
31A
  5
3D6
331
31B
  5
3D7
331
31C
  5
3D8
331
31D
  5
3D9
331
31E
  5
3DA
331
31F
  5
3DB
331
320
  5
3ED
331
3C7
  5
769
331
3C8
  5
76A
331
3CC
  5
76B
331
3CD
  5
76C
331
3CE
  5
76D
331
3CF
  5
76E
331
3D0
  5
76F
331
3D1
  5
770
331
3D2
  5
771
331
3D3
  5
772
331
3D4
  5
773
331
3E3
  5
782
331
3E8
  5
319
331
3E9
  5
31A
331
3EA
  5
31B
331
3EB
  5
31C
331
3EC
  5
31D
331
3ED
  5
31E
331
3EE
  5
31F
331
3EF
  5
320
331
3F0
  5
321
331
3F1
  5
332
331
3F2
  5
340
331
3F3
  5
34E
331
3F4
  5
35D
331
3F5
  5
36D
331
3F6
  5
37F
331
3F7
  5
38C
331
3F8
  5
399
331
3F9
  5
3A6
331
3FA
  5
3B3
331
3FB
  5
3BE
331
3FC
  5
3BF
331
3FD
  5
3C0
331
3FE
  5
3C4
331
3FF
  5
3C5
331
400
  5
3C6
331
401
  5
3C7
331
402
  5
3C8
331
403
  5
3CC
331
404
  5
3CD
331
407
  5
3D2
331
409
  5
3D3
331
40A
  5
3D4
331
73C
  5
3D0
331
73D
  5
3EE
331
73E
  5
3EF
331
73F
  5
3F0
331
740
  5
3F1
331
741
  5
3F2
331
742
  5
3F3
331
743
  5
3F4
331
744
  5
3F5
331
745
  5
3F6
331
746
  5
3F7
331
747
  5
406
331
748
  5
73C
331
749
  5
73D
331
74A
  5
73E
331
74B
  5
73F
331
74C
  5
740
331
74D
  5
741
331
74E
  5
742
331
74F
  5
743
331
750
  5
744
331
751
  5
745
331
752
  5
746
331
753
  5
747
331
754
  5
748
331
755
  5
749
331
756
  5
74A
331
757
  5
74B
331
758
  5
74C
331
759
  5
74D
331
75A
  5
74E
331
75B
  5
74F
331
75C
  5
750
331
75D
  5
751
331
75E
  5
752
331
75F
  5
753
331
760
  5
754
331
761
  5
755
331
762
  5
756
331
763
  5
757
331
764
  5
758
331
765
  5
759
331
766
  5
75A
331
767
  5
75B
331
768
  5
75C
331
769
  5
75D
331
76A
  5
75E
331
76B
  5
75F
331
76C
  5
760
331
76D
  5
761
331
76E
  5
762
331
76F
  5
763
331
770
  5
764
331
771
  5
765
331
772
  5
766
331
773
  5
767
331
774
  5
768
331
775
  5
774
331
776
  5
775
331
777
  5
776
331
778
  5
777
331
779
  5
778
331
77A
  5
779
331
77B
  5
77A
331
77C
  5
77B
331
77D
  5
77C
331
77E
  5
77D
331
77F
  5
77E
331
780
  5
77F
331
781
  5
780
331
782
  5
781
  0
SORTENTSTABLE
  5
5BA
102
{ACAD_REACTORS
330
7F
102
}
330
7F
100
AcDbSortentsTable
330
7E
  0
XRECORD
  5
7A8
102
{ACAD_REACTORS
330
7A7
102
}
330
7A7
100
AcDbXrecord
280
     1
 90
        1
340
43
  0
XRECORD
  5
7BB
102
{ACAD_REACTORS
330
7B9
102
}
330
7B9
100
AcDbXrecord
280
     1
 70
     1
  0
XRECORD
  5
7BA
102
{ACAD_REACTORS
330
7B9
102
}
330
7B9
100
AcDbXrecord
280
     1
 40
1.25
  0
XRECORD
  5
7BC
102
{ACAD_REACTORS
330
7B9
102
}
330
7B9
100
AcDbXrecord
280
     1
 40
1.570796326794896
  0
ACDBDETAILVIEWSTYLE
  5
6B
102
{ACAD_XDICTIONARY
360
7FE
102
}
102
{ACAD_REACTORS
330
6A
102
}
330
6A
100
AcDbModelDocViewStyle
 70
     0
  3
Imperial24
290
     0
100
AcDbDetailViewStyle
 70
     0
 71
     0
 90
        3
 71
     1
340
55
 62
   256
 40
0.24
340
0
 62
   256
 40
0.24
300

 40
0.36
280
     3
 71
     2
340
5D
 90
       25
 62
   256
 71
     3
340
55
 62
   256
 40
0.24
 90
        1
 40
0.75
 90
        1
300
%<\AcVar ViewType \f "%tc1">% %<\AcVar ViewDetailId>%\PSCALE %<\AcVar ViewScale \f "%sn">%
 71
     4
340
5D
 90
       25
 62
   256
340
5D
 90
       25
 62
   256
280
     0
  0
ACDBDETAILVIEWSTYLE
  5
62D
102
{ACAD_XDICTIONARY
360
804
102
}
102
{ACAD_REACTORS
330
6A
102
}
330
6A
100
AcDbModelDocViewStyle
 70
     0
  3
Metric50
290
     0
100
AcDbDetailViewStyle
 70
     0
 71
     0
 90
        3
 71
     1
340
55
 62
   256
 40
5.0
340
0
 62
   256
 40
5.0
300

 40
0.0
280
     1
 71
     2
340
5D
 90
       25
 62
   256
 71
     3
340
55
 62
   256
 40
5.0
 90
        0
 40
15.0
 90
        1
300
%<\AcVar ViewDetailId>% (%<\AcVar ViewScale \f "%sn">%)
 71
     4
340
5D
 90
       25
 62
   256
340
5D
 90
       25
 62
   256
280
     0
  0
LAYOUT
  5
73
102
{ACAD_REACTORS
330
62
102
}
330
62
100
AcDbPlotSettings
  1

  2
FF W001 for DocuWide 3037
  4
psk:ISOA3
  6

 40
0.0
 41
0.0
 42
0.0
 43
0.0
 44
297.0
 45
420.0
 46
0.0
 47
0.0
 48
0.0
 49
0.0
140
0.0
141
0.0
142
1.0
143
1.159743438768966
 70
 11952
 72
     1
 73
     1
 74
     0
  7
印刷_1.stb
 75
     0
147
0.8622596744858249
 76
     0
 77
     2
 78
   300
148
33.54612238595505
149
1.022044628136853
100
AcDbLayout
  1
Model
 70
     1
 71
     0
 10
0.0
 20
0.0
 11
12.0
 21
9.0
 12
0.0
 22
0.0
 32
0.0
 14
0.0
 24
0.0
 34
0.0
 15
0.0
 25
0.0
 35
0.0
146
0.0
 13
0.0
 23
0.0
 33
0.0
 16
1.0
 26
0.0
 36
0.0
 17
0.0
 27
1.0
 37
0.0
 76
     0
330
70
331
57
1001
ACAD_PSEXT
1000
FF W001 for DocuWide 3037
1000
FF W001 for DocuWide 3037
1000
192.168.5.100:plt00t
1000

1070
     0
  0
LAYOUT
  5
6F
102
{ACAD_REACTORS
330
62
102
}
330
62
100
AcDbPlotSettings
  1

  2
FF W001 for DocuWide 3037
  4
psk:ISOA4
  6

 40
0.0
 41
0.0
 42
0.0
 43
0.0
 44
210.0
 45
297.0
 46
0.0
 47
0.0
 48
0.0
 49
0.0
140
0.0
141
0.0
142
1.0
143
1.0
 70
   688
 72
     1
 73
     1
 74
     5
  7

 75
    16
147
1.0
 76
     0
 77
     2
 78
   300
148
0.0
149
0.0
100
AcDbLayout
  1
レイアウト1
 70
     1
 71
     1
 10
0.0
 20
0.0
 11
297.0
 21
210.0
 12
0.0
 22
0.0
 32
0.0
 14
29.69999999999999
 24
21.0
 34
0.0
 15
267.3
 25
189.0
 35
0.0
146
0.0
 13
0.0
 23
0.0
 33
0.0
 16
1.0
 26
0.0
 36
0.0
 17
0.0
 27
1.0
 37
0.0
 76
     0
330
6C
331
7A6
1001
ACAD_PSEXT
1000
FF W001 for DocuWide 3037
1000
FF W001 for DocuWide 3037
1000
192.168.5.100:plt00t
1000

1070
     0
  0
MATERIAL
  5
19
102
{ACAD_XDICTIONARY
360
1A
102
}
102
{ACAD_REACTORS
330
10
102
}
330
10
100
AcDbMaterial
  1
ByBlock
 72
     0
 43
0.0208333333333333
 43
0.0
 43
0.0
 43
0.0
 43
0.0
 43
0.0208333333333333
 43
0.0
 43
0.0
 43
0.0
 43
0.0
 43
1.0
 43
0.0
 43
0.0
 43
0.0
 43
0.0
 43
1.0
 77
     0
 47
0.0208333333333333
 47
0.0
 47
0.0
 47
0.0
 47
0.0
 47
0.0208333333333333
 47
0.0
 47
0.0
 47
0.0
 47
0.0
 47
1.0
 47
0.0
 47
0.0
 47
0.0
 47
0.0
 47
1.0
171
     0
 49
0.0208333333333333
 49
0.0
 49
0.0
 49
0.0
 49
0.0
 49
0.0208333333333333
 49
0.0
 49
0.0
 49
0.0
 49
0.0
 49
1.0
 49
0.0
 49
0.0
 49
0.0
 49
0.0
 49
1.0
175
     0
142
0.0208333333333333
142
0.0
142
0.0
142
0.0
142
0.0
142
0.0208333333333333
142
0.0
142
0.0
142
0.0
142
0.0
142
1.0
142
0.0
142
0.0
142
0.0
142
0.0
142
1.0
179
     0
144
0.0208333333333333
144
0.0
144
0.0
144
0.0
144
0.0
144
0.0208333333333333
144
0.0
144
0.0
144
0.0
144
0.0
144
1.0
144
0.0
144
0.0
144
0.0
144
0.0
144
1.0
147
0.0208333333333333
147
0.0
147
0.0
147
0.0
147
0.0
147
0.0208333333333333
147
0.0
147
0.0
147
0.0
147
0.0
147
1.0
147
0.0
147
0.0
147
0.0
147
0.0
147
1.0
  0
MATERIAL
  5
11
102
{ACAD_XDICTIONARY
360
12
102
}
102
{ACAD_REACTORS
330
10
102
}
330
10
100
AcDbMaterial
  1
ByLayer
 72
     0
 43
0.0208333333333333
 43
0.0
 43
0.0
 43
0.0
 43
0.0
 43
0.0208333333333333
 43
0.0
 43
0.0
 43
0.0
 43
0.0
 43
1.0
 43
0.0
 43
0.0
 43
0.0
 43
0.0
 43
1.0
 77
     0
 47
0.0208333333333333
 47
0.0
 47
0.0
 47
0.0
 47
0.0
 47
0.0208333333333333
 47
0.0
 47
0.0
 47
0.0
 47
0.0
 47
1.0
 47
0.0
 47
0.0
 47
0.0
 47
0.0
 47
1.0
171
     0
 49
0.0208333333333333
 49
0.0
 49
0.0
 49
0.0
 49
0.0
 49
0.0208333333333333
 49
0.0
 49
0.0
 49
0.0
 49
0.0
 49
1.0
 49
0.0
 49
0.0
 49
0.0
 49
0.0
 49
1.0
175
     0
142
0.0208333333333333
142
0.0
142
0.0
142
0.0
142
0.0
142
0.0208333333333333
142
0.0
142
0.0
142
0.0
142
0.0
142
1.0
142
0.0
142
0.0
142
0.0
142
0.0
142
1.0
179
     0
144
0.0208333333333333
144
0.0
144
0.0
144
0.0
144
0.0
144
0.0208333333333333
144
0.0
144
0.0
144
0.0
144
0.0
144
1.0
144
0.0
144
0.0
144
0.0
144
0.0
144
1.0
147
0.0208333333333333
147
0.0
147
0.0
147
0.0
147
0.0
147
0.0208333333333333
147
0.0
147
0.0
147
0.0
147
0.0
147
1.0
147
0.0
147
0.0
147
0.0
147
0.0
147
1.0
  0
MATERIAL
  5
21
102
{ACAD_XDICTIONARY
360
22
102
}
102
{ACAD_REACTORS
330
10
102
}
330
10
100
AcDbMaterial
  1
Global
 72
     0
 43
0.0208333333333333
 43
0.0
 43
0.0
 43
0.0
 43
0.0
 43
0.0208333333333333
 43
0.0
 43
0.0
 43
0.0
 43
0.0
 43
1.0
 43
0.0
 43
0.0
 43
0.0
 43
0.0
 43
1.0
 77
     0
 47
0.0208333333333333
 47
0.0
 47
0.0
 47
0.0
 47
0.0
 47
0.0208333333333333
 47
0.0
 47
0.0
 47
0.0
 47
0.0
 47
1.0
 47
0.0
 47
0.0
 47
0.0
 47
0.0
 47
1.0
171
     0
 49
0.0208333333333333
 49
0.0
 49
0.0
 49
0.0
 49
0.0
 49
0.0208333333333333
 49
0.0
 49
0.0
 49
0.0
 49
0.0
 49
1.0
 49
0.0
 49
0.0
 49
0.0
 49
0.0
 49
1.0
175
     0
142
0.0208333333333333
142
0.0
142
0.0
142
0.0
142
0.0
142
0.0208333333333333
142
0.0
142
0.0
142
0.0
142
0.0
142
1.0
142
0.0
142
0.0
142
0.0
142
0.0
142
1.0
179
     0
144
0.0208333333333333
144
0.0
144
0.0
144
0.0
144
0.0
144
0.0208333333333333
144
0.0
144
0.0
144
0.0
144
0.0
144
1.0
144
0.0
144
0.0
144
0.0
144
0.0
144
1.0
147
0.0208333333333333
147
0.0
147
0.0
147
0.0
147
0.0
147
0.0208333333333333
147
0.0
147
0.0
147
0.0
147
0.0
147
1.0
147
0.0
147
0.0
147
0.0
147
0.0
147
1.0
  0
MLEADERSTYLE
  5
67
102
{ACAD_XDICTIONARY
360
7FA
102
}
102
{ACAD_REACTORS
330
66
102
}
330
66
100
AcDbMLeaderStyle
170
     2
171
     1
172
     0
 90
        2
 40
0.0
 41
0.0
173
     1
 91
-1056964608
340
5B
 92
       -2
290
     1
 42
0.09
291
     1
 43
0.36
  3
Standard
 44
0.18
300

342
55
174
     1
178
     6
175
     1
176
     0
 93
-1056964608
 45
0.18
292
     0
297
     0
 46
0.18
 94
-1056964608
 47
1.0
 49
1.0
140
1.0
293
     1
141
0.0
294
     1
177
     0
142
1.0
295
     0
296
     0
143
0.125
1001
ACAD_MLEADERVER
1070
     2
  0
MLINESTYLE
  5
60
102
{ACAD_REACTORS
330
5F
102
}
330
5F
100
AcDbMlineStyle
  2
STANDARD
 70
     0
  3

 62
   256
 51
90.0
 52
90.0
 71
     2
 49
0.5
 62
   256
  6
BYLAYER
 49
-0.5
 62
   256
  6
BYLAYER
  0
ACDBPLACEHOLDER
  5
F
102
{ACAD_REACTORS
330
E
102
}
330
E
  0
ACDBPLACEHOLDER
  5
82
102
{ACAD_REACTORS
330
E
102
}
330
E
  0
SCALE
  5
43
102
{ACAD_REACTORS
330
42
102
}
330
42
100
AcDbScale
 70
     0
300
1:1
140
1.0
141
1.0
290
     1
  0
SCALE
  5
44
102
{ACAD_REACTORS
330
42
102
}
330
42
100
AcDbScale
 70
     0
300
1:2
140
1.0
141
2.0
290
     0
  0
SCALE
  5
45
102
{ACAD_REACTORS
330
42
102
}
330
42
100
AcDbScale
 70
     0
300
1:4
140
1.0
141
4.0
290
     0
  0
SCALE
  5
46
102
{ACAD_REACTORS
330
42
102
}
330
42
100
AcDbScale
 70
     0
300
1:5
140
1.0
141
5.0
290
     0
  0
SCALE
  5
47
102
{ACAD_REACTORS
330
42
102
}
330
42
100
AcDbScale
 70
     0
300
1:8
140
1.0
141
8.0
290
     0
  0
SCALE
  5
48
102
{ACAD_REACTORS
330
42
102
}
330
42
100
AcDbScale
 70
     0
300
1:10
140
1.0
141
10.0
290
     0
  0
SCALE
  5
49
102
{ACAD_REACTORS
330
42
102
}
330
42
100
AcDbScale
 70
     0
300
1:16
140
1.0
141
16.0
290
     0
  0
SCALE
  5
4A
102
{ACAD_REACTORS
330
42
102
}
330
42
100
AcDbScale
 70
     0
300
1:20
140
1.0
141
20.0
290
     0
  0
SCALE
  5
4B
102
{ACAD_REACTORS
330
42
102
}
330
42
100
AcDbScale
 70
     0
300
1:30
140
1.0
141
30.0
290
     0
  0
SCALE
  5
4C
102
{ACAD_REACTORS
330
42
102
}
330
42
100
AcDbScale
 70
     0
300
1:40
140
1.0
141
40.0
290
     0
  0
SCALE
  5
4D
102
{ACAD_REACTORS
330
42
102
}
330
42
100
AcDbScale
 70
     0
300
1:50
140
1.0
141
50.0
290
     0
  0
SCALE
  5
4E
102
{ACAD_REACTORS
330
42
102
}
330
42
100
AcDbScale
 70
     0
300
1:100
140
1.0
141
100.0
290
     0
  0
SCALE
  5
4F
102
{ACAD_REACTORS
330
42
102
}
330
42
100
AcDbScale
 70
     0
300
2:1
140
2.0
141
1.0
290
     0
  0
SCALE
  5
50
102
{ACAD_REACTORS
330
42
102
}
330
42
100
AcDbScale
 70
     0
300
4:1
140
4.0
141
1.0
290
     0
  0
SCALE
  5
51
102
{ACAD_REACTORS
330
42
102
}
330
42
100
AcDbScale
 70
     0
300
8:1
140
8.0
141
1.0
290
     0
  0
SCALE
  5
52
102
{ACAD_REACTORS
330
42
102
}
330
42
100
AcDbScale
 70
     0
300
10:1
140
10.0
141
1.0
290
     0
  0
SCALE
  5
53
102
{ACAD_REACTORS
330
42
102
}
330
42
100
AcDbScale
 70
     0
300
100:1
140
100.0
141
1.0
290
     0
  0
ACDBSECTIONVIEWSTYLE
  5
69
102
{ACAD_XDICTIONARY
360
7FC
102
}
102
{ACAD_REACTORS
330
68
102
}
330
68
100
AcDbModelDocViewStyle
 70
     0
  3
Imperial24
290
     0
100
AcDbSectionViewStyle
 70
     0
 71
     0
 90
       78
 71
     1
340
55
 62
   256
 40
0.24
340
0
340
0
 62
   256
 40
0.24
300
I, O, Q, S, X, Z
 40
0.48
 90
        3
 40
0.18
 90
        1
 71
     2
340
5D
 90
       25
 62
   256
340
5D
 90
       50
 62
   256
 40
0.24
 40
0.0
 40
0.24
 71
     3
340
55
 62
   256
 40
0.24
 90
        1
 40
0.75
 90
        1
300
%<\AcVar ViewType \f "%tc1">% %<\AcVar ViewSectionStartId>%-%<\AcVar ViewSectionEndId>%\PSCALE %<\AcVar ViewScale \f "%sn">%
 71
     4
 62
   256
 62
   257
300
ANSI31
 40
1.0
 90
        0
290
     0
290
     0
 90
        6
 40
0.0
 40
1.570796326794896
 40
0.2617993877991494
 40
1.308996938995747
 40
-0.2617993877991494
 40
1.832595714594046
  0
ACDBSECTIONVIEWSTYLE
  5
62C
102
{ACAD_XDICTIONARY
360
802
102
}
102
{ACAD_REACTORS
330
68
102
}
330
68
100
AcDbModelDocViewStyle
 70
     0
  3
Metric50
290
     0
100
AcDbSectionViewStyle
 70
     0
 71
     0
 90
      102
 71
     1
340
55
 62
   256
 40
5.0
340
0
340
0
 62
   256
 40
5.0
300
I, O, Q, S, X, Z
 40
10.0
 90
        0
 40
2.5
 90
        0
 71
     2
340
5D
 90
       25
 62
   256
340
5D
 90
       50
 62
   256
 40
5.0
 40
2.5
 40
5.0
 71
     3
340
55
 62
   256
 40
5.0
 90
        0
 40
15.0
 90
        1
300
%<\AcVar ViewSectionStartId>%-%<\AcVar ViewSectionEndId>% (%<\AcVar ViewScale \f "%sn">%)
 71
     4
 62
   256
 62
   257
300
ANSI31
 40
1.0
 90
        0
290
     0
290
     0
 90
        6
 40
0.0
 40
1.570796326794896
 40
0.2617993877991494
 40
1.308996938995747
 40
-0.2617993877991494
 40
1.832595714594046
  0
TABLESTYLE
  5
65
102
{ACAD_XDICTIONARY
360
7B6
102
}
102
{ACAD_REACTORS
330
64
102
}
330
64
100
AcDbTableStyle
  3
Standard
 70
     0
 71
     3
 40
1.5
 41
1.5
280
     0
281
     0
  7
Standard
140
4.5
170
     2
 62
     0
 63
     7
283
     0
274
    -2
284
     1
 64
     0
275
    -2
285
     1
 65
     0
276
    -2
286
     1
 66
     0
277
    -2
287
     1
 67
     0
278
    -2
288
     1
 68
     0
279
    -2
289
     1
 69
     0
  7
Standard
140
6.0
170
     5
 62
     0
 63
     7
283
     0
274
    -2
284
     1
 64
     0
275
    -2
285
     1
 65
     0
276
    -2
286
     1
 66
     0
277
    -2
287
     1
 67
     0
278
    -2
288
     1
 68
     0
279
    -2
289
     1
 69
     0
  7
Standard
140
4.5
170
     5
 62
     0
 63
     7
283
     0
274
    -2
284
     1
 64
     0
275
    -2
285
     1
 65
     0
276
    -2
286
     1
 66
     0
277
    -2
287
     1
 67
     0
278
    -2
288
     1
 68
     0
279
    -2
289
     1
 69
     0
  0
VISUALSTYLE
  5
2F
102
{ACAD_XDICTIONARY
360
7D2
102
}
102
{ACAD_REACTORS
330
29
102
}
330
29
100
AcDbVisualStyle
  2
2dWireframe
 70
     4
 71
     0
 72
     2
 73
     0
 90
        0
 40
-0.6
 41
-30.0
 62
     5
 63
     7
421
 16777215
 74
     1
 91
        4
 64
     7
 65
   257
 75
     1
175
     1
 42
1.0
 92
        0
 66
   257
 43
1.0
 76
     1
 77
     6
 78
     2
 67
     7
 79
     5
170
     0
171
     0
290
     0
174
     0
 93
        1
 44
0.0
173
     0
291
     0
 45
0.0
1001
ACAD
1000
AcDbSavedByObjectVersion
1070
     0
  0
VISUALSTYLE
  5
2E
102
{ACAD_XDICTIONARY
360
7D0
102
}
102
{ACAD_REACTORS
330
29
102
}
330
29
100
AcDbVisualStyle
  2
Basic
 70
     7
 71
     1
 72
     0
 73
     1
 90
        0
 40
-0.6
 41
-30.0
 62
     5
 63
     7
421
 16777215
 74
     0
 91
        4
 64
     7
 65
   257
 75
     1
175
     1
 42
1.0
 92
        8
 66
     7
 43
1.0
 76
     1
 77
     6
 78
     2
 67
     7
 79
     5
170
     0
171
     0
290
     0
174
     0
 93
        1
 44
0.0
173
     0
291
     1
 45
0.0
1001
ACAD
1000
AcDbSavedByObjectVersion
1070
     0
  0
VISUALSTYLE
  5
35
102
{ACAD_XDICTIONARY
360
7DE
102
}
102
{ACAD_REACTORS
330
29
102
}
330
29
100
AcDbVisualStyle
  2
Brighten
 70
    12
 71
     2
 72
     2
 73
     0
 90
        0
 40
-0.6
 41
-30.0
 62
     5
 63
     7
421
 16777215
 74
     1
 91
        4
 64
     7
 65
   257
 75
     1
175
     1
 42
1.0
 92
        8
 66
     7
 43
1.0
 76
     1
 77
     6
 78
     2
 67
     7
 79
     5
170
     0
171
     0
290
     0
174
     0
 93
        1
 44
50.0
173
     0
291
     1
 45
0.0
1001
ACAD
1000
AcDbSavedByObjectVersion
1070
     0
  0
VISUALSTYLE
  5
39
102
{ACAD_XDICTIONARY
360
7E6
102
}
102
{ACAD_REACTORS
330
29
102
}
330
29
100
AcDbVisualStyle
  2
ColorChange
 70
    16
 71
     2
 72
     2
 73
     3
 90
        0
 40
-0.6
 41
-30.0
 62
     5
 63
     8
421
  8421504
 74
     1
 91
        4
 64
     7
 65
   257
 75
     1
175
     1
 42
1.0
 92
        8
 66
     8
424
  8421504
 43
1.0
 76
     1
 77
     6
 78
     2
 67
     7
 79
     5
170
     0
171
     0
290
     0
174
     0
 93
        1
 44
0.0
173
     0
291
     1
 45
0.0
1001
ACAD
1000
AcDbSavedByObjectVersion
1070
     0
  0
VISUALSTYLE
  5
32
102
{ACAD_XDICTIONARY
360
7D8
102
}
102
{ACAD_REACTORS
330
29
102
}
330
29
100
AcDbVisualStyle
  2
Conceptual
 70
     9
 71
     3
 72
     2
 73
     0
 90
        0
 40
-0.6
 41
-30.0
 62
     5
 63
     7
421
 16777215
 74
     2
 91
        2
 64
     7
 65
   257
 75
     1
175
     1
 42
179.0
 92
        8
 66
     7
 43
1.0
 76
     1
 77
     6
 78
     2
 67
     7
 79
     3
170
     0
171
     0
290
     0
174
     0
 93
        1
 44
0.0
173
     0
291
     0
 45
0.0
1001
ACAD
1000
AcDbSavedByObjectVersion
1070
     0
  0
VISUALSTYLE
  5
34
102
{ACAD_XDICTIONARY
360
7DC
102
}
102
{ACAD_REACTORS
330
29
102
}
330
29
100
AcDbVisualStyle
  2
Dim
 70
    11
 71
     2
 72
     2
 73
     0
 90
        0
 40
-0.6
 41
-30.0
 62
     5
 63
     7
421
 16777215
 74
     1
 91
        4
 64
     7
 65
   257
 75
     1
175
     1
 42
1.0
 92
        8
 66
     7
 43
1.0
 76
     1
 77
     6
 78
     2
 67
     7
 79
     5
170
     0
171
     0
290
     0
174
     0
 93
        1
 44
-50.0
173
     0
291
     1
 45
0.0
1001
ACAD
1000
AcDbSavedByObjectVersion
1070
     0
  0
VISUALSTYLE
  5
41
102
{ACAD_XDICTIONARY
360
7F6
102
}
102
{ACAD_REACTORS
330
29
102
}
330
29
100
AcDbVisualStyle
  2
EdgeColorOff
 70
    22
 71
     2
 72
     2
 73
     0
 90
        0
 40
-0.6
 41
-30.0
 62
     5
 63
     7
421
 16777215
 74
     1
 91
        4
 64
     7
 65
   257
 75
     1
175
     1
 42
1.0
 92
        8
 66
     7
 43
1.0
 76
     1
 77
     6
 78
     2
 67
     7
 79
     5
170
     0
171
     0
290
     0
174
     0
 93
        1
 44
0.0
173
     0
291
     1
 45
0.0
1001
ACAD
1000
AcDbSavedByObjectVersion
1070
     0
  0
VISUALSTYLE
  5
38
102
{ACAD_XDICTIONARY
360
7E4
102
}
102
{ACAD_REACTORS
330
29
102
}
330
29
100
AcDbVisualStyle
  2
Facepattern
 70
    15
 71
     2
 72
     2
 73
     0
 90
        0
 40
-0.6
 41
-30.0
 62
     5
 63
     7
421
 16777215
 74
     1
 91
        4
 64
     7
 65
   257
 75
     1
175
     1
 42
1.0
 92
        8
 66
     7
 43
1.0
 76
     1
 77
     6
 78
     2
 67
     7
 79
     5
170
     0
171
     0
290
     0
174
     0
 93
        1
 44
0.0
173
     0
291
     1
 45
0.0
1001
ACAD
1000
AcDbSavedByObjectVersion
1070
     0
  0
VISUALSTYLE
  5
2A
102
{ACAD_XDICTIONARY
360
7C8
102
}
102
{ACAD_REACTORS
330
29
102
}
330
29
100
AcDbVisualStyle
  2
Flat
 70
     0
 71
     2
 72
     1
 73
     1
 90
        2
 40
-0.6
 41
30.0
 62
     5
 63
     7
421
 16777215
 74
     0
 91
        0
 64
     7
 65
   257
 75
     1
175
     1
 42
1.0
 92
        8
 66
     7
 43
1.0
 76
     1
 77
     6
 78
     2
 67
     7
 79
     5
170
     0
171
     0
290
     0
174
     0
 93
       13
 44
0.0
173
     0
291
     1
 45
0.0
1001
ACAD
1000
AcDbSavedByObjectVersion
1070
     0
  0
VISUALSTYLE
  5
2B
102
{ACAD_XDICTIONARY
360
7CA
102
}
102
{ACAD_REACTORS
330
29
102
}
330
29
100
AcDbVisualStyle
  2
FlatWithEdges
 70
     1
 71
     2
 72
     1
 73
     1
 90
        2
 40
-0.6
 41
30.0
 62
     5
 63
     7
421
 16777215
 74
     1
 91
        0
 64
     7
 65
   257
 75
     1
175
     1
 42
1.0
 92
        0
 66
   257
 43
1.0
 76
     1
 77
     6
 78
     2
 67
     7
 79
     5
170
     0
171
     0
290
     0
174
     0
 93
       13
 44
0.0
173
     0
291
     1
 45
0.0
1001
ACAD
1000
AcDbSavedByObjectVersion
1070
     0
  0
VISUALSTYLE
  5
2C
102
{ACAD_XDICTIONARY
360
7CC
102
}
102
{ACAD_REACTORS
330
29
102
}
330
29
100
AcDbVisualStyle
  2
Gouraud
 70
     2
 71
     2
 72
     2
 73
     1
 90
        2
 40
-0.6
 41
30.0
 62
     5
 63
     7
421
 16777215
 74
     0
 91
        0
 64
     7
 65
   257
 75
     1
175
     1
 42
1.0
 92
        0
 66
     7
 43
1.0
 76
     1
 77
     6
 78
     2
 67
     7
 79
     5
170
     0
171
     0
290
     0
174
     0
 93
       13
 44
0.0
173
     0
291
     1
 45
0.0
1001
ACAD
1000
AcDbSavedByObjectVersion
1070
     0
  0
VISUALSTYLE
  5
2D
102
{ACAD_XDICTIONARY
360
7CE
102
}
102
{ACAD_REACTORS
330
29
102
}
330
29
100
AcDbVisualStyle
  2
GouraudWithEdges
 70
     3
 71
     2
 72
     2
 73
     1
 90
        2
 40
-0.6
 41
30.0
 62
     5
 63
     7
421
 16777215
 74
     1
 91
        0
 64
     7
 65
   257
 75
     1
175
     1
 42
1.0
 92
        0
 66
   257
 43
1.0
 76
     1
 77
     6
 78
     2
 67
     7
 79
     5
170
     0
171
     0
290
     0
174
     0
 93
       13
 44
0.0
173
     0
291
     1
 45
0.0
1001
ACAD
1000
AcDbSavedByObjectVersion
1070
     0
  0
VISUALSTYLE
  5
31
102
{ACAD_XDICTIONARY
360
7D6
102
}
102
{ACAD_REACTORS
330
29
102
}
330
29
100
AcDbVisualStyle
  2
Hidden
 70
     6
 71
     1
 72
     2
 73
     2
 90
        0
 40
-0.6
 41
-30.0
 62
     5
 63
     7
421
 16777215
 74
     2
 91
        2
 64
     7
 65
   257
 75
     2
175
     1
 42
40.0
 92
        0
 66
   257
 43
1.0
 76
     1
 77
     6
 78
     2
 67
     7
 79
     3
170
     0
171
     0
290
     0
174
     0
 93
        1
 44
0.0
173
     0
291
     0
 45
0.0
1001
ACAD
1000
AcDbSavedByObjectVersion
1070
     0
  0
VISUALSTYLE
  5
3F
102
{ACAD_XDICTIONARY
360
7F2
102
}
102
{ACAD_REACTORS
330
29
102
}
330
29
100
AcDbVisualStyle
  2
JitterOff
 70
    20
 71
     2
 72
     2
 73
     0
 90
        0
 40
-0.6
 41
-30.0
 62
     5
 63
     7
421
 16777215
 74
     1
 91
        4
 64
     7
 65
   257
 75
     1
175
     1
 42
1.0
 92
       10
 66
     7
 43
1.0
 76
     1
 77
     6
 78
     2
 67
     7
 79
     5
170
     0
171
     0
290
     0
174
     0
 93
        1
 44
0.0
173
     0
291
     1
 45
0.0
1001
ACAD
1000
AcDbSavedByObjectVersion
1070
     0
  0
VISUALSTYLE
  5
37
102
{ACAD_XDICTIONARY
360
7E2
102
}
102
{ACAD_REACTORS
330
29
102
}
330
29
100
AcDbVisualStyle
  2
Linepattern
 70
    14
 71
     2
 72
     2
 73
     0
 90
        0
 40
-0.6
 41
-30.0
 62
     5
 63
     7
421
 16777215
 74
     1
 91
        4
 64
     7
 65
   257
 75
     7
175
     7
 42
1.0
 92
        8
 66
     7
 43
1.0
 76
     1
 77
     6
 78
     2
 67
     7
 79
     5
170
     0
171
     0
290
     0
174
     0
 93
        1
 44
0.0
173
     0
291
     1
 45
0.0
1001
ACAD
1000
AcDbSavedByObjectVersion
1070
     0
  0
VISUALSTYLE
  5
40
102
{ACAD_XDICTIONARY
360
7F4
102
}
102
{ACAD_REACTORS
330
29
102
}
330
29
100
AcDbVisualStyle
  2
OverhangOff
 70
    21
 71
     2
 72
     2
 73
     0
 90
        0
 40
-0.6
 41
-30.0
 62
     5
 63
     7
421
 16777215
 74
     1
 91
        4
 64
     7
 65
   257
 75
     1
175
     1
 42
1.0
 92
        9
 66
     7
 43
1.0
 76
     1
 77
     6
 78
     2
 67
     7
 79
     5
170
     0
171
     0
290
     0
174
     0
 93
        1
 44
0.0
173
     0
291
     1
 45
0.0
1001
ACAD
1000
AcDbSavedByObjectVersion
1070
     0
  0
VISUALSTYLE
  5
33
102
{ACAD_XDICTIONARY
360
7DA
102
}
102
{ACAD_REACTORS
330
29
102
}
330
29
100
AcDbVisualStyle
  2
Realistic
 70
     8
 71
     2
 72
     3
 73
     0
 90
        2
 40
-0.6
 41
30.0
 62
     5
 63
     7
421
 16777215
 74
     0
 91
        0
 64
     7
 65
   257
 75
     1
175
     1
 42
1.0
 92
        8
 66
   257
 43
1.0
 76
     1
 77
     6
 78
     2
 67
     7
 79
     3
170
     0
171
     0
290
     0
174
     0
 93
       13
 44
0.0
173
     0
291
     0
 45
0.0
1001
ACAD
1000
AcDbSavedByObjectVersion
1070
     0
  0
VISUALSTYLE
  5
3E
102
{ACAD_XDICTIONARY
360
7F0
102
}
102
{ACAD_REACTORS
330
29
102
}
330
29
100
AcDbVisualStyle
  2
Shaded
 70
    27
 71
     2
 72
     2
 73
     1
 90
        2
 40
-0.6
 41
30.0
 62
     5
 63
     7
421
 16777215
 74
     0
 91
        4
 64
     7
 65
   257
 75
     1
175
     1
 42
1.0
 92
        8
 66
   257
 43
1.0
 76
     1
 77
     6
 78
     2
 67
     8
425
  7895160
 79
     3
170
     0
171
     0
290
     0
174
     0
 93
        5
 44
0.0
173
     0
291
     0
 45
0.0
1001
ACAD
1000
AcDbSavedByObjectVersion
1070
     0
  0
VISUALSTYLE
  5
3D
102
{ACAD_XDICTIONARY
360
7EE
102
}
102
{ACAD_REACTORS
330
29
102
}
330
29
100
AcDbVisualStyle
  2
Shaded with edges
 70
    26
 71
     2
 72
     2
 73
     1
 90
        2
 40
-0.6
 41
30.0
 62
     5
 63
     7
421
 16777215
 74
     1
 91
        2
 64
     7
 65
   257
 75
     2
175
     1
 42
1.0
 92
        8
 66
   257
 43
1.0
 76
     1
 77
     6
 78
     2
 67
     7
 79
     3
170
     0
171
     0
290
     0
174
     0
 93
        5
 44
0.0
173
     0
291
     0
 45
0.0
1001
ACAD
1000
AcDbSavedByObjectVersion
1070
     0
  0
VISUALSTYLE
  5
3A
102
{ACAD_XDICTIONARY
360
7E8
102
}
102
{ACAD_REACTORS
330
29
102
}
330
29
100
AcDbVisualStyle
  2
Shades of Gray
 70
    23
 71
     2
 72
     2
 73
     3
 90
        0
 40
-0.6
 41
-30.0
 62
     5
 63
     7
421
 16777215
 74
     2
 91
        2
 64
     7
 65
     7
 75
     1
175
     1
 42
40.0
 92
        8
 66
     7
 43
1.0
 76
     1
 77
     6
 78
     2
 67
     7
 79
     3
170
     0
171
     0
290
     0
174
     0
 93
        1
 44
0.0
173
     0
291
     0
 45
0.0
1001
ACAD
1000
AcDbSavedByObjectVersion
1070
     0
  0
VISUALSTYLE
  5
3B
102
{ACAD_XDICTIONARY
360
7EA
102
}
102
{ACAD_REACTORS
330
29
102
}
330
29
100
AcDbVisualStyle
  2
Sketchy
 70
    24
 71
     1
 72
     2
 73
     2
 90
        0
 40
-0.6
 41
-30.0
 62
     5
 63
     7
421
 16777215
 74
     2
 91
        2
 64
     7
 65
     7
 75
     1
175
     1
 42
40.0
 92
       11
 66
     7
 43
1.0
 76
     1
 77
     6
 78
     2
 67
     7
 79
     6
170
     0
171
     0
290
     0
174
     0
 93
        1
 44
0.0
173
     0
291
     0
 45
0.0
1001
ACAD
1000
AcDbSavedByObjectVersion
1070
     0
  0
VISUALSTYLE
  5
36
102
{ACAD_XDICTIONARY
360
7E0
102
}
102
{ACAD_REACTORS
330
29
102
}
330
29
100
AcDbVisualStyle
  2
Thicken
 70
    13
 71
     2
 72
     2
 73
     0
 90
        0
 40
-0.6
 41
-30.0
 62
     5
 63
     7
421
 16777215
 74
     1
 91
        4
 64
     7
 65
   257
 75
     1
175
     1
 42
1.0
 92
       12
 66
     7
 43
1.0
 76
     1
 77
     6
 78
     2
 67
     7
 79
     5
170
     0
171
     0
290
     0
174
     0
 93
        1
 44
0.0
173
     0
291
     1
 45
0.0
1001
ACAD
1000
AcDbSavedByObjectVersion
1070
     0
  0
VISUALSTYLE
  5
30
102
{ACAD_XDICTIONARY
360
7D4
102
}
102
{ACAD_REACTORS
330
29
102
}
330
29
100
AcDbVisualStyle
  2
Wireframe
 70
     5
 71
     0
 72
     2
 73
     0
 90
        0
 40
-0.6
 41
-30.0
 62
     5
 63
     7
421
 16777215
 74
     1
 91
        4
 64
     7
 65
   257
 75
     1
175
     1
 42
1.0
 92
        0
 66
   257
 43
1.0
 76
     1
 77
     6
 78
     2
 67
     7
 79
     3
170
     0
171
     0
290
     0
174
     0
 93
        1
 44
0.0
173
     0
291
     0
 45
0.0
1001
ACAD
1000
AcDbSavedByObjectVersion
1070
     0
  0
VISUALSTYLE
  5
3C
102
{ACAD_XDICTIONARY
360
7EC
102
}
102
{ACAD_REACTORS
330
29
102
}
330
29
100
AcDbVisualStyle
  2
X-Ray
 70
    25
 71
     2
 72
     2
 73
     1
 90
        1
 40
0.5
 41
-30.0
 62
     5
 63
     7
421
 16777215
 74
     1
 91
        0
 64
     7
 65
   257
 75
     1
175
     1
 42
1.0
 92
        8
 66
     7
 43
1.0
 76
     1
 77
     6
 78
     2
 67
     7
 79
     3
170
     0
171
     0
290
     0
174
     0
 93
       13
 44
0.0
173
     0
291
     0
 45
0.0
1001
ACAD
1000
AcDbSavedByObjectVersion
1070
     0
  0
DICTIONARYVAR
  5
626
102
{ACAD_REACTORS
330
620
102
}
330
620
100
DictionaryVariables
280
     0
  1
0
  0
DICTIONARYVAR
  5
627
102
{ACAD_REACTORS
330
620
102
}
330
620
100
DictionaryVariables
280
     0
  1
1:1
  0
DICTIONARYVAR
  5
622
102
{ACAD_REACTORS
330
620
102
}
330
620
100
DictionaryVariables
280
     0
  1
STANDARD
  0
DICTIONARYVAR
  5
621
102
{ACAD_REACTORS
330
620
102
}
330
620
100
DictionaryVariables
280
     0
  1
STANDARD
  0
DICTIONARYVAR
  5
623
102
{ACAD_REACTORS
330
620
102
}
330
620
100
DictionaryVariables
280
     0
  1
Imperial24
  0
DICTIONARYVAR
  5
624
102
{ACAD_REACTORS
330
620
102
}
330
620
100
DictionaryVariables
280
     0
  1
Imperial24
  0
DICTIONARYVAR
  5
629
102
{ACAD_REACTORS
330
620
102
}
330
620
100
DictionaryVariables
280
     0
  1
1
  0
DICTIONARYVAR
  5
62A
102
{ACAD_REACTORS
330
620
102
}
330
620
100
DictionaryVariables
280
     0
  1
15
  0
DICTIONARYVAR
  5
628
102
{ACAD_REACTORS
330
620
102
}
330
620
100
DictionaryVariables
280
     0
  1
0
  0
DICTIONARYVAR
  5
625
102
{ACAD_REACTORS
330
620
102
}
330
620
100
DictionaryVariables
280
     0
  1
0
  0
DICTIONARY
  5
7C4
102
{ACAD_REACTORS
330
7C2
102
}
330
7C2
100
AcDbDictionary
281
     1
  0
DICTIONARY
  5
7C3
102
{ACAD_REACTORS
330
7C2
102
}
330
7C2
100
AcDbDictionary
281
     1
  3
3392636637008
350
7BD
  3
3392636637024
350
7BE
  3
3392636637040
350
7BF
  3
3392636647424
350
7C0
  3
3392636647440
350
7C1
  0
DICTIONARY
  5
7FE
330
6B
100
AcDbDictionary
280
     1
281
     1
  3
ACAD_XREC_ROUNDTRIP
360
7FF
  0
DICTIONARY
  5
804
330
62D
100
AcDbDictionary
280
     1
281
     1
  3
ACAD_XREC_ROUNDTRIP
360
805
  0
DICTIONARY
  5
1A
330
19
100
AcDbDictionary
280
     1
281
     1
  3
ACAD_XREC_ROUNDTRIP
360
7C6
  3
BUMPTILE
360
1C
  3
DIFFUSETILE
360
1B
  3
OPACITYTILE
360
1F
  3
REFLECTIONTILE
360
1E
  3
REFRACTIONTILE
360
20
  3
SPECULARTILE
360
1D
  0
DICTIONARY
  5
12
330
11
100
AcDbDictionary
280
     1
281
     1
  3
ACAD_XREC_ROUNDTRIP
360
7C5
  3
BUMPTILE
360
14
  3
DIFFUSETILE
360
13
  3
OPACITYTILE
360
17
  3
REFLECTIONTILE
360
16
  3
REFRACTIONTILE
360
18
  3
SPECULARTILE
360
15
  0
DICTIONARY
  5
22
330
21
100
AcDbDictionary
280
     1
281
     1
  3
ACAD_XREC_ROUNDTRIP
360
7C7
  3
BUMPTILE
360
24
  3
DIFFUSETILE
360
23
  3
OPACITYTILE
360
27
  3
REFLECTIONTILE
360
26
  3
REFRACTIONTILE
360
28
  3
SPECULARTILE
360
25
  0
DICTIONARY
  5
7FA
330
67
100
AcDbDictionary
280
     1
281
     1
  3
ACAD_XREC_ROUNDTRIP
360
7FB
  0
DICTIONARY
  5
7FC
330
69
100
AcDbDictionary
280
     1
281
     1
  3
ACAD_XREC_ROUNDTRIP
360
7FD
  0
DICTIONARY
  5
802
330
62C
100
AcDbDictionary
280
     1
281
     1
  3
ACAD_XREC_ROUNDTRIP
360
803
  0
DICTIONARY
  5
7B6
330
65
100
AcDbDictionary
280
     1
281
     1
  3
ACAD_ROUNDTRIP_2008_TABLESTYLE_CELLSTYLEMAP
360
7B7
  3
ACAD_XREC_ROUNDTRIP
360
7F8
  0
DICTIONARY
  5
7D2
330
2F
100
AcDbDictionary
280
     1
281
     1
  3
ACAD_XREC_ROUNDTRIP
360
7D3
  0
DICTIONARY
  5
7D0
330
2E
100
AcDbDictionary
280
     1
281
     1
  3
ACAD_XREC_ROUNDTRIP
360
7D1
  0
DICTIONARY
  5
7DE
330
35
100
AcDbDictionary
280
     1
281
     1
  3
ACAD_XREC_ROUNDTRIP
360
7DF
  0
DICTIONARY
  5
7E6
330
39
100
AcDbDictionary
280
     1
281
     1
  3
ACAD_XREC_ROUNDTRIP
360
7E7
  0
DICTIONARY
  5
7D8
330
32
100
AcDbDictionary
280
     1
281
     1
  3
ACAD_XREC_ROUNDTRIP
360
7D9
  0
DICTIONARY
  5
7DC
330
34
100
AcDbDictionary
280
     1
281
     1
  3
ACAD_XREC_ROUNDTRIP
360
7DD
  0
DICTIONARY
  5
7F6
330
41
100
AcDbDictionary
280
     1
281
     1
  3
ACAD_XREC_ROUNDTRIP
360
7F7
  0
DICTIONARY
  5
7E4
330
38
100
AcDbDictionary
280
     1
281
     1
  3
ACAD_XREC_ROUNDTRIP
360
7E5
  0
DICTIONARY
  5
7C8
330
2A
100
AcDbDictionary
280
     1
281
     1
  3
ACAD_XREC_ROUNDTRIP
360
7C9
  0
DICTIONARY
  5
7CA
330
2B
100
AcDbDictionary
280
     1
281
     1
  3
ACAD_XREC_ROUNDTRIP
360
7CB
  0
DICTIONARY
  5
7CC
330
2C
100
AcDbDictionary
280
     1
281
     1
  3
ACAD_XREC_ROUNDTRIP
360
7CD
  0
DICTIONARY
  5
7CE
330
2D
100
AcDbDictionary
280
     1
281
     1
  3
ACAD_XREC_ROUNDTRIP
360
7CF
  0
DICTIONARY
  5
7D6
330
31
100
AcDbDictionary
280
     1
281
     1
  3
ACAD_XREC_ROUNDTRIP
360
7D7
  0
DICTIONARY
  5
7F2
330
3F
100
AcDbDictionary
280
     1
281
     1
  3
ACAD_XREC_ROUNDTRIP
360
7F3
  0
DICTIONARY
  5
7E2
330
37
100
AcDbDictionary
280
     1
281
     1
  3
ACAD_XREC_ROUNDTRIP
360
7E3
  0
DICTIONARY
  5
7F4
330
40
100
AcDbDictionary
280
     1
281
     1
  3
ACAD_XREC_ROUNDTRIP
360
7F5
  0
DICTIONARY
  5
7DA
330
33
100
AcDbDictionary
280
     1
281
     1
  3
ACAD_XREC_ROUNDTRIP
360
7DB
  0
DICTIONARY
  5
7F0
330
3E
100
AcDbDictionary
280
     1
281
     1
  3
ACAD_XREC_ROUNDTRIP
360
7F1
  0
DICTIONARY
  5
7EE
330
3D
100
AcDbDictionary
280
     1
281
     1
  3
ACAD_XREC_ROUNDTRIP
360
7EF
  0
DICTIONARY
  5
7E8
330
3A
100
AcDbDictionary
280
     1
281
     1
  3
ACAD_XREC_ROUNDTRIP
360
7E9
  0
DICTIONARY
  5
7EA
330
3B
100
AcDbDictionary
280
     1
281
     1
  3
ACAD_XREC_ROUNDTRIP
360
7EB
  0
DICTIONARY
  5
7E0
330
36
100
AcDbDictionary
280
     1
281
     1
  3
ACAD_XREC_ROUNDTRIP
360
7E1
  0
DICTIONARY
  5
7D4
330
30
100
AcDbDictionary
280
     1
281
     1
  3
ACAD_XREC_ROUNDTRIP
360
7D5
  0
DICTIONARY
  5
7EC
330
3C
100
AcDbDictionary
280
     1
281
     1
  3
ACAD_XREC_ROUNDTRIP
360
7ED
  0
XRECORD
  5
7BD
102
{ACAD_REACTORS
330
7C3
102
}
330
7C3
100
AcDbXrecord
280
     1
  1
AcDb_Thumbnail_Schema
102
{ATTRRECORD
341
7BE
  2
AcDbDs::TreatedAsObjectData
280
     1
291
     1
102
ATTRRECORD}
102
{ATTRRECORD
341
7BF
  2
AcDbDs::Legacy
280
     1
291
     1
102
ATTRRECORD}
  2
AcDbDs::ID
280
    10
 91
        8
102
{ATTRRECORD
341
7C0
  2
AcDs:Indexable
280
     1
291
     1
102
ATTRRECORD}
102
{ATTRRECORD
341
7C1
  2
AcDbDs::HandleAttribute
280
     7
282
     1
102
ATTRRECORD}
  2
Thumbnail_Data
280
    15
 91
        0
  0
XRECORD
  5
7BE
102
{ACAD_REACTORS
330
7C3
102
}
330
7C3
100
AcDbXrecord
280
     1
  1
AcDbDs::TreatedAsObjectDataSchema
  2
AcDbDs::TreatedAsObjectData
280
     1
 91
        0
  0
XRECORD
  5
7BF
102
{ACAD_REACTORS
330
7C3
102
}
330
7C3
100
AcDbXrecord
280
     1
  1
AcDbDs::LegacySchema
  2
AcDbDs::Legacy
280
     1
 91
        0
  0
XRECORD
  5
7C0
102
{ACAD_REACTORS
330
7C3
102
}
330
7C3
100
AcDbXrecord
280
     1
  1
AcDbDs::IndexedPropertySchema
  2
AcDs:Indexable
280
     1
 91
        0
  0
XRECORD
  5
7C1
102
{ACAD_REACTORS
330
7C3
102
}
330
7C3
100
AcDbXrecord
280
     1
  1
AcDbDs::HandleAttributeSchema
  2
AcDbDs::HandleAttribute
280
     7
 91
        1
284
     1
  0
XRECORD
  5
7FF
102
{ACAD_REACTORS
330
7FE
102
}
330
7FE
100
AcDbXrecord
280
     1
102
DISPLAYNAME
  1
Imperial24
102
FLAGS
 90
        0
  0
XRECORD
  5
805
102
{ACAD_REACTORS
330
804
102
}
330
804
100
AcDbXrecord
280
     1
102
DISPLAYNAME
  1
Metric50
102
FLAGS
 90
        0
  0
XRECORD
  5
7C6
102
{ACAD_REACTORS
330
1A
102
}
330
1A
100
AcDbXrecord
280
     1
102
MATERIAL
148
0.0
149
0.0
149
0.0
 93
        0
 94
      127
282
     0
 72
     0
 77
     0
171
     0
175
     0
179
     0
273
     0
  0
XRECORD
  5
1C
102
{ACAD_REACTORS
330
1A
102
}
330
1A
100
AcDbXrecord
280
     1
270
     1
271
     1
  0
XRECORD
  5
1B
102
{ACAD_REACTORS
330
1A
102
}
330
1A
100
AcDbXrecord
280
     1
270
     1
271
     1
  0
XRECORD
  5
1F
102
{ACAD_REACTORS
330
1A
102
}
330
1A
100
AcDbXrecord
280
     1
270
     1
271
     1
  0
XRECORD
  5
1E
102
{ACAD_REACTORS
330
1A
102
}
330
1A
100
AcDbXrecord
280
     1
270
     1
271
     1
  0
XRECORD
  5
20
102
{ACAD_REACTORS
330
1A
102
}
330
1A
100
AcDbXrecord
280
     1
270
     1
271
     1
  0
XRECORD
  5
1D
102
{ACAD_REACTORS
330
1A
102
}
330
1A
100
AcDbXrecord
280
     1
270
     1
271
     1
  0
XRECORD
  5
7C5
102
{ACAD_REACTORS
330
12
102
}
330
12
100
AcDbXrecord
280
     1
102
MATERIAL
148
0.0
149
0.0
149
0.0
 93
        0
 94
      127
282
     0
 72
     0
 77
     0
171
     0
175
     0
179
     0
273
     0
  0
XRECORD
  5
14
102
{ACAD_REACTORS
330
12
102
}
330
12
100
AcDbXrecord
280
     1
270
     1
271
     1
  0
XRECORD
  5
13
102
{ACAD_REACTORS
330
12
102
}
330
12
100
AcDbXrecord
280
     1
270
     1
271
     1
  0
XRECORD
  5
17
102
{ACAD_REACTORS
330
12
102
}
330
12
100
AcDbXrecord
280
     1
270
     1
271
     1
  0
XRECORD
  5
16
102
{ACAD_REACTORS
330
12
102
}
330
12
100
AcDbXrecord
280
     1
270
     1
271
     1
  0
XRECORD
  5
18
102
{ACAD_REACTORS
330
12
102
}
330
12
100
AcDbXrecord
280
     1
270
     1
271
     1
  0
XRECORD
  5
15
102
{ACAD_REACTORS
330
12
102
}
330
12
100
AcDbXrecord
280
     1
270
     1
271
     1
  0
XRECORD
  5
7C7
102
{ACAD_REACTORS
330
22
102
}
330
22
100
AcDbXrecord
280
     1
102
MATERIAL
148
0.0
149
0.0
149
0.0
 93
        0
 94
      127
282
     0
 72
     0
 77
     0
171
     0
175
     0
179
     0
273
     0
  0
XRECORD
  5
24
102
{ACAD_REACTORS
330
22
102
}
330
22
100
AcDbXrecord
280
     1
270
     1
271
     1
  0
XRECORD
  5
23
102
{ACAD_REACTORS
330
22
102
}
330
22
100
AcDbXrecord
280
     1
270
     1
271
     1
  0
XRECORD
  5
27
102
{ACAD_REACTORS
330
22
102
}
330
22
100
AcDbXrecord
280
     1
270
     1
271
     1
  0
XRECORD
  5
26
102
{ACAD_REACTORS
330
22
102
}
330
22
100
AcDbXrecord
280
     1
270
     1
271
     1
  0
XRECORD
  5
28
102
{ACAD_REACTORS
330
22
102
}
330
22
100
AcDbXrecord
280
     1
270
     1
271
     1
  0
XRECORD
  5
25
102
{ACAD_REACTORS
330
22
102
}
330
22
100
AcDbXrecord
280
     1
270
     1
271
     1
  0
XRECORD
  5
7FB
102
{ACAD_REACTORS
330
7FA
102
}
330
7FA
100
AcDbXrecord
280
     1
102
ACAD_ROUNDTRIP_2012_MLEADER_STYLE
298
     1
  0
XRECORD
  5
7FD
102
{ACAD_REACTORS
330
7FC
102
}
330
7FC
100
AcDbXrecord
280
     1
102
DISPLAYNAME
  1
Imperial24
102
FLAGS
 90
        0
  0
XRECORD
  5
803
102
{ACAD_REACTORS
330
802
102
}
330
802
100
AcDbXrecord
280
     1
102
DISPLAYNAME
  1
Metric50
102
FLAGS
 90
        0
  0
CELLSTYLEMAP
  5
7B7
102
{ACAD_REACTORS
330
7B6
102
}
330
7B6
100
AcDbCellStyleMap
 90
        3
300
CELLSTYLE
  1
TABLEFORMAT_BEGIN
 90
        5
170
     1
 91
        0
 92
    32768
 62
   257
 93
        1
300
CONTENTFORMAT
  1
CONTENTFORMAT_BEGIN
 90
        0
 91
        0
 92
        4
 93
        0
300

 40
0.0
140
1.0
 94
        5
 62
     0
340
55
144
6.0
309
CONTENTFORMAT_END
171
     1
301
MARGIN
  1
CELLMARGIN_BEGIN
 40
1.5
 40
1.5
 40
1.5
 40
1.5
 40
0.18
 40
0.18
309
CELLMARGIN_END
 94
        6
 95
        1
302
GRIDFORMAT
  1
GRIDFORMAT_BEGIN
 90
        0
 91
        1
 62
     0
 92
       -2
340
0
 93
        0
 40
0.045
309
GRIDFORMAT_END
 95
        2
302
GRIDFORMAT
  1
GRIDFORMAT_BEGIN
 90
        0
 91
        1
 62
     0
 92
       -2
340
0
 93
        0
 40
0.045
309
GRIDFORMAT_END
 95
        4
302
GRIDFORMAT
  1
GRIDFORMAT_BEGIN
 90
        0
 91
        1
 62
     0
 92
       -2
340
0
 93
        0
 40
0.045
309
GRIDFORMAT_END
 95
        8
302
GRIDFORMAT
  1
GRIDFORMAT_BEGIN
 90
        0
 91
        1
 62
     0
 92
       -2
340
0
 93
        0
 40
0.045
309
GRIDFORMAT_END
 95
       16
302
GRIDFORMAT
  1
GRIDFORMAT_BEGIN
 90
        0
 91
        1
 62
     0
 92
       -2
340
0
 93
        0
 40
0.045
309
GRIDFORMAT_END
 95
       32
302
GRIDFORMAT
  1
GRIDFORMAT_BEGIN
 90
        0
 91
        1
 62
     0
 92
       -2
340
0
 93
        0
 40
0.045
309
GRIDFORMAT_END
309
TABLEFORMAT_END
  1
CELLSTYLE_BEGIN
 90
        1
 91
        1
300
_TITLE
309
CELLSTYLE_END
300
CELLSTYLE
  1
TABLEFORMAT_BEGIN
 90
        5
170
     1
 91
        0
 92
        0
 62
   257
 93
        1
300
CONTENTFORMAT
  1
CONTENTFORMAT_BEGIN
 90
        0
 91
        0
 92
        4
 93
        0
300

 40
0.0
140
1.0
 94
        5
 62
     0
340
55
144
4.5
309
CONTENTFORMAT_END
171
     1
301
MARGIN
  1
CELLMARGIN_BEGIN
 40
1.5
 40
1.5
 40
1.5
 40
1.5
 40
0.18
 40
0.18
309
CELLMARGIN_END
 94
        6
 95
        1
302
GRIDFORMAT
  1
GRIDFORMAT_BEGIN
 90
        0
 91
        1
 62
     0
 92
       -2
340
0
 93
        0
 40
0.045
309
GRIDFORMAT_END
 95
        2
302
GRIDFORMAT
  1
GRIDFORMAT_BEGIN
 90
        0
 91
        1
 62
     0
 92
       -2
340
0
 93
        0
 40
0.045
309
GRIDFORMAT_END
 95
        4
302
GRIDFORMAT
  1
GRIDFORMAT_BEGIN
 90
        0
 91
        1
 62
     0
 92
       -2
340
0
 93
        0
 40
0.045
309
GRIDFORMAT_END
 95
        8
302
GRIDFORMAT
  1
GRIDFORMAT_BEGIN
 90
        0
 91
        1
 62
     0
 92
       -2
340
0
 93
        0
 40
0.045
309
GRIDFORMAT_END
 95
       16
302
GRIDFORMAT
  1
GRIDFORMAT_BEGIN
 90
        0
 91
        1
 62
     0
 92
       -2
340
0
 93
        0
 40
0.045
309
GRIDFORMAT_END
 95
       32
302
GRIDFORMAT
  1
GRIDFORMAT_BEGIN
 90
        0
 91
        1
 62
     0
 92
       -2
340
0
 93
        0
 40
0.045
309
GRIDFORMAT_END
309
TABLEFORMAT_END
  1
CELLSTYLE_BEGIN
 90
        2
 91
        1
300
_HEADER
309
CELLSTYLE_END
300
CELLSTYLE
  1
TABLEFORMAT_BEGIN
 90
        5
170
     1
 91
        0
 92
        0
 62
   257
 93
        1
300
CONTENTFORMAT
  1
CONTENTFORMAT_BEGIN
 90
        0
 91
        0
 92
        4
 93
        0
300

 40
0.0
140
1.0
 94
        2
 62
     0
340
55
144
4.5
309
CONTENTFORMAT_END
171
     1
301
MARGIN
  1
CELLMARGIN_BEGIN
 40
1.5
 40
1.5
 40
1.5
 40
1.5
 40
0.18
 40
0.18
309
CELLMARGIN_END
 94
        6
 95
        1
302
GRIDFORMAT
  1
GRIDFORMAT_BEGIN
 90
        0
 91
        1
 62
     0
 92
       -2
340
0
 93
        0
 40
0.045
309
GRIDFORMAT_END
 95
        2
302
GRIDFORMAT
  1
GRIDFORMAT_BEGIN
 90
        0
 91
        1
 62
     0
 92
       -2
340
0
 93
        0
 40
0.045
309
GRIDFORMAT_END
 95
        4
302
GRIDFORMAT
  1
GRIDFORMAT_BEGIN
 90
        0
 91
        1
 62
     0
 92
       -2
340
0
 93
        0
 40
0.045
309
GRIDFORMAT_END
 95
        8
302
GRIDFORMAT
  1
GRIDFORMAT_BEGIN
 90
        0
 91
        1
 62
     0
 92
       -2
340
0
 93
        0
 40
0.045
309
GRIDFORMAT_END
 95
       16
302
GRIDFORMAT
  1
GRIDFORMAT_BEGIN
 90
        0
 91
        1
 62
     0
 92
       -2
340
0
 93
        0
 40
0.045
309
GRIDFORMAT_END
 95
       32
302
GRIDFORMAT
  1
GRIDFORMAT_BEGIN
 90
        0
 91
        1
 62
     0
 92
       -2
340
0
 93
        0
 40
0.045
309
GRIDFORMAT_END
309
TABLEFORMAT_END
  1
CELLSTYLE_BEGIN
 90
        3
 91
        2
300
_DATA
309
CELLSTYLE_END
  0
XRECORD
  5
7F8
102
{ACAD_REACTORS
330
7B6
102
}
330
7B6
100
AcDbXrecord
280
     1
102
ACAD_ROUNDTRIP_PRE2007_TABLESTYLE
 90
        4
 91
        0
  1

 92
        4
 93
        0
  2

 94
        4
 95
        0
  3

  0
XRECORD
  5
7D3
102
{ACAD_REACTORS
330
7D2
102
}
330
7D2
100
AcDbXrecord
280
     1
102
RTVSPost2010Prop28
280
     1
102
RTVSPost2010PropOp28
 70
     1
102
RTVSPost2010Prop29
280
     1
102
RTVSPost2010PropOp29
 70
     1
102
RTVSPost2010Prop30
280
     0
102
RTVSPost2010PropOp30
 70
     1
102
RTVSPost2010Prop31
280
     0
102
RTVSPost2010PropOp31
 70
     1
102
RTVSPost2010Prop32
280
     0
102
RTVSPost2010PropOp32
 70
     1
102
RTVSPost2010Prop33
280
     0
102
RTVSPost2010PropOp33
 70
     1
102
RTVSPost2010Prop34
280
     0
102
RTVSPost2010PropOp34
 70
     1
102
RTVSPost2010Prop35
280
     0
102
RTVSPost2010PropOp35
 70
     1
102
RTVSPost2010Prop36
280
     0
102
RTVSPost2010PropOp36
 70
     1
102
RTVSPost2010Prop37
 90
       50
102
RTVSPost2010PropOp37
 70
     1
102
RTVSPost2010Prop38
140
0.0
102
RTVSPost2010PropOp38
 70
     1
102
RTVSPost2010Prop39
140
1.0
102
RTVSPost2010PropOp39
 70
     1
102
RTVSPost2010Prop40
 90
        0
102
RTVSPost2010PropOp40
 70
     1
102
RTVSPost2010Prop41ColorIndex
 90
       18
102
RTVSPost2010Prop41ColorRGB
 90
        0
102
RTVSPost2010PropOp41
 70
     1
102
RTVSPost2010Prop42
 90
       50
102
RTVSPost2010PropOp42
 70
     1
102
RTVSPost2010Prop43
 90
        3
102
RTVSPost2010PropOp43
 70
     1
102
RTVSPost2010Prop44ColorIndex
 90
        5
102
RTVSPost2010Prop44ColorRGB
 90
      255
102
RTVSPost2010PropOp44
 70
     1
102
RTVSPost2010Prop45
280
     0
102
RTVSPost2010PropOp45
 70
     1
102
RTVSPost2010Prop46
 90
       50
102
RTVSPost2010PropOp46
 70
     1
102
RTVSPost2010Prop47
 90
       50
102
RTVSPost2010PropOp47
 70
     1
102
RTVSPost2010Prop48
 90
       50
102
RTVSPost2010PropOp48
 70
     1
102
RTVSPost2010Prop49
280
     0
102
RTVSPost2010PropOp49
 70
     1
102
RTVSPost2010Prop50
 90
       50
102
RTVSPost2010PropOp50
 70
     1
102
RTVSPost2010Prop51ColorIndex
 90
      256
102
RTVSPost2010Prop51ColorRGB
 90
-16777216
102
RTVSPost2010PropOp51
 70
     0
102
RTVSPost2010Prop52
140
1.0
102
RTVSPost2010PropOp52
 70
     0
102
RTVSPost2010Prop53
 90
        2
102
RTVSPost2010PropOp53
 70
     1
102
RTVSPost2010Prop54
  1
strokes_ogs.tif
102
RTVSPost2010PropOp54
 70
     1
102
RTVSPost2010Prop55
280
     0
102
RTVSPost2010PropOp55
 70
     1
102
RTVSPost2010Prop56
140
1.0
102
RTVSPost2010PropOp56
 70
     1
102
RTVSPost2010Prop57
140
1.0
102
RTVSPost2010PropOp57
 70
     1
102
RTVSPropertyOp0
 70
     1
102
RTVSPropertyOp1
 70
     1
102
RTVSPropertyOp2
 70
     1
102
RTVSPropertyOp3
 70
     1
102
RTVSPropertyOp4
 70
     1
102
RTVSPropertyOp5
 70
     1
102
RTVSPropertyOp6
 70
     1
102
RTVSPropertyOp7
 70
     1
102
RTVSPropertyOp8
 70
     1
102
RTVSPropertyOp9
 70
     1
102
RTVSPropertyOp10
 70
     1
102
RTVSPropertyOp11
 70
     1
102
RTVSPropertyOp12
 70
     1
102
RTVSPropertyOp13
 70
     1
102
RTVSPropertyOp14
 70
     1
102
RTVSPropertyOp15
 70
     1
102
RTVSPropertyOp16
 70
     1
102
RTVSPropertyOp17
 70
     1
102
RTVSPropertyOp18
 70
     1
102
RTVSPropertyOp19
 70
     1
102
RTVSPropertyOp20
 70
     1
102
RTVSPropertyOp21
 70
     1
102
RTVSPropertyOp22
 70
     1
102
RTVSPropertyOp23
 70
     1
102
RTVSPropertyOp24
 70
     1
102
RTVSPropertyOp25
 70
     1
102
RTVSPropertyOp26
 70
     1
102
RTVSPropertyOp27
 70
     1
102
RTVSPropertyOp28
 70
     1
102
RTVSPropertyOp29
 70
     1
102
RTVSPropertyOp30
 70
     1
102
RTVSPropertyOp31
 70
     1
102
RTVSPropertyOp32
 70
     1
102
RTVSPropertyOp33
 70
     1
102
RTVSPropertyOp34
 70
     1
102
RTVSPropertyOp35
 70
     1
102
RTVSPropertyOp36
 70
     1
102
RTVSPropertyOp37
 70
     1
102
RTVSPropertyOp38
 70
     1
102
RTVSPropertyOp39
 70
     1
102
RTVSPropertyOp40
 70
     1
102
RTVSPropertyOp41
 70
     1
102
RTVSPropertyOp42
 70
     1
102
RTVSPropertyOp43
 70
     1
102
RTVSPropertyOp44
 70
     1
102
RTVSPropertyOp45
 70
     1
102
RTVSPropertyOp46
 70
     1
102
RTVSPropertyOp47
 70
     1
102
RTVSPropertyOp48
 70
     1
102
RTVSPropertyOp49
 70
     1
102
RTVSPropertyOp50
 70
     1
102
RTVSPropertyOp51
 70
     0
102
RTVSPropertyOp52
 70
     0
102
RTVSPropertyOp53
 70
     1
102
RTVSPropertyOp54
 70
     1
102
RTVSPropertyOp55
 70
     1
102
RTVSPropertyOp56
 70
     1
102
RTVSPropertyOp57
 70
     1
102
RTVSPropertyOp58
 70
     1
102
RTVSPropertyOp59
 70
     1
102
RTVSPropertyOp60
 70
     1
102
RTVSPropertyOp61
 70
     1
102
RTVSPropertyOp62
 70
     1
  0
XRECORD
  5
7D1
102
{ACAD_REACTORS
330
7D0
102
}
330
7D0
100
AcDbXrecord
280
     1
102
RTVSPost2010Prop28
280
     0
102
RTVSPost2010PropOp28
 70
     1
102
RTVSPost2010Prop29
280
     1
102
RTVSPost2010PropOp29
 70
     1
102
RTVSPost2010Prop30
280
     1
102
RTVSPost2010PropOp30
 70
     1
102
RTVSPost2010Prop31
280
     0
102
RTVSPost2010PropOp31
 70
     1
102
RTVSPost2010Prop32
280
     0
102
RTVSPost2010PropOp32
 70
     1
102
RTVSPost2010Prop33
280
     0
102
RTVSPost2010PropOp33
 70
     1
102
RTVSPost2010Prop34
280
     0
102
RTVSPost2010PropOp34
 70
     1
102
RTVSPost2010Prop35
280
     0
102
RTVSPost2010PropOp35
 70
     1
102
RTVSPost2010Prop36
280
     0
102
RTVSPost2010PropOp36
 70
     1
102
RTVSPost2010Prop37
 90
       50
102
RTVSPost2010PropOp37
 70
     1
102
RTVSPost2010Prop38
140
0.0
102
RTVSPost2010PropOp38
 70
     1
102
RTVSPost2010Prop39
140
1.0
102
RTVSPost2010PropOp39
 70
     1
102
RTVSPost2010Prop40
 90
        0
102
RTVSPost2010PropOp40
 70
     1
102
RTVSPost2010Prop41ColorIndex
 90
       18
102
RTVSPost2010Prop41ColorRGB
 90
        0
102
RTVSPost2010PropOp41
 70
     1
102
RTVSPost2010Prop42
 90
       50
102
RTVSPost2010PropOp42
 70
     1
102
RTVSPost2010Prop43
 90
        3
102
RTVSPost2010PropOp43
 70
     1
102
RTVSPost2010Prop44ColorIndex
 90
        5
102
RTVSPost2010Prop44ColorRGB
 90
      255
102
RTVSPost2010PropOp44
 70
     1
102
RTVSPost2010Prop45
280
     0
102
RTVSPost2010PropOp45
 70
     1
102
RTVSPost2010Prop46
 90
       50
102
RTVSPost2010PropOp46
 70
     1
102
RTVSPost2010Prop47
 90
       50
102
RTVSPost2010PropOp47
 70
     1
102
RTVSPost2010Prop48
 90
       50
102
RTVSPost2010PropOp48
 70
     1
102
RTVSPost2010Prop49
280
     0
102
RTVSPost2010PropOp49
 70
     1
102
RTVSPost2010Prop50
 90
       50
102
RTVSPost2010PropOp50
 70
     1
102
RTVSPost2010Prop51ColorIndex
 90
      256
102
RTVSPost2010Prop51ColorRGB
 90
-16777216
102
RTVSPost2010PropOp51
 70
     0
102
RTVSPost2010Prop52
140
1.0
102
RTVSPost2010PropOp52
 70
     0
102
RTVSPost2010Prop53
 90
        2
102
RTVSPost2010PropOp53
 70
     1
102
RTVSPost2010Prop54
  1
strokes_ogs.tif
102
RTVSPost2010PropOp54
 70
     1
102
RTVSPost2010Prop55
280
     0
102
RTVSPost2010PropOp55
 70
     1
102
RTVSPost2010Prop56
140
1.0
102
RTVSPost2010PropOp56
 70
     1
102
RTVSPost2010Prop57
140
1.0
102
RTVSPost2010PropOp57
 70
     1
102
RTVSPropertyOp0
 70
     1
102
RTVSPropertyOp1
 70
     1
102
RTVSPropertyOp2
 70
     1
102
RTVSPropertyOp3
 70
     1
102
RTVSPropertyOp4
 70
     1
102
RTVSPropertyOp5
 70
     1
102
RTVSPropertyOp6
 70
     1
102
RTVSPropertyOp7
 70
     1
102
RTVSPropertyOp8
 70
     1
102
RTVSPropertyOp9
 70
     1
102
RTVSPropertyOp10
 70
     1
102
RTVSPropertyOp11
 70
     1
102
RTVSPropertyOp12
 70
     1
102
RTVSPropertyOp13
 70
     1
102
RTVSPropertyOp14
 70
     1
102
RTVSPropertyOp15
 70
     1
102
RTVSPropertyOp16
 70
     1
102
RTVSPropertyOp17
 70
     1
102
RTVSPropertyOp18
 70
     1
102
RTVSPropertyOp19
 70
     1
102
RTVSPropertyOp20
 70
     1
102
RTVSPropertyOp21
 70
     1
102
RTVSPropertyOp22
 70
     1
102
RTVSPropertyOp23
 70
     1
102
RTVSPropertyOp24
 70
     1
102
RTVSPropertyOp25
 70
     1
102
RTVSPropertyOp26
 70
     1
102
RTVSPropertyOp27
 70
     1
102
RTVSPropertyOp28
 70
     1
102
RTVSPropertyOp29
 70
     1
102
RTVSPropertyOp30
 70
     1
102
RTVSPropertyOp31
 70
     1
102
RTVSPropertyOp32
 70
     1
102
RTVSPropertyOp33
 70
     1
102
RTVSPropertyOp34
 70
     1
102
RTVSPropertyOp35
 70
     1
102
RTVSPropertyOp36
 70
     1
102
RTVSPropertyOp37
 70
     1
102
RTVSPropertyOp38
 70
     1
102
RTVSPropertyOp39
 70
     1
102
RTVSPropertyOp40
 70
     1
102
RTVSPropertyOp41
 70
     1
102
RTVSPropertyOp42
 70
     1
102
RTVSPropertyOp43
 70
     1
102
RTVSPropertyOp44
 70
     1
102
RTVSPropertyOp45
 70
     1
102
RTVSPropertyOp46
 70
     1
102
RTVSPropertyOp47
 70
     1
102
RTVSPropertyOp48
 70
     1
102
RTVSPropertyOp49
 70
     1
102
RTVSPropertyOp50
 70
     1
102
RTVSPropertyOp51
 70
     0
102
RTVSPropertyOp52
 70
     0
102
RTVSPropertyOp53
 70
     1
102
RTVSPropertyOp54
 70
     1
102
RTVSPropertyOp55
 70
     1
102
RTVSPropertyOp56
 70
     1
102
RTVSPropertyOp57
 70
     1
102
RTVSPropertyOp58
 70
     1
102
RTVSPropertyOp59
 70
     1
102
RTVSPropertyOp60
 70
     1
102
RTVSPropertyOp61
 70
     1
102
RTVSPropertyOp62
 70
     1
  0
XRECORD
  5
7DF
102
{ACAD_REACTORS
330
7DE
102
}
330
7DE
100
AcDbXrecord
280
     1
102
RTVSPost2010Prop28
280
     0
102
RTVSPost2010PropOp28
 70
     1
102
RTVSPost2010Prop29
280
     1
102
RTVSPost2010PropOp29
 70
     1
102
RTVSPost2010Prop30
280
     1
102
RTVSPost2010PropOp30
 70
     1
102
RTVSPost2010Prop31
280
     0
102
RTVSPost2010PropOp31
 70
     1
102
RTVSPost2010Prop32
280
     0
102
RTVSPost2010PropOp32
 70
     1
102
RTVSPost2010Prop33
280
     0
102
RTVSPost2010PropOp33
 70
     1
102
RTVSPost2010Prop34
280
     0
102
RTVSPost2010PropOp34
 70
     1
102
RTVSPost2010Prop35
280
     0
102
RTVSPost2010PropOp35
 70
     1
102
RTVSPost2010Prop36
280
     0
102
RTVSPost2010PropOp36
 70
     1
102
RTVSPost2010Prop37
 90
       50
102
RTVSPost2010PropOp37
 70
     1
102
RTVSPost2010Prop38
140
0.0
102
RTVSPost2010PropOp38
 70
     1
102
RTVSPost2010Prop39
140
1.0
102
RTVSPost2010PropOp39
 70
     1
102
RTVSPost2010Prop40
 90
        0
102
RTVSPost2010PropOp40
 70
     1
102
RTVSPost2010Prop41ColorIndex
 90
       18
102
RTVSPost2010Prop41ColorRGB
 90
        0
102
RTVSPost2010PropOp41
 70
     1
102
RTVSPost2010Prop42
 90
       50
102
RTVSPost2010PropOp42
 70
     1
102
RTVSPost2010Prop43
 90
        3
102
RTVSPost2010PropOp43
 70
     1
102
RTVSPost2010Prop44ColorIndex
 90
        5
102
RTVSPost2010Prop44ColorRGB
 90
      255
102
RTVSPost2010PropOp44
 70
     1
102
RTVSPost2010Prop45
280
     0
102
RTVSPost2010PropOp45
 70
     1
102
RTVSPost2010Prop46
 90
       50
102
RTVSPost2010PropOp46
 70
     1
102
RTVSPost2010Prop47
 90
       50
102
RTVSPost2010PropOp47
 70
     1
102
RTVSPost2010Prop48
 90
       50
102
RTVSPost2010PropOp48
 70
     1
102
RTVSPost2010Prop49
280
     0
102
RTVSPost2010PropOp49
 70
     1
102
RTVSPost2010Prop50
 90
       50
102
RTVSPost2010PropOp50
 70
     1
102
RTVSPost2010Prop51ColorIndex
 90
      256
102
RTVSPost2010Prop51ColorRGB
 90
-16777216
102
RTVSPost2010PropOp51
 70
     0
102
RTVSPost2010Prop52
140
1.0
102
RTVSPost2010PropOp52
 70
     0
102
RTVSPost2010Prop53
 90
        2
102
RTVSPost2010PropOp53
 70
     1
102
RTVSPost2010Prop54
  1
strokes_ogs.tif
102
RTVSPost2010PropOp54
 70
     1
102
RTVSPost2010Prop55
280
     0
102
RTVSPost2010PropOp55
 70
     1
102
RTVSPost2010Prop56
140
1.0
102
RTVSPost2010PropOp56
 70
     1
102
RTVSPost2010Prop57
140
1.0
102
RTVSPost2010PropOp57
 70
     1
102
RTVSPropertyOp0
 70
     1
102
RTVSPropertyOp1
 70
     1
102
RTVSPropertyOp2
 70
     1
102
RTVSPropertyOp3
 70
     1
102
RTVSPropertyOp4
 70
     1
102
RTVSPropertyOp5
 70
     1
102
RTVSPropertyOp6
 70
     1
102
RTVSPropertyOp7
 70
     1
102
RTVSPropertyOp8
 70
     1
102
RTVSPropertyOp9
 70
     1
102
RTVSPropertyOp10
 70
     1
102
RTVSPropertyOp11
 70
     1
102
RTVSPropertyOp12
 70
     1
102
RTVSPropertyOp13
 70
     1
102
RTVSPropertyOp14
 70
     1
102
RTVSPropertyOp15
 70
     1
102
RTVSPropertyOp16
 70
     1
102
RTVSPropertyOp17
 70
     1
102
RTVSPropertyOp18
 70
     1
102
RTVSPropertyOp19
 70
     1
102
RTVSPropertyOp20
 70
     1
102
RTVSPropertyOp21
 70
     1
102
RTVSPropertyOp22
 70
     1
102
RTVSPropertyOp23
 70
     1
102
RTVSPropertyOp24
 70
     1
102
RTVSPropertyOp25
 70
     1
102
RTVSPropertyOp26
 70
     1
102
RTVSPropertyOp27
 70
     1
102
RTVSPropertyOp28
 70
     1
102
RTVSPropertyOp29
 70
     1
102
RTVSPropertyOp30
 70
     1
102
RTVSPropertyOp31
 70
     1
102
RTVSPropertyOp32
 70
     1
102
RTVSPropertyOp33
 70
     1
102
RTVSPropertyOp34
 70
     1
102
RTVSPropertyOp35
 70
     1
102
RTVSPropertyOp36
 70
     1
102
RTVSPropertyOp37
 70
     1
102
RTVSPropertyOp38
 70
     1
102
RTVSPropertyOp39
 70
     1
102
RTVSPropertyOp40
 70
     1
102
RTVSPropertyOp41
 70
     1
102
RTVSPropertyOp42
 70
     1
102
RTVSPropertyOp43
 70
     1
102
RTVSPropertyOp44
 70
     1
102
RTVSPropertyOp45
 70
     1
102
RTVSPropertyOp46
 70
     1
102
RTVSPropertyOp47
 70
     1
102
RTVSPropertyOp48
 70
     1
102
RTVSPropertyOp49
 70
     1
102
RTVSPropertyOp50
 70
     1
102
RTVSPropertyOp51
 70
     0
102
RTVSPropertyOp52
 70
     0
102
RTVSPropertyOp53
 70
     1
102
RTVSPropertyOp54
 70
     1
102
RTVSPropertyOp55
 70
     1
102
RTVSPropertyOp56
 70
     1
102
RTVSPropertyOp57
 70
     1
102
RTVSPropertyOp58
 70
     1
102
RTVSPropertyOp59
 70
     1
102
RTVSPropertyOp60
 70
     1
102
RTVSPropertyOp61
 70
     1
102
RTVSPropertyOp62
 70
     1
  0
XRECORD
  5
7E7
102
{ACAD_REACTORS
330
7E6
102
}
330
7E6
100
AcDbXrecord
280
     1
102
RTVSPost2010Prop28
280
     0
102
RTVSPost2010PropOp28
 70
     1
102
RTVSPost2010Prop29
280
     1
102
RTVSPost2010PropOp29
 70
     1
102
RTVSPost2010Prop30
280
     1
102
RTVSPost2010PropOp30
 70
     1
102
RTVSPost2010Prop31
280
     0
102
RTVSPost2010PropOp31
 70
     1
102
RTVSPost2010Prop32
280
     0
102
RTVSPost2010PropOp32
 70
     1
102
RTVSPost2010Prop33
280
     0
102
RTVSPost2010PropOp33
 70
     1
102
RTVSPost2010Prop34
280
     0
102
RTVSPost2010PropOp34
 70
     1
102
RTVSPost2010Prop35
280
     0
102
RTVSPost2010PropOp35
 70
     1
102
RTVSPost2010Prop36
280
     0
102
RTVSPost2010PropOp36
 70
     1
102
RTVSPost2010Prop37
 90
       50
102
RTVSPost2010PropOp37
 70
     1
102
RTVSPost2010Prop38
140
0.0
102
RTVSPost2010PropOp38
 70
     1
102
RTVSPost2010Prop39
140
1.0
102
RTVSPost2010PropOp39
 70
     1
102
RTVSPost2010Prop40
 90
        0
102
RTVSPost2010PropOp40
 70
     1
102
RTVSPost2010Prop41ColorIndex
 90
       18
102
RTVSPost2010Prop41ColorRGB
 90
        0
102
RTVSPost2010PropOp41
 70
     1
102
RTVSPost2010Prop42
 90
       50
102
RTVSPost2010PropOp42
 70
     1
102
RTVSPost2010Prop43
 90
        3
102
RTVSPost2010PropOp43
 70
     1
102
RTVSPost2010Prop44ColorIndex
 90
        5
102
RTVSPost2010Prop44ColorRGB
 90
      255
102
RTVSPost2010PropOp44
 70
     1
102
RTVSPost2010Prop45
280
     0
102
RTVSPost2010PropOp45
 70
     1
102
RTVSPost2010Prop46
 90
       50
102
RTVSPost2010PropOp46
 70
     1
102
RTVSPost2010Prop47
 90
       50
102
RTVSPost2010PropOp47
 70
     1
102
RTVSPost2010Prop48
 90
       50
102
RTVSPost2010PropOp48
 70
     1
102
RTVSPost2010Prop49
280
     0
102
RTVSPost2010PropOp49
 70
     1
102
RTVSPost2010Prop50
 90
       50
102
RTVSPost2010PropOp50
 70
     1
102
RTVSPost2010Prop51ColorIndex
 90
      256
102
RTVSPost2010Prop51ColorRGB
 90
-16777216
102
RTVSPost2010PropOp51
 70
     0
102
RTVSPost2010Prop52
140
1.0
102
RTVSPost2010PropOp52
 70
     0
102
RTVSPost2010Prop53
 90
        2
102
RTVSPost2010PropOp53
 70
     1
102
RTVSPost2010Prop54
  1
strokes_ogs.tif
102
RTVSPost2010PropOp54
 70
     1
102
RTVSPost2010Prop55
280
     0
102
RTVSPost2010PropOp55
 70
     1
102
RTVSPost2010Prop56
140
1.0
102
RTVSPost2010PropOp56
 70
     1
102
RTVSPost2010Prop57
140
1.0
102
RTVSPost2010PropOp57
 70
     1
102
RTVSPropertyOp0
 70
     1
102
RTVSPropertyOp1
 70
     1
102
RTVSPropertyOp2
 70
     1
102
RTVSPropertyOp3
 70
     1
102
RTVSPropertyOp4
 70
     1
102
RTVSPropertyOp5
 70
     1
102
RTVSPropertyOp6
 70
     1
102
RTVSPropertyOp7
 70
     1
102
RTVSPropertyOp8
 70
     1
102
RTVSPropertyOp9
 70
     1
102
RTVSPropertyOp10
 70
     1
102
RTVSPropertyOp11
 70
     1
102
RTVSPropertyOp12
 70
     1
102
RTVSPropertyOp13
 70
     1
102
RTVSPropertyOp14
 70
     1
102
RTVSPropertyOp15
 70
     1
102
RTVSPropertyOp16
 70
     1
102
RTVSPropertyOp17
 70
     1
102
RTVSPropertyOp18
 70
     1
102
RTVSPropertyOp19
 70
     1
102
RTVSPropertyOp20
 70
     1
102
RTVSPropertyOp21
 70
     1
102
RTVSPropertyOp22
 70
     1
102
RTVSPropertyOp23
 70
     1
102
RTVSPropertyOp24
 70
     1
102
RTVSPropertyOp25
 70
     1
102
RTVSPropertyOp26
 70
     1
102
RTVSPropertyOp27
 70
     1
102
RTVSPropertyOp28
 70
     1
102
RTVSPropertyOp29
 70
     1
102
RTVSPropertyOp30
 70
     1
102
RTVSPropertyOp31
 70
     1
102
RTVSPropertyOp32
 70
     1
102
RTVSPropertyOp33
 70
     1
102
RTVSPropertyOp34
 70
     1
102
RTVSPropertyOp35
 70
     1
102
RTVSPropertyOp36
 70
     1
102
RTVSPropertyOp37
 70
     1
102
RTVSPropertyOp38
 70
     1
102
RTVSPropertyOp39
 70
     1
102
RTVSPropertyOp40
 70
     1
102
RTVSPropertyOp41
 70
     1
102
RTVSPropertyOp42
 70
     1
102
RTVSPropertyOp43
 70
     1
102
RTVSPropertyOp44
 70
     1
102
RTVSPropertyOp45
 70
     1
102
RTVSPropertyOp46
 70
     1
102
RTVSPropertyOp47
 70
     1
102
RTVSPropertyOp48
 70
     1
102
RTVSPropertyOp49
 70
     1
102
RTVSPropertyOp50
 70
     1
102
RTVSPropertyOp51
 70
     0
102
RTVSPropertyOp52
 70
     0
102
RTVSPropertyOp53
 70
     1
102
RTVSPropertyOp54
 70
     1
102
RTVSPropertyOp55
 70
     1
102
RTVSPropertyOp56
 70
     1
102
RTVSPropertyOp57
 70
     1
102
RTVSPropertyOp58
 70
     1
102
RTVSPropertyOp59
 70
     1
102
RTVSPropertyOp60
 70
     1
102
RTVSPropertyOp61
 70
     1
102
RTVSPropertyOp62
 70
     1
  0
XRECORD
  5
7D9
102
{ACAD_REACTORS
330
7D8
102
}
330
7D8
100
AcDbXrecord
280
     1
102
RTVSPost2010Prop28
280
     0
102
RTVSPost2010PropOp28
 70
     1
102
RTVSPost2010Prop29
280
     1
102
RTVSPost2010PropOp29
 70
     1
102
RTVSPost2010Prop30
280
     1
102
RTVSPost2010PropOp30
 70
     1
102
RTVSPost2010Prop31
280
     0
102
RTVSPost2010PropOp31
 70
     1
102
RTVSPost2010Prop32
280
     0
102
RTVSPost2010PropOp32
 70
     1
102
RTVSPost2010Prop33
280
     0
102
RTVSPost2010PropOp33
 70
     1
102
RTVSPost2010Prop34
280
     0
102
RTVSPost2010PropOp34
 70
     1
102
RTVSPost2010Prop35
280
     0
102
RTVSPost2010PropOp35
 70
     1
102
RTVSPost2010Prop36
280
     0
102
RTVSPost2010PropOp36
 70
     1
102
RTVSPost2010Prop37
 90
       50
102
RTVSPost2010PropOp37
 70
     1
102
RTVSPost2010Prop38
140
0.0
102
RTVSPost2010PropOp38
 70
     1
102
RTVSPost2010Prop39
140
1.0
102
RTVSPost2010PropOp39
 70
     1
102
RTVSPost2010Prop40
 90
        0
102
RTVSPost2010PropOp40
 70
     1
102
RTVSPost2010Prop41ColorIndex
 90
       18
102
RTVSPost2010Prop41ColorRGB
 90
        0
102
RTVSPost2010PropOp41
 70
     1
102
RTVSPost2010Prop42
 90
       50
102
RTVSPost2010PropOp42
 70
     1
102
RTVSPost2010Prop43
 90
        3
102
RTVSPost2010PropOp43
 70
     1
102
RTVSPost2010Prop44ColorIndex
 90
        5
102
RTVSPost2010Prop44ColorRGB
 90
      255
102
RTVSPost2010PropOp44
 70
     1
102
RTVSPost2010Prop45
280
     0
102
RTVSPost2010PropOp45
 70
     1
102
RTVSPost2010Prop46
 90
       50
102
RTVSPost2010PropOp46
 70
     1
102
RTVSPost2010Prop47
 90
       50
102
RTVSPost2010PropOp47
 70
     1
102
RTVSPost2010Prop48
 90
       50
102
RTVSPost2010PropOp48
 70
     1
102
RTVSPost2010Prop49
280
     0
102
RTVSPost2010PropOp49
 70
     1
102
RTVSPost2010Prop50
 90
       50
102
RTVSPost2010PropOp50
 70
     1
102
RTVSPost2010Prop51ColorIndex
 90
      256
102
RTVSPost2010Prop51ColorRGB
 90
-16777216
102
RTVSPost2010PropOp51
 70
     0
102
RTVSPost2010Prop52
140
1.0
102
RTVSPost2010PropOp52
 70
     0
102
RTVSPost2010Prop53
 90
        2
102
RTVSPost2010PropOp53
 70
     1
102
RTVSPost2010Prop54
  1
strokes_ogs.tif
102
RTVSPost2010PropOp54
 70
     1
102
RTVSPost2010Prop55
280
     0
102
RTVSPost2010PropOp55
 70
     1
102
RTVSPost2010Prop56
140
1.0
102
RTVSPost2010PropOp56
 70
     1
102
RTVSPost2010Prop57
140
1.0
102
RTVSPost2010PropOp57
 70
     1
102
RTVSPropertyOp0
 70
     1
102
RTVSPropertyOp1
 70
     1
102
RTVSPropertyOp2
 70
     1
102
RTVSPropertyOp3
 70
     1
102
RTVSPropertyOp4
 70
     1
102
RTVSPropertyOp5
 70
     1
102
RTVSPropertyOp6
 70
     1
102
RTVSPropertyOp7
 70
     1
102
RTVSPropertyOp8
 70
     1
102
RTVSPropertyOp9
 70
     1
102
RTVSPropertyOp10
 70
     1
102
RTVSPropertyOp11
 70
     1
102
RTVSPropertyOp12
 70
     1
102
RTVSPropertyOp13
 70
     1
102
RTVSPropertyOp14
 70
     1
102
RTVSPropertyOp15
 70
     1
102
RTVSPropertyOp16
 70
     1
102
RTVSPropertyOp17
 70
     1
102
RTVSPropertyOp18
 70
     1
102
RTVSPropertyOp19
 70
     1
102
RTVSPropertyOp20
 70
     1
102
RTVSPropertyOp21
 70
     1
102
RTVSPropertyOp22
 70
     1
102
RTVSPropertyOp23
 70
     1
102
RTVSPropertyOp24
 70
     1
102
RTVSPropertyOp25
 70
     1
102
RTVSPropertyOp26
 70
     1
102
RTVSPropertyOp27
 70
     1
102
RTVSPropertyOp28
 70
     1
102
RTVSPropertyOp29
 70
     1
102
RTVSPropertyOp30
 70
     1
102
RTVSPropertyOp31
 70
     1
102
RTVSPropertyOp32
 70
     1
102
RTVSPropertyOp33
 70
     1
102
RTVSPropertyOp34
 70
     1
102
RTVSPropertyOp35
 70
     1
102
RTVSPropertyOp36
 70
     1
102
RTVSPropertyOp37
 70
     1
102
RTVSPropertyOp38
 70
     1
102
RTVSPropertyOp39
 70
     1
102
RTVSPropertyOp40
 70
     1
102
RTVSPropertyOp41
 70
     1
102
RTVSPropertyOp42
 70
     1
102
RTVSPropertyOp43
 70
     1
102
RTVSPropertyOp44
 70
     1
102
RTVSPropertyOp45
 70
     1
102
RTVSPropertyOp46
 70
     1
102
RTVSPropertyOp47
 70
     1
102
RTVSPropertyOp48
 70
     1
102
RTVSPropertyOp49
 70
     1
102
RTVSPropertyOp50
 70
     1
102
RTVSPropertyOp51
 70
     0
102
RTVSPropertyOp52
 70
     0
102
RTVSPropertyOp53
 70
     1
102
RTVSPropertyOp54
 70
     1
102
RTVSPropertyOp55
 70
     1
102
RTVSPropertyOp56
 70
     1
102
RTVSPropertyOp57
 70
     1
102
RTVSPropertyOp58
 70
     1
102
RTVSPropertyOp59
 70
     1
102
RTVSPropertyOp60
 70
     1
102
RTVSPropertyOp61
 70
     1
102
RTVSPropertyOp62
 70
     1
  0
XRECORD
  5
7DD
102
{ACAD_REACTORS
330
7DC
102
}
330
7DC
100
AcDbXrecord
280
     1
102
RTVSPost2010Prop28
280
     0
102
RTVSPost2010PropOp28
 70
     1
102
RTVSPost2010Prop29
280
     1
102
RTVSPost2010PropOp29
 70
     1
102
RTVSPost2010Prop30
280
     1
102
RTVSPost2010PropOp30
 70
     1
102
RTVSPost2010Prop31
280
     0
102
RTVSPost2010PropOp31
 70
     1
102
RTVSPost2010Prop32
280
     0
102
RTVSPost2010PropOp32
 70
     1
102
RTVSPost2010Prop33
280
     0
102
RTVSPost2010PropOp33
 70
     1
102
RTVSPost2010Prop34
280
     0
102
RTVSPost2010PropOp34
 70
     1
102
RTVSPost2010Prop35
280
     0
102
RTVSPost2010PropOp35
 70
     1
102
RTVSPost2010Prop36
280
     0
102
RTVSPost2010PropOp36
 70
     1
102
RTVSPost2010Prop37
 90
       50
102
RTVSPost2010PropOp37
 70
     1
102
RTVSPost2010Prop38
140
0.0
102
RTVSPost2010PropOp38
 70
     1
102
RTVSPost2010Prop39
140
1.0
102
RTVSPost2010PropOp39
 70
     1
102
RTVSPost2010Prop40
 90
        0
102
RTVSPost2010PropOp40
 70
     1
102
RTVSPost2010Prop41ColorIndex
 90
       18
102
RTVSPost2010Prop41ColorRGB
 90
        0
102
RTVSPost2010PropOp41
 70
     1
102
RTVSPost2010Prop42
 90
       50
102
RTVSPost2010PropOp42
 70
     1
102
RTVSPost2010Prop43
 90
        3
102
RTVSPost2010PropOp43
 70
     1
102
RTVSPost2010Prop44ColorIndex
 90
        5
102
RTVSPost2010Prop44ColorRGB
 90
      255
102
RTVSPost2010PropOp44
 70
     1
102
RTVSPost2010Prop45
280
     0
102
RTVSPost2010PropOp45
 70
     1
102
RTVSPost2010Prop46
 90
       50
102
RTVSPost2010PropOp46
 70
     1
102
RTVSPost2010Prop47
 90
       50
102
RTVSPost2010PropOp47
 70
     1
102
RTVSPost2010Prop48
 90
       50
102
RTVSPost2010PropOp48
 70
     1
102
RTVSPost2010Prop49
280
     0
102
RTVSPost2010PropOp49
 70
     1
102
RTVSPost2010Prop50
 90
       50
102
RTVSPost2010PropOp50
 70
     1
102
RTVSPost2010Prop51ColorIndex
 90
      256
102
RTVSPost2010Prop51ColorRGB
 90
-16777216
102
RTVSPost2010PropOp51
 70
     0
102
RTVSPost2010Prop52
140
1.0
102
RTVSPost2010PropOp52
 70
     0
102
RTVSPost2010Prop53
 90
        2
102
RTVSPost2010PropOp53
 70
     1
102
RTVSPost2010Prop54
  1
strokes_ogs.tif
102
RTVSPost2010PropOp54
 70
     1
102
RTVSPost2010Prop55
280
     0
102
RTVSPost2010PropOp55
 70
     1
102
RTVSPost2010Prop56
140
1.0
102
RTVSPost2010PropOp56
 70
     1
102
RTVSPost2010Prop57
140
1.0
102
RTVSPost2010PropOp57
 70
     1
102
RTVSPropertyOp0
 70
     1
102
RTVSPropertyOp1
 70
     1
102
RTVSPropertyOp2
 70
     1
102
RTVSPropertyOp3
 70
     1
102
RTVSPropertyOp4
 70
     1
102
RTVSPropertyOp5
 70
     1
102
RTVSPropertyOp6
 70
     1
102
RTVSPropertyOp7
 70
     1
102
RTVSPropertyOp8
 70
     1
102
RTVSPropertyOp9
 70
     1
102
RTVSPropertyOp10
 70
     1
102
RTVSPropertyOp11
 70
     1
102
RTVSPropertyOp12
 70
     1
102
RTVSPropertyOp13
 70
     1
102
RTVSPropertyOp14
 70
     1
102
RTVSPropertyOp15
 70
     1
102
RTVSPropertyOp16
 70
     1
102
RTVSPropertyOp17
 70
     1
102
RTVSPropertyOp18
 70
     1
102
RTVSPropertyOp19
 70
     1
102
RTVSPropertyOp20
 70
     1
102
RTVSPropertyOp21
 70
     1
102
RTVSPropertyOp22
 70
     1
102
RTVSPropertyOp23
 70
     1
102
RTVSPropertyOp24
 70
     1
102
RTVSPropertyOp25
 70
     1
102
RTVSPropertyOp26
 70
     1
102
RTVSPropertyOp27
 70
     1
102
RTVSPropertyOp28
 70
     1
102
RTVSPropertyOp29
 70
     1
102
RTVSPropertyOp30
 70
     1
102
RTVSPropertyOp31
 70
     1
102
RTVSPropertyOp32
 70
     1
102
RTVSPropertyOp33
 70
     1
102
RTVSPropertyOp34
 70
     1
102
RTVSPropertyOp35
 70
     1
102
RTVSPropertyOp36
 70
     1
102
RTVSPropertyOp37
 70
     1
102
RTVSPropertyOp38
 70
     1
102
RTVSPropertyOp39
 70
     1
102
RTVSPropertyOp40
 70
     1
102
RTVSPropertyOp41
 70
     1
102
RTVSPropertyOp42
 70
     1
102
RTVSPropertyOp43
 70
     1
102
RTVSPropertyOp44
 70
     1
102
RTVSPropertyOp45
 70
     1
102
RTVSPropertyOp46
 70
     1
102
RTVSPropertyOp47
 70
     1
102
RTVSPropertyOp48
 70
     1
102
RTVSPropertyOp49
 70
     1
102
RTVSPropertyOp50
 70
     1
102
RTVSPropertyOp51
 70
     0
102
RTVSPropertyOp52
 70
     0
102
RTVSPropertyOp53
 70
     1
102
RTVSPropertyOp54
 70
     1
102
RTVSPropertyOp55
 70
     1
102
RTVSPropertyOp56
 70
     1
102
RTVSPropertyOp57
 70
     1
102
RTVSPropertyOp58
 70
     1
102
RTVSPropertyOp59
 70
     1
102
RTVSPropertyOp60
 70
     1
102
RTVSPropertyOp61
 70
     1
102
RTVSPropertyOp62
 70
     1
  0
XRECORD
  5
7F7
102
{ACAD_REACTORS
330
7F6
102
}
330
7F6
100
AcDbXrecord
280
     1
102
RTVSPost2010Prop28
280
     0
102
RTVSPost2010PropOp28
 70
     0
102
RTVSPost2010Prop29
280
     1
102
RTVSPost2010PropOp29
 70
     0
102
RTVSPost2010Prop30
280
     1
102
RTVSPost2010PropOp30
 70
     0
102
RTVSPost2010Prop31
280
     0
102
RTVSPost2010PropOp31
 70
     0
102
RTVSPost2010Prop32
280
     0
102
RTVSPost2010PropOp32
 70
     0
102
RTVSPost2010Prop33
280
     0
102
RTVSPost2010PropOp33
 70
     0
102
RTVSPost2010Prop34
280
     0
102
RTVSPost2010PropOp34
 70
     0
102
RTVSPost2010Prop35
280
     0
102
RTVSPost2010PropOp35
 70
     0
102
RTVSPost2010Prop36
280
     0
102
RTVSPost2010PropOp36
 70
     0
102
RTVSPost2010Prop37
 90
       50
102
RTVSPost2010PropOp37
 70
     0
102
RTVSPost2010Prop38
140
0.0
102
RTVSPost2010PropOp38
 70
     0
102
RTVSPost2010Prop39
140
1.0
102
RTVSPost2010PropOp39
 70
     0
102
RTVSPost2010Prop40
 90
        0
102
RTVSPost2010PropOp40
 70
     0
102
RTVSPost2010Prop41ColorIndex
 90
       18
102
RTVSPost2010Prop41ColorRGB
 90
        0
102
RTVSPost2010PropOp41
 70
     0
102
RTVSPost2010Prop42
 90
       50
102
RTVSPost2010PropOp42
 70
     0
102
RTVSPost2010Prop43
 90
        3
102
RTVSPost2010PropOp43
 70
     0
102
RTVSPost2010Prop44ColorIndex
 90
        5
102
RTVSPost2010Prop44ColorRGB
 90
      255
102
RTVSPost2010PropOp44
 70
     0
102
RTVSPost2010Prop45
280
     0
102
RTVSPost2010PropOp45
 70
     0
102
RTVSPost2010Prop46
 90
       50
102
RTVSPost2010PropOp46
 70
     0
102
RTVSPost2010Prop47
 90
       50
102
RTVSPost2010PropOp47
 70
     0
102
RTVSPost2010Prop48
 90
       50
102
RTVSPost2010PropOp48
 70
     0
102
RTVSPost2010Prop49
280
     0
102
RTVSPost2010PropOp49
 70
     0
102
RTVSPost2010Prop50
 90
       50
102
RTVSPost2010PropOp50
 70
     0
102
RTVSPost2010Prop51ColorIndex
 90
      256
102
RTVSPost2010Prop51ColorRGB
 90
-16777216
102
RTVSPost2010PropOp51
 70
     0
102
RTVSPost2010Prop52
140
1.0
102
RTVSPost2010PropOp52
 70
     0
102
RTVSPost2010Prop53
 90
        2
102
RTVSPost2010PropOp53
 70
     0
102
RTVSPost2010Prop54
  1
strokes_ogs.tif
102
RTVSPost2010PropOp54
 70
     0
102
RTVSPost2010Prop55
280
     0
102
RTVSPost2010PropOp55
 70
     0
102
RTVSPost2010Prop56
140
1.0
102
RTVSPost2010PropOp56
 70
     0
102
RTVSPost2010Prop57
140
1.0
102
RTVSPost2010PropOp57
 70
     0
102
RTVSPropertyOp0
 70
     0
102
RTVSPropertyOp1
 70
     0
102
RTVSPropertyOp2
 70
     0
102
RTVSPropertyOp3
 70
     0
102
RTVSPropertyOp4
 70
     0
102
RTVSPropertyOp5
 70
     0
102
RTVSPropertyOp6
 70
     0
102
RTVSPropertyOp7
 70
     0
102
RTVSPropertyOp8
 70
     0
102
RTVSPropertyOp9
 70
     0
102
RTVSPropertyOp10
 70
     0
102
RTVSPropertyOp11
 70
     0
102
RTVSPropertyOp12
 70
     0
102
RTVSPropertyOp13
 70
     0
102
RTVSPropertyOp14
 70
     2
102
RTVSPropertyOp15
 70
     0
102
RTVSPropertyOp16
 70
     0
102
RTVSPropertyOp17
 70
     0
102
RTVSPropertyOp18
 70
     0
102
RTVSPropertyOp19
 70
     0
102
RTVSPropertyOp20
 70
     0
102
RTVSPropertyOp21
 70
     0
102
RTVSPropertyOp22
 70
     0
102
RTVSPropertyOp23
 70
     0
102
RTVSPropertyOp24
 70
     0
102
RTVSPropertyOp25
 70
     0
102
RTVSPropertyOp26
 70
     0
102
RTVSPropertyOp27
 70
     0
102
RTVSPropertyOp28
 70
     0
102
RTVSPropertyOp29
 70
     0
102
RTVSPropertyOp30
 70
     0
102
RTVSPropertyOp31
 70
     0
102
RTVSPropertyOp32
 70
     0
102
RTVSPropertyOp33
 70
     0
102
RTVSPropertyOp34
 70
     0
102
RTVSPropertyOp35
 70
     0
102
RTVSPropertyOp36
 70
     0
102
RTVSPropertyOp37
 70
     0
102
RTVSPropertyOp38
 70
     0
102
RTVSPropertyOp39
 70
     0
102
RTVSPropertyOp40
 70
     0
102
RTVSPropertyOp41
 70
     0
102
RTVSPropertyOp42
 70
     0
102
RTVSPropertyOp43
 70
     0
102
RTVSPropertyOp44
 70
     0
102
RTVSPropertyOp45
 70
     0
102
RTVSPropertyOp46
 70
     0
102
RTVSPropertyOp47
 70
     0
102
RTVSPropertyOp48
 70
     0
102
RTVSPropertyOp49
 70
     0
102
RTVSPropertyOp50
 70
     0
102
RTVSPropertyOp51
 70
     0
102
RTVSPropertyOp52
 70
     0
102
RTVSPropertyOp53
 70
     0
102
RTVSPropertyOp54
 70
     0
102
RTVSPropertyOp55
 70
     0
102
RTVSPropertyOp56
 70
     0
102
RTVSPropertyOp57
 70
     0
102
RTVSPropertyOp58
 70
     1
102
RTVSPropertyOp59
 70
     1
102
RTVSPropertyOp60
 70
     1
102
RTVSPropertyOp61
 70
     1
102
RTVSPropertyOp62
 70
     1
  0
XRECORD
  5
7E5
102
{ACAD_REACTORS
330
7E4
102
}
330
7E4
100
AcDbXrecord
280
     1
102
RTVSPost2010Prop28
280
     0
102
RTVSPost2010PropOp28
 70
     1
102
RTVSPost2010Prop29
280
     1
102
RTVSPost2010PropOp29
 70
     1
102
RTVSPost2010Prop30
280
     1
102
RTVSPost2010PropOp30
 70
     1
102
RTVSPost2010Prop31
280
     0
102
RTVSPost2010PropOp31
 70
     1
102
RTVSPost2010Prop32
280
     0
102
RTVSPost2010PropOp32
 70
     1
102
RTVSPost2010Prop33
280
     0
102
RTVSPost2010PropOp33
 70
     1
102
RTVSPost2010Prop34
280
     0
102
RTVSPost2010PropOp34
 70
     1
102
RTVSPost2010Prop35
280
     0
102
RTVSPost2010PropOp35
 70
     1
102
RTVSPost2010Prop36
280
     0
102
RTVSPost2010PropOp36
 70
     1
102
RTVSPost2010Prop37
 90
       50
102
RTVSPost2010PropOp37
 70
     1
102
RTVSPost2010Prop38
140
0.0
102
RTVSPost2010PropOp38
 70
     1
102
RTVSPost2010Prop39
140
1.0
102
RTVSPost2010PropOp39
 70
     1
102
RTVSPost2010Prop40
 90
        0
102
RTVSPost2010PropOp40
 70
     1
102
RTVSPost2010Prop41ColorIndex
 90
       18
102
RTVSPost2010Prop41ColorRGB
 90
        0
102
RTVSPost2010PropOp41
 70
     1
102
RTVSPost2010Prop42
 90
       50
102
RTVSPost2010PropOp42
 70
     1
102
RTVSPost2010Prop43
 90
        3
102
RTVSPost2010PropOp43
 70
     1
102
RTVSPost2010Prop44ColorIndex
 90
        5
102
RTVSPost2010Prop44ColorRGB
 90
      255
102
RTVSPost2010PropOp44
 70
     1
102
RTVSPost2010Prop45
280
     0
102
RTVSPost2010PropOp45
 70
     1
102
RTVSPost2010Prop46
 90
       50
102
RTVSPost2010PropOp46
 70
     1
102
RTVSPost2010Prop47
 90
       50
102
RTVSPost2010PropOp47
 70
     1
102
RTVSPost2010Prop48
 90
       50
102
RTVSPost2010PropOp48
 70
     1
102
RTVSPost2010Prop49
280
     0
102
RTVSPost2010PropOp49
 70
     1
102
RTVSPost2010Prop50
 90
       50
102
RTVSPost2010PropOp50
 70
     1
102
RTVSPost2010Prop51ColorIndex
 90
      256
102
RTVSPost2010Prop51ColorRGB
 90
-16777216
102
RTVSPost2010PropOp51
 70
     0
102
RTVSPost2010Prop52
140
1.0
102
RTVSPost2010PropOp52
 70
     0
102
RTVSPost2010Prop53
 90
        2
102
RTVSPost2010PropOp53
 70
     1
102
RTVSPost2010Prop54
  1
strokes_ogs.tif
102
RTVSPost2010PropOp54
 70
     1
102
RTVSPost2010Prop55
280
     0
102
RTVSPost2010PropOp55
 70
     1
102
RTVSPost2010Prop56
140
1.0
102
RTVSPost2010PropOp56
 70
     1
102
RTVSPost2010Prop57
140
1.0
102
RTVSPost2010PropOp57
 70
     1
102
RTVSPropertyOp0
 70
     1
102
RTVSPropertyOp1
 70
     1
102
RTVSPropertyOp2
 70
     1
102
RTVSPropertyOp3
 70
     1
102
RTVSPropertyOp4
 70
     1
102
RTVSPropertyOp5
 70
     1
102
RTVSPropertyOp6
 70
     1
102
RTVSPropertyOp7
 70
     1
102
RTVSPropertyOp8
 70
     1
102
RTVSPropertyOp9
 70
     1
102
RTVSPropertyOp10
 70
     1
102
RTVSPropertyOp11
 70
     1
102
RTVSPropertyOp12
 70
     1
102
RTVSPropertyOp13
 70
     1
102
RTVSPropertyOp14
 70
     1
102
RTVSPropertyOp15
 70
     1
102
RTVSPropertyOp16
 70
     1
102
RTVSPropertyOp17
 70
     1
102
RTVSPropertyOp18
 70
     1
102
RTVSPropertyOp19
 70
     1
102
RTVSPropertyOp20
 70
     1
102
RTVSPropertyOp21
 70
     1
102
RTVSPropertyOp22
 70
     1
102
RTVSPropertyOp23
 70
     1
102
RTVSPropertyOp24
 70
     1
102
RTVSPropertyOp25
 70
     1
102
RTVSPropertyOp26
 70
     1
102
RTVSPropertyOp27
 70
     1
102
RTVSPropertyOp28
 70
     1
102
RTVSPropertyOp29
 70
     1
102
RTVSPropertyOp30
 70
     1
102
RTVSPropertyOp31
 70
     1
102
RTVSPropertyOp32
 70
     1
102
RTVSPropertyOp33
 70
     1
102
RTVSPropertyOp34
 70
     1
102
RTVSPropertyOp35
 70
     1
102
RTVSPropertyOp36
 70
     1
102
RTVSPropertyOp37
 70
     1
102
RTVSPropertyOp38
 70
     1
102
RTVSPropertyOp39
 70
     1
102
RTVSPropertyOp40
 70
     1
102
RTVSPropertyOp41
 70
     1
102
RTVSPropertyOp42
 70
     1
102
RTVSPropertyOp43
 70
     1
102
RTVSPropertyOp44
 70
     1
102
RTVSPropertyOp45
 70
     1
102
RTVSPropertyOp46
 70
     1
102
RTVSPropertyOp47
 70
     1
102
RTVSPropertyOp48
 70
     1
102
RTVSPropertyOp49
 70
     1
102
RTVSPropertyOp50
 70
     1
102
RTVSPropertyOp51
 70
     0
102
RTVSPropertyOp52
 70
     0
102
RTVSPropertyOp53
 70
     1
102
RTVSPropertyOp54
 70
     1
102
RTVSPropertyOp55
 70
     1
102
RTVSPropertyOp56
 70
     1
102
RTVSPropertyOp57
 70
     1
102
RTVSPropertyOp58
 70
     1
102
RTVSPropertyOp59
 70
     1
102
RTVSPropertyOp60
 70
     1
102
RTVSPropertyOp61
 70
     1
102
RTVSPropertyOp62
 70
     1
  0
XRECORD
  5
7C9
102
{ACAD_REACTORS
330
7C8
102
}
330
7C8
100
AcDbXrecord
280
     1
102
RTVSPost2010Prop28
280
     0
102
RTVSPost2010PropOp28
 70
     1
102
RTVSPost2010Prop29
280
     1
102
RTVSPost2010PropOp29
 70
     1
102
RTVSPost2010Prop30
280
     1
102
RTVSPost2010PropOp30
 70
     1
102
RTVSPost2010Prop31
280
     0
102
RTVSPost2010PropOp31
 70
     1
102
RTVSPost2010Prop32
280
     0
102
RTVSPost2010PropOp32
 70
     1
102
RTVSPost2010Prop33
280
     0
102
RTVSPost2010PropOp33
 70
     1
102
RTVSPost2010Prop34
280
     0
102
RTVSPost2010PropOp34
 70
     1
102
RTVSPost2010Prop35
280
     0
102
RTVSPost2010PropOp35
 70
     1
102
RTVSPost2010Prop36
280
     0
102
RTVSPost2010PropOp36
 70
     1
102
RTVSPost2010Prop37
 90
       50
102
RTVSPost2010PropOp37
 70
     1
102
RTVSPost2010Prop38
140
0.0
102
RTVSPost2010PropOp38
 70
     1
102
RTVSPost2010Prop39
140
1.0
102
RTVSPost2010PropOp39
 70
     1
102
RTVSPost2010Prop40
 90
        0
102
RTVSPost2010PropOp40
 70
     1
102
RTVSPost2010Prop41ColorIndex
 90
       18
102
RTVSPost2010Prop41ColorRGB
 90
        0
102
RTVSPost2010PropOp41
 70
     1
102
RTVSPost2010Prop42
 90
       50
102
RTVSPost2010PropOp42
 70
     1
102
RTVSPost2010Prop43
 90
        3
102
RTVSPost2010PropOp43
 70
     1
102
RTVSPost2010Prop44ColorIndex
 90
        5
102
RTVSPost2010Prop44ColorRGB
 90
      255
102
RTVSPost2010PropOp44
 70
     1
102
RTVSPost2010Prop45
280
     0
102
RTVSPost2010PropOp45
 70
     1
102
RTVSPost2010Prop46
 90
       50
102
RTVSPost2010PropOp46
 70
     1
102
RTVSPost2010Prop47
 90
       50
102
RTVSPost2010PropOp47
 70
     1
102
RTVSPost2010Prop48
 90
       50
102
RTVSPost2010PropOp48
 70
     1
102
RTVSPost2010Prop49
280
     0
102
RTVSPost2010PropOp49
 70
     1
102
RTVSPost2010Prop50
 90
       50
102
RTVSPost2010PropOp50
 70
     1
102
RTVSPost2010Prop51ColorIndex
 90
      256
102
RTVSPost2010Prop51ColorRGB
 90
-16777216
102
RTVSPost2010PropOp51
 70
     0
102
RTVSPost2010Prop52
140
1.0
102
RTVSPost2010PropOp52
 70
     0
102
RTVSPost2010Prop53
 90
        2
102
RTVSPost2010PropOp53
 70
     1
102
RTVSPost2010Prop54
  1
strokes_ogs.tif
102
RTVSPost2010PropOp54
 70
     1
102
RTVSPost2010Prop55
280
     0
102
RTVSPost2010PropOp55
 70
     1
102
RTVSPost2010Prop56
140
1.0
102
RTVSPost2010PropOp56
 70
     1
102
RTVSPost2010Prop57
140
1.0
102
RTVSPost2010PropOp57
 70
     1
102
RTVSPropertyOp0
 70
     1
102
RTVSPropertyOp1
 70
     1
102
RTVSPropertyOp2
 70
     1
102
RTVSPropertyOp3
 70
     1
102
RTVSPropertyOp4
 70
     1
102
RTVSPropertyOp5
 70
     1
102
RTVSPropertyOp6
 70
     1
102
RTVSPropertyOp7
 70
     1
102
RTVSPropertyOp8
 70
     1
102
RTVSPropertyOp9
 70
     1
102
RTVSPropertyOp10
 70
     1
102
RTVSPropertyOp11
 70
     1
102
RTVSPropertyOp12
 70
     1
102
RTVSPropertyOp13
 70
     1
102
RTVSPropertyOp14
 70
     1
102
RTVSPropertyOp15
 70
     1
102
RTVSPropertyOp16
 70
     1
102
RTVSPropertyOp17
 70
     1
102
RTVSPropertyOp18
 70
     1
102
RTVSPropertyOp19
 70
     1
102
RTVSPropertyOp20
 70
     1
102
RTVSPropertyOp21
 70
     1
102
RTVSPropertyOp22
 70
     1
102
RTVSPropertyOp23
 70
     1
102
RTVSPropertyOp24
 70
     1
102
RTVSPropertyOp25
 70
     1
102
RTVSPropertyOp26
 70
     1
102
RTVSPropertyOp27
 70
     1
102
RTVSPropertyOp28
 70
     1
102
RTVSPropertyOp29
 70
     1
102
RTVSPropertyOp30
 70
     1
102
RTVSPropertyOp31
 70
     1
102
RTVSPropertyOp32
 70
     1
102
RTVSPropertyOp33
 70
     1
102
RTVSPropertyOp34
 70
     1
102
RTVSPropertyOp35
 70
     1
102
RTVSPropertyOp36
 70
     1
102
RTVSPropertyOp37
 70
     1
102
RTVSPropertyOp38
 70
     1
102
RTVSPropertyOp39
 70
     1
102
RTVSPropertyOp40
 70
     1
102
RTVSPropertyOp41
 70
     1
102
RTVSPropertyOp42
 70
     1
102
RTVSPropertyOp43
 70
     1
102
RTVSPropertyOp44
 70
     1
102
RTVSPropertyOp45
 70
     1
102
RTVSPropertyOp46
 70
     1
102
RTVSPropertyOp47
 70
     1
102
RTVSPropertyOp48
 70
     1
102
RTVSPropertyOp49
 70
     1
102
RTVSPropertyOp50
 70
     1
102
RTVSPropertyOp51
 70
     0
102
RTVSPropertyOp52
 70
     0
102
RTVSPropertyOp53
 70
     1
102
RTVSPropertyOp54
 70
     1
102
RTVSPropertyOp55
 70
     1
102
RTVSPropertyOp56
 70
     1
102
RTVSPropertyOp57
 70
     1
102
RTVSPropertyOp58
 70
     1
102
RTVSPropertyOp59
 70
     1
102
RTVSPropertyOp60
 70
     1
102
RTVSPropertyOp61
 70
     1
102
RTVSPropertyOp62
 70
     1
  0
XRECORD
  5
7CB
102
{ACAD_REACTORS
330
7CA
102
}
330
7CA
100
AcDbXrecord
280
     1
102
RTVSPost2010Prop28
280
     0
102
RTVSPost2010PropOp28
 70
     1
102
RTVSPost2010Prop29
280
     1
102
RTVSPost2010PropOp29
 70
     1
102
RTVSPost2010Prop30
280
     1
102
RTVSPost2010PropOp30
 70
     1
102
RTVSPost2010Prop31
280
     0
102
RTVSPost2010PropOp31
 70
     1
102
RTVSPost2010Prop32
280
     0
102
RTVSPost2010PropOp32
 70
     1
102
RTVSPost2010Prop33
280
     0
102
RTVSPost2010PropOp33
 70
     1
102
RTVSPost2010Prop34
280
     0
102
RTVSPost2010PropOp34
 70
     1
102
RTVSPost2010Prop35
280
     0
102
RTVSPost2010PropOp35
 70
     1
102
RTVSPost2010Prop36
280
     0
102
RTVSPost2010PropOp36
 70
     1
102
RTVSPost2010Prop37
 90
       50
102
RTVSPost2010PropOp37
 70
     1
102
RTVSPost2010Prop38
140
0.0
102
RTVSPost2010PropOp38
 70
     1
102
RTVSPost2010Prop39
140
1.0
102
RTVSPost2010PropOp39
 70
     1
102
RTVSPost2010Prop40
 90
        0
102
RTVSPost2010PropOp40
 70
     1
102
RTVSPost2010Prop41ColorIndex
 90
       18
102
RTVSPost2010Prop41ColorRGB
 90
        0
102
RTVSPost2010PropOp41
 70
     1
102
RTVSPost2010Prop42
 90
       50
102
RTVSPost2010PropOp42
 70
     1
102
RTVSPost2010Prop43
 90
        3
102
RTVSPost2010PropOp43
 70
     1
102
RTVSPost2010Prop44ColorIndex
 90
        5
102
RTVSPost2010Prop44ColorRGB
 90
      255
102
RTVSPost2010PropOp44
 70
     1
102
RTVSPost2010Prop45
280
     0
102
RTVSPost2010PropOp45
 70
     1
102
RTVSPost2010Prop46
 90
       50
102
RTVSPost2010PropOp46
 70
     1
102
RTVSPost2010Prop47
 90
       50
102
RTVSPost2010PropOp47
 70
     1
102
RTVSPost2010Prop48
 90
       50
102
RTVSPost2010PropOp48
 70
     1
102
RTVSPost2010Prop49
280
     0
102
RTVSPost2010PropOp49
 70
     1
102
RTVSPost2010Prop50
 90
       50
102
RTVSPost2010PropOp50
 70
     1
102
RTVSPost2010Prop51ColorIndex
 90
      256
102
RTVSPost2010Prop51ColorRGB
 90
-16777216
102
RTVSPost2010PropOp51
 70
     0
102
RTVSPost2010Prop52
140
1.0
102
RTVSPost2010PropOp52
 70
     0
102
RTVSPost2010Prop53
 90
        2
102
RTVSPost2010PropOp53
 70
     1
102
RTVSPost2010Prop54
  1
strokes_ogs.tif
102
RTVSPost2010PropOp54
 70
     1
102
RTVSPost2010Prop55
280
     0
102
RTVSPost2010PropOp55
 70
     1
102
RTVSPost2010Prop56
140
1.0
102
RTVSPost2010PropOp56
 70
     1
102
RTVSPost2010Prop57
140
1.0
102
RTVSPost2010PropOp57
 70
     1
102
RTVSPropertyOp0
 70
     1
102
RTVSPropertyOp1
 70
     1
102
RTVSPropertyOp2
 70
     1
102
RTVSPropertyOp3
 70
     1
102
RTVSPropertyOp4
 70
     1
102
RTVSPropertyOp5
 70
     1
102
RTVSPropertyOp6
 70
     1
102
RTVSPropertyOp7
 70
     1
102
RTVSPropertyOp8
 70
     1
102
RTVSPropertyOp9
 70
     1
102
RTVSPropertyOp10
 70
     1
102
RTVSPropertyOp11
 70
     1
102
RTVSPropertyOp12
 70
     1
102
RTVSPropertyOp13
 70
     1
102
RTVSPropertyOp14
 70
     1
102
RTVSPropertyOp15
 70
     1
102
RTVSPropertyOp16
 70
     1
102
RTVSPropertyOp17
 70
     1
102
RTVSPropertyOp18
 70
     1
102
RTVSPropertyOp19
 70
     1
102
RTVSPropertyOp20
 70
     1
102
RTVSPropertyOp21
 70
     1
102
RTVSPropertyOp22
 70
     1
102
RTVSPropertyOp23
 70
     1
102
RTVSPropertyOp24
 70
     1
102
RTVSPropertyOp25
 70
     1
102
RTVSPropertyOp26
 70
     1
102
RTVSPropertyOp27
 70
     1
102
RTVSPropertyOp28
 70
     1
102
RTVSPropertyOp29
 70
     1
102
RTVSPropertyOp30
 70
     1
102
RTVSPropertyOp31
 70
     1
102
RTVSPropertyOp32
 70
     1
102
RTVSPropertyOp33
 70
     1
102
RTVSPropertyOp34
 70
     1
102
RTVSPropertyOp35
 70
     1
102
RTVSPropertyOp36
 70
     1
102
RTVSPropertyOp37
 70
     1
102
RTVSPropertyOp38
 70
     1
102
RTVSPropertyOp39
 70
     1
102
RTVSPropertyOp40
 70
     1
102
RTVSPropertyOp41
 70
     1
102
RTVSPropertyOp42
 70
     1
102
RTVSPropertyOp43
 70
     1
102
RTVSPropertyOp44
 70
     1
102
RTVSPropertyOp45
 70
     1
102
RTVSPropertyOp46
 70
     1
102
RTVSPropertyOp47
 70
     1
102
RTVSPropertyOp48
 70
     1
102
RTVSPropertyOp49
 70
     1
102
RTVSPropertyOp50
 70
     1
102
RTVSPropertyOp51
 70
     0
102
RTVSPropertyOp52
 70
     0
102
RTVSPropertyOp53
 70
     1
102
RTVSPropertyOp54
 70
     1
102
RTVSPropertyOp55
 70
     1
102
RTVSPropertyOp56
 70
     1
102
RTVSPropertyOp57
 70
     1
102
RTVSPropertyOp58
 70
     1
102
RTVSPropertyOp59
 70
     1
102
RTVSPropertyOp60
 70
     1
102
RTVSPropertyOp61
 70
     1
102
RTVSPropertyOp62
 70
     1
  0
XRECORD
  5
7CD
102
{ACAD_REACTORS
330
7CC
102
}
330
7CC
100
AcDbXrecord
280
     1
102
RTVSPost2010Prop28
280
     0
102
RTVSPost2010PropOp28
 70
     1
102
RTVSPost2010Prop29
280
     1
102
RTVSPost2010PropOp29
 70
     1
102
RTVSPost2010Prop30
280
     1
102
RTVSPost2010PropOp30
 70
     1
102
RTVSPost2010Prop31
280
     0
102
RTVSPost2010PropOp31
 70
     1
102
RTVSPost2010Prop32
280
     0
102
RTVSPost2010PropOp32
 70
     1
102
RTVSPost2010Prop33
280
     0
102
RTVSPost2010PropOp33
 70
     1
102
RTVSPost2010Prop34
280
     0
102
RTVSPost2010PropOp34
 70
     1
102
RTVSPost2010Prop35
280
     0
102
RTVSPost2010PropOp35
 70
     1
102
RTVSPost2010Prop36
280
     0
102
RTVSPost2010PropOp36
 70
     1
102
RTVSPost2010Prop37
 90
       50
102
RTVSPost2010PropOp37
 70
     1
102
RTVSPost2010Prop38
140
0.0
102
RTVSPost2010PropOp38
 70
     1
102
RTVSPost2010Prop39
140
1.0
102
RTVSPost2010PropOp39
 70
     1
102
RTVSPost2010Prop40
 90
        0
102
RTVSPost2010PropOp40
 70
     1
102
RTVSPost2010Prop41ColorIndex
 90
       18
102
RTVSPost2010Prop41ColorRGB
 90
        0
102
RTVSPost2010PropOp41
 70
     1
102
RTVSPost2010Prop42
 90
       50
102
RTVSPost2010PropOp42
 70
     1
102
RTVSPost2010Prop43
 90
        3
102
RTVSPost2010PropOp43
 70
     1
102
RTVSPost2010Prop44ColorIndex
 90
        5
102
RTVSPost2010Prop44ColorRGB
 90
      255
102
RTVSPost2010PropOp44
 70
     1
102
RTVSPost2010Prop45
280
     0
102
RTVSPost2010PropOp45
 70
     1
102
RTVSPost2010Prop46
 90
       50
102
RTVSPost2010PropOp46
 70
     1
102
RTVSPost2010Prop47
 90
       50
102
RTVSPost2010PropOp47
 70
     1
102
RTVSPost2010Prop48
 90
       50
102
RTVSPost2010PropOp48
 70
     1
102
RTVSPost2010Prop49
280
     0
102
RTVSPost2010PropOp49
 70
     1
102
RTVSPost2010Prop50
 90
       50
102
RTVSPost2010PropOp50
 70
     1
102
RTVSPost2010Prop51ColorIndex
 90
      256
102
RTVSPost2010Prop51ColorRGB
 90
-16777216
102
RTVSPost2010PropOp51
 70
     0
102
RTVSPost2010Prop52
140
1.0
102
RTVSPost2010PropOp52
 70
     0
102
RTVSPost2010Prop53
 90
        2
102
RTVSPost2010PropOp53
 70
     1
102
RTVSPost2010Prop54
  1
strokes_ogs.tif
102
RTVSPost2010PropOp54
 70
     1
102
RTVSPost2010Prop55
280
     0
102
RTVSPost2010PropOp55
 70
     1
102
RTVSPost2010Prop56
140
1.0
102
RTVSPost2010PropOp56
 70
     1
102
RTVSPost2010Prop57
140
1.0
102
RTVSPost2010PropOp57
 70
     1
102
RTVSPropertyOp0
 70
     1
102
RTVSPropertyOp1
 70
     1
102
RTVSPropertyOp2
 70
     1
102
RTVSPropertyOp3
 70
     1
102
RTVSPropertyOp4
 70
     1
102
RTVSPropertyOp5
 70
     1
102
RTVSPropertyOp6
 70
     1
102
RTVSPropertyOp7
 70
     1
102
RTVSPropertyOp8
 70
     1
102
RTVSPropertyOp9
 70
     1
102
RTVSPropertyOp10
 70
     1
102
RTVSPropertyOp11
 70
     1
102
RTVSPropertyOp12
 70
     1
102
RTVSPropertyOp13
 70
     1
102
RTVSPropertyOp14
 70
     1
102
RTVSPropertyOp15
 70
     1
102
RTVSPropertyOp16
 70
     1
102
RTVSPropertyOp17
 70
     1
102
RTVSPropertyOp18
 70
     1
102
RTVSPropertyOp19
 70
     1
102
RTVSPropertyOp20
 70
     1
102
RTVSPropertyOp21
 70
     1
102
RTVSPropertyOp22
 70
     1
102
RTVSPropertyOp23
 70
     1
102
RTVSPropertyOp24
 70
     1
102
RTVSPropertyOp25
 70
     1
102
RTVSPropertyOp26
 70
     1
102
RTVSPropertyOp27
 70
     1
102
RTVSPropertyOp28
 70
     1
102
RTVSPropertyOp29
 70
     1
102
RTVSPropertyOp30
 70
     1
102
RTVSPropertyOp31
 70
     1
102
RTVSPropertyOp32
 70
     1
102
RTVSPropertyOp33
 70
     1
102
RTVSPropertyOp34
 70
     1
102
RTVSPropertyOp35
 70
     1
102
RTVSPropertyOp36
 70
     1
102
RTVSPropertyOp37
 70
     1
102
RTVSPropertyOp38
 70
     1
102
RTVSPropertyOp39
 70
     1
102
RTVSPropertyOp40
 70
     1
102
RTVSPropertyOp41
 70
     1
102
RTVSPropertyOp42
 70
     1
102
RTVSPropertyOp43
 70
     1
102
RTVSPropertyOp44
 70
     1
102
RTVSPropertyOp45
 70
     1
102
RTVSPropertyOp46
 70
     1
102
RTVSPropertyOp47
 70
     1
102
RTVSPropertyOp48
 70
     1
102
RTVSPropertyOp49
 70
     1
102
RTVSPropertyOp50
 70
     1
102
RTVSPropertyOp51
 70
     0
102
RTVSPropertyOp52
 70
     0
102
RTVSPropertyOp53
 70
     1
102
RTVSPropertyOp54
 70
     1
102
RTVSPropertyOp55
 70
     1
102
RTVSPropertyOp56
 70
     1
102
RTVSPropertyOp57
 70
     1
102
RTVSPropertyOp58
 70
     1
102
RTVSPropertyOp59
 70
     1
102
RTVSPropertyOp60
 70
     1
102
RTVSPropertyOp61
 70
     1
102
RTVSPropertyOp62
 70
     1
  0
XRECORD
  5
7CF
102
{ACAD_REACTORS
330
7CE
102
}
330
7CE
100
AcDbXrecord
280
     1
102
RTVSPost2010Prop28
280
     0
102
RTVSPost2010PropOp28
 70
     1
102
RTVSPost2010Prop29
280
     1
102
RTVSPost2010PropOp29
 70
     1
102
RTVSPost2010Prop30
280
     1
102
RTVSPost2010PropOp30
 70
     1
102
RTVSPost2010Prop31
280
     0
102
RTVSPost2010PropOp31
 70
     1
102
RTVSPost2010Prop32
280
     0
102
RTVSPost2010PropOp32
 70
     1
102
RTVSPost2010Prop33
280
     0
102
RTVSPost2010PropOp33
 70
     1
102
RTVSPost2010Prop34
280
     0
102
RTVSPost2010PropOp34
 70
     1
102
RTVSPost2010Prop35
280
     0
102
RTVSPost2010PropOp35
 70
     1
102
RTVSPost2010Prop36
280
     0
102
RTVSPost2010PropOp36
 70
     1
102
RTVSPost2010Prop37
 90
       50
102
RTVSPost2010PropOp37
 70
     1
102
RTVSPost2010Prop38
140
0.0
102
RTVSPost2010PropOp38
 70
     1
102
RTVSPost2010Prop39
140
1.0
102
RTVSPost2010PropOp39
 70
     1
102
RTVSPost2010Prop40
 90
        0
102
RTVSPost2010PropOp40
 70
     1
102
RTVSPost2010Prop41ColorIndex
 90
       18
102
RTVSPost2010Prop41ColorRGB
 90
        0
102
RTVSPost2010PropOp41
 70
     1
102
RTVSPost2010Prop42
 90
       50
102
RTVSPost2010PropOp42
 70
     1
102
RTVSPost2010Prop43
 90
        3
102
RTVSPost2010PropOp43
 70
     1
102
RTVSPost2010Prop44ColorIndex
 90
        5
102
RTVSPost2010Prop44ColorRGB
 90
      255
102
RTVSPost2010PropOp44
 70
     1
102
RTVSPost2010Prop45
280
     0
102
RTVSPost2010PropOp45
 70
     1
102
RTVSPost2010Prop46
 90
       50
102
RTVSPost2010PropOp46
 70
     1
102
RTVSPost2010Prop47
 90
       50
102
RTVSPost2010PropOp47
 70
     1
102
RTVSPost2010Prop48
 90
       50
102
RTVSPost2010PropOp48
 70
     1
102
RTVSPost2010Prop49
280
     0
102
RTVSPost2010PropOp49
 70
     1
102
RTVSPost2010Prop50
 90
       50
102
RTVSPost2010PropOp50
 70
     1
102
RTVSPost2010Prop51ColorIndex
 90
      256
102
RTVSPost2010Prop51ColorRGB
 90
-16777216
102
RTVSPost2010PropOp51
 70
     0
102
RTVSPost2010Prop52
140
1.0
102
RTVSPost2010PropOp52
 70
     0
102
RTVSPost2010Prop53
 90
        2
102
RTVSPost2010PropOp53
 70
     1
102
RTVSPost2010Prop54
  1
strokes_ogs.tif
102
RTVSPost2010PropOp54
 70
     1
102
RTVSPost2010Prop55
280
     0
102
RTVSPost2010PropOp55
 70
     1
102
RTVSPost2010Prop56
140
1.0
102
RTVSPost2010PropOp56
 70
     1
102
RTVSPost2010Prop57
140
1.0
102
RTVSPost2010PropOp57
 70
     1
102
RTVSPropertyOp0
 70
     1
102
RTVSPropertyOp1
 70
     1
102
RTVSPropertyOp2
 70
     1
102
RTVSPropertyOp3
 70
     1
102
RTVSPropertyOp4
 70
     1
102
RTVSPropertyOp5
 70
     1
102
RTVSPropertyOp6
 70
     1
102
RTVSPropertyOp7
 70
     1
102
RTVSPropertyOp8
 70
     1
102
RTVSPropertyOp9
 70
     1
102
RTVSPropertyOp10
 70
     1
102
RTVSPropertyOp11
 70
     1
102
RTVSPropertyOp12
 70
     1
102
RTVSPropertyOp13
 70
     1
102
RTVSPropertyOp14
 70
     1
102
RTVSPropertyOp15
 70
     1
102
RTVSPropertyOp16
 70
     1
102
RTVSPropertyOp17
 70
     1
102
RTVSPropertyOp18
 70
     1
102
RTVSPropertyOp19
 70
     1
102
RTVSPropertyOp20
 70
     1
102
RTVSPropertyOp21
 70
     1
102
RTVSPropertyOp22
 70
     1
102
RTVSPropertyOp23
 70
     1
102
RTVSPropertyOp24
 70
     1
102
RTVSPropertyOp25
 70
     1
102
RTVSPropertyOp26
 70
     1
102
RTVSPropertyOp27
 70
     1
102
RTVSPropertyOp28
 70
     1
102
RTVSPropertyOp29
 70
     1
102
RTVSPropertyOp30
 70
     1
102
RTVSPropertyOp31
 70
     1
102
RTVSPropertyOp32
 70
     1
102
RTVSPropertyOp33
 70
     1
102
RTVSPropertyOp34
 70
     1
102
RTVSPropertyOp35
 70
     1
102
RTVSPropertyOp36
 70
     1
102
RTVSPropertyOp37
 70
     1
102
RTVSPropertyOp38
 70
     1
102
RTVSPropertyOp39
 70
     1
102
RTVSPropertyOp40
 70
     1
102
RTVSPropertyOp41
 70
     1
102
RTVSPropertyOp42
 70
     1
102
RTVSPropertyOp43
 70
     1
102
RTVSPropertyOp44
 70
     1
102
RTVSPropertyOp45
 70
     1
102
RTVSPropertyOp46
 70
     1
102
RTVSPropertyOp47
 70
     1
102
RTVSPropertyOp48
 70
     1
102
RTVSPropertyOp49
 70
     1
102
RTVSPropertyOp50
 70
     1
102
RTVSPropertyOp51
 70
     0
102
RTVSPropertyOp52
 70
     0
102
RTVSPropertyOp53
 70
     1
102
RTVSPropertyOp54
 70
     1
102
RTVSPropertyOp55
 70
     1
102
RTVSPropertyOp56
 70
     1
102
RTVSPropertyOp57
 70
     1
102
RTVSPropertyOp58
 70
     1
102
RTVSPropertyOp59
 70
     1
102
RTVSPropertyOp60
 70
     1
102
RTVSPropertyOp61
 70
     1
102
RTVSPropertyOp62
 70
     1
  0
XRECORD
  5
7D7
102
{ACAD_REACTORS
330
7D6
102
}
330
7D6
100
AcDbXrecord
280
     1
102
RTVSPost2010Prop28
280
     0
102
RTVSPost2010PropOp28
 70
     1
102
RTVSPost2010Prop29
280
     1
102
RTVSPost2010PropOp29
 70
     1
102
RTVSPost2010Prop30
280
     1
102
RTVSPost2010PropOp30
 70
     1
102
RTVSPost2010Prop31
280
     0
102
RTVSPost2010PropOp31
 70
     1
102
RTVSPost2010Prop32
280
     0
102
RTVSPost2010PropOp32
 70
     1
102
RTVSPost2010Prop33
280
     0
102
RTVSPost2010PropOp33
 70
     1
102
RTVSPost2010Prop34
280
     0
102
RTVSPost2010PropOp34
 70
     1
102
RTVSPost2010Prop35
280
     0
102
RTVSPost2010PropOp35
 70
     1
102
RTVSPost2010Prop36
280
     0
102
RTVSPost2010PropOp36
 70
     1
102
RTVSPost2010Prop37
 90
       50
102
RTVSPost2010PropOp37
 70
     1
102
RTVSPost2010Prop38
140
0.0
102
RTVSPost2010PropOp38
 70
     1
102
RTVSPost2010Prop39
140
1.0
102
RTVSPost2010PropOp39
 70
     1
102
RTVSPost2010Prop40
 90
        0
102
RTVSPost2010PropOp40
 70
     1
102
RTVSPost2010Prop41ColorIndex
 90
       18
102
RTVSPost2010Prop41ColorRGB
 90
        0
102
RTVSPost2010PropOp41
 70
     1
102
RTVSPost2010Prop42
 90
       50
102
RTVSPost2010PropOp42
 70
     1
102
RTVSPost2010Prop43
 90
        3
102
RTVSPost2010PropOp43
 70
     1
102
RTVSPost2010Prop44ColorIndex
 90
        5
102
RTVSPost2010Prop44ColorRGB
 90
      255
102
RTVSPost2010PropOp44
 70
     1
102
RTVSPost2010Prop45
280
     0
102
RTVSPost2010PropOp45
 70
     1
102
RTVSPost2010Prop46
 90
       50
102
RTVSPost2010PropOp46
 70
     1
102
RTVSPost2010Prop47
 90
       50
102
RTVSPost2010PropOp47
 70
     1
102
RTVSPost2010Prop48
 90
       50
102
RTVSPost2010PropOp48
 70
     1
102
RTVSPost2010Prop49
280
     0
102
RTVSPost2010PropOp49
 70
     1
102
RTVSPost2010Prop50
 90
       50
102
RTVSPost2010PropOp50
 70
     1
102
RTVSPost2010Prop51ColorIndex
 90
      256
102
RTVSPost2010Prop51ColorRGB
 90
-16777216
102
RTVSPost2010PropOp51
 70
     0
102
RTVSPost2010Prop52
140
1.0
102
RTVSPost2010PropOp52
 70
     0
102
RTVSPost2010Prop53
 90
        2
102
RTVSPost2010PropOp53
 70
     1
102
RTVSPost2010Prop54
  1
strokes_ogs.tif
102
RTVSPost2010PropOp54
 70
     1
102
RTVSPost2010Prop55
280
     0
102
RTVSPost2010PropOp55
 70
     1
102
RTVSPost2010Prop56
140
1.0
102
RTVSPost2010PropOp56
 70
     1
102
RTVSPost2010Prop57
140
1.0
102
RTVSPost2010PropOp57
 70
     1
102
RTVSPropertyOp0
 70
     1
102
RTVSPropertyOp1
 70
     1
102
RTVSPropertyOp2
 70
     1
102
RTVSPropertyOp3
 70
     1
102
RTVSPropertyOp4
 70
     1
102
RTVSPropertyOp5
 70
     1
102
RTVSPropertyOp6
 70
     1
102
RTVSPropertyOp7
 70
     1
102
RTVSPropertyOp8
 70
     1
102
RTVSPropertyOp9
 70
     1
102
RTVSPropertyOp10
 70
     1
102
RTVSPropertyOp11
 70
     1
102
RTVSPropertyOp12
 70
     1
102
RTVSPropertyOp13
 70
     1
102
RTVSPropertyOp14
 70
     1
102
RTVSPropertyOp15
 70
     1
102
RTVSPropertyOp16
 70
     1
102
RTVSPropertyOp17
 70
     1
102
RTVSPropertyOp18
 70
     1
102
RTVSPropertyOp19
 70
     1
102
RTVSPropertyOp20
 70
     1
102
RTVSPropertyOp21
 70
     1
102
RTVSPropertyOp22
 70
     1
102
RTVSPropertyOp23
 70
     1
102
RTVSPropertyOp24
 70
     1
102
RTVSPropertyOp25
 70
     1
102
RTVSPropertyOp26
 70
     1
102
RTVSPropertyOp27
 70
     1
102
RTVSPropertyOp28
 70
     1
102
RTVSPropertyOp29
 70
     1
102
RTVSPropertyOp30
 70
     1
102
RTVSPropertyOp31
 70
     1
102
RTVSPropertyOp32
 70
     1
102
RTVSPropertyOp33
 70
     1
102
RTVSPropertyOp34
 70
     1
102
RTVSPropertyOp35
 70
     1
102
RTVSPropertyOp36
 70
     1
102
RTVSPropertyOp37
 70
     1
102
RTVSPropertyOp38
 70
     1
102
RTVSPropertyOp39
 70
     1
102
RTVSPropertyOp40
 70
     1
102
RTVSPropertyOp41
 70
     1
102
RTVSPropertyOp42
 70
     1
102
RTVSPropertyOp43
 70
     1
102
RTVSPropertyOp44
 70
     1
102
RTVSPropertyOp45
 70
     1
102
RTVSPropertyOp46
 70
     1
102
RTVSPropertyOp47
 70
     1
102
RTVSPropertyOp48
 70
     1
102
RTVSPropertyOp49
 70
     1
102
RTVSPropertyOp50
 70
     1
102
RTVSPropertyOp51
 70
     0
102
RTVSPropertyOp52
 70
     0
102
RTVSPropertyOp53
 70
     1
102
RTVSPropertyOp54
 70
     1
102
RTVSPropertyOp55
 70
     1
102
RTVSPropertyOp56
 70
     1
102
RTVSPropertyOp57
 70
     1
102
RTVSPropertyOp58
 70
     1
102
RTVSPropertyOp59
 70
     1
102
RTVSPropertyOp60
 70
     1
102
RTVSPropertyOp61
 70
     1
102
RTVSPropertyOp62
 70
     1
  0
XRECORD
  5
7F3
102
{ACAD_REACTORS
330
7F2
102
}
330
7F2
100
AcDbXrecord
280
     1
102
RTVSPost2010Prop28
280
     0
102
RTVSPost2010PropOp28
 70
     0
102
RTVSPost2010Prop29
280
     1
102
RTVSPost2010PropOp29
 70
     0
102
RTVSPost2010Prop30
280
     1
102
RTVSPost2010PropOp30
 70
     0
102
RTVSPost2010Prop31
280
     0
102
RTVSPost2010PropOp31
 70
     0
102
RTVSPost2010Prop32
280
     0
102
RTVSPost2010PropOp32
 70
     0
102
RTVSPost2010Prop33
280
     0
102
RTVSPost2010PropOp33
 70
     0
102
RTVSPost2010Prop34
280
     0
102
RTVSPost2010PropOp34
 70
     0
102
RTVSPost2010Prop35
280
     0
102
RTVSPost2010PropOp35
 70
     0
102
RTVSPost2010Prop36
280
     0
102
RTVSPost2010PropOp36
 70
     0
102
RTVSPost2010Prop37
 90
       50
102
RTVSPost2010PropOp37
 70
     0
102
RTVSPost2010Prop38
140
0.0
102
RTVSPost2010PropOp38
 70
     0
102
RTVSPost2010Prop39
140
1.0
102
RTVSPost2010PropOp39
 70
     0
102
RTVSPost2010Prop40
 90
        0
102
RTVSPost2010PropOp40
 70
     0
102
RTVSPost2010Prop41ColorIndex
 90
       18
102
RTVSPost2010Prop41ColorRGB
 90
        0
102
RTVSPost2010PropOp41
 70
     0
102
RTVSPost2010Prop42
 90
       50
102
RTVSPost2010PropOp42
 70
     0
102
RTVSPost2010Prop43
 90
        3
102
RTVSPost2010PropOp43
 70
     0
102
RTVSPost2010Prop44ColorIndex
 90
        5
102
RTVSPost2010Prop44ColorRGB
 90
      255
102
RTVSPost2010PropOp44
 70
     0
102
RTVSPost2010Prop45
280
     0
102
RTVSPost2010PropOp45
 70
     0
102
RTVSPost2010Prop46
 90
       50
102
RTVSPost2010PropOp46
 70
     0
102
RTVSPost2010Prop47
 90
       50
102
RTVSPost2010PropOp47
 70
     0
102
RTVSPost2010Prop48
 90
       50
102
RTVSPost2010PropOp48
 70
     0
102
RTVSPost2010Prop49
280
     0
102
RTVSPost2010PropOp49
 70
     0
102
RTVSPost2010Prop50
 90
       50
102
RTVSPost2010PropOp50
 70
     0
102
RTVSPost2010Prop51ColorIndex
 90
      256
102
RTVSPost2010Prop51ColorRGB
 90
-16777216
102
RTVSPost2010PropOp51
 70
     0
102
RTVSPost2010Prop52
140
1.0
102
RTVSPost2010PropOp52
 70
     0
102
RTVSPost2010Prop53
 90
        2
102
RTVSPost2010PropOp53
 70
     0
102
RTVSPost2010Prop54
  1
strokes_ogs.tif
102
RTVSPost2010PropOp54
 70
     0
102
RTVSPost2010Prop55
280
     0
102
RTVSPost2010PropOp55
 70
     0
102
RTVSPost2010Prop56
140
1.0
102
RTVSPost2010PropOp56
 70
     0
102
RTVSPost2010Prop57
140
1.0
102
RTVSPost2010PropOp57
 70
     0
102
RTVSPropertyOp0
 70
     0
102
RTVSPropertyOp1
 70
     0
102
RTVSPropertyOp2
 70
     0
102
RTVSPropertyOp3
 70
     0
102
RTVSPropertyOp4
 70
     0
102
RTVSPropertyOp5
 70
     0
102
RTVSPropertyOp6
 70
     0
102
RTVSPropertyOp7
 70
     0
102
RTVSPropertyOp8
 70
     0
102
RTVSPropertyOp9
 70
     0
102
RTVSPropertyOp10
 70
     0
102
RTVSPropertyOp11
 70
     0
102
RTVSPropertyOp12
 70
     0
102
RTVSPropertyOp13
 70
     0
102
RTVSPropertyOp14
 70
     2
102
RTVSPropertyOp15
 70
     0
102
RTVSPropertyOp16
 70
     0
102
RTVSPropertyOp17
 70
     0
102
RTVSPropertyOp18
 70
     0
102
RTVSPropertyOp19
 70
     0
102
RTVSPropertyOp20
 70
     0
102
RTVSPropertyOp21
 70
     0
102
RTVSPropertyOp22
 70
     0
102
RTVSPropertyOp23
 70
     0
102
RTVSPropertyOp24
 70
     0
102
RTVSPropertyOp25
 70
     0
102
RTVSPropertyOp26
 70
     0
102
RTVSPropertyOp27
 70
     0
102
RTVSPropertyOp28
 70
     0
102
RTVSPropertyOp29
 70
     0
102
RTVSPropertyOp30
 70
     0
102
RTVSPropertyOp31
 70
     0
102
RTVSPropertyOp32
 70
     0
102
RTVSPropertyOp33
 70
     0
102
RTVSPropertyOp34
 70
     0
102
RTVSPropertyOp35
 70
     0
102
RTVSPropertyOp36
 70
     0
102
RTVSPropertyOp37
 70
     0
102
RTVSPropertyOp38
 70
     0
102
RTVSPropertyOp39
 70
     0
102
RTVSPropertyOp40
 70
     0
102
RTVSPropertyOp41
 70
     0
102
RTVSPropertyOp42
 70
     0
102
RTVSPropertyOp43
 70
     0
102
RTVSPropertyOp44
 70
     0
102
RTVSPropertyOp45
 70
     0
102
RTVSPropertyOp46
 70
     0
102
RTVSPropertyOp47
 70
     0
102
RTVSPropertyOp48
 70
     0
102
RTVSPropertyOp49
 70
     0
102
RTVSPropertyOp50
 70
     0
102
RTVSPropertyOp51
 70
     0
102
RTVSPropertyOp52
 70
     0
102
RTVSPropertyOp53
 70
     0
102
RTVSPropertyOp54
 70
     0
102
RTVSPropertyOp55
 70
     0
102
RTVSPropertyOp56
 70
     0
102
RTVSPropertyOp57
 70
     0
102
RTVSPropertyOp58
 70
     1
102
RTVSPropertyOp59
 70
     1
102
RTVSPropertyOp60
 70
     1
102
RTVSPropertyOp61
 70
     1
102
RTVSPropertyOp62
 70
     1
  0
XRECORD
  5
7E3
102
{ACAD_REACTORS
330
7E2
102
}
330
7E2
100
AcDbXrecord
280
     1
102
RTVSPost2010Prop28
280
     0
102
RTVSPost2010PropOp28
 70
     1
102
RTVSPost2010Prop29
280
     1
102
RTVSPost2010PropOp29
 70
     1
102
RTVSPost2010Prop30
280
     1
102
RTVSPost2010PropOp30
 70
     1
102
RTVSPost2010Prop31
280
     0
102
RTVSPost2010PropOp31
 70
     1
102
RTVSPost2010Prop32
280
     0
102
RTVSPost2010PropOp32
 70
     1
102
RTVSPost2010Prop33
280
     0
102
RTVSPost2010PropOp33
 70
     1
102
RTVSPost2010Prop34
280
     0
102
RTVSPost2010PropOp34
 70
     1
102
RTVSPost2010Prop35
280
     0
102
RTVSPost2010PropOp35
 70
     1
102
RTVSPost2010Prop36
280
     0
102
RTVSPost2010PropOp36
 70
     1
102
RTVSPost2010Prop37
 90
       50
102
RTVSPost2010PropOp37
 70
     1
102
RTVSPost2010Prop38
140
0.0
102
RTVSPost2010PropOp38
 70
     1
102
RTVSPost2010Prop39
140
1.0
102
RTVSPost2010PropOp39
 70
     1
102
RTVSPost2010Prop40
 90
        0
102
RTVSPost2010PropOp40
 70
     1
102
RTVSPost2010Prop41ColorIndex
 90
       18
102
RTVSPost2010Prop41ColorRGB
 90
        0
102
RTVSPost2010PropOp41
 70
     1
102
RTVSPost2010Prop42
 90
       50
102
RTVSPost2010PropOp42
 70
     1
102
RTVSPost2010Prop43
 90
        3
102
RTVSPost2010PropOp43
 70
     1
102
RTVSPost2010Prop44ColorIndex
 90
        5
102
RTVSPost2010Prop44ColorRGB
 90
      255
102
RTVSPost2010PropOp44
 70
     1
102
RTVSPost2010Prop45
280
     0
102
RTVSPost2010PropOp45
 70
     1
102
RTVSPost2010Prop46
 90
       50
102
RTVSPost2010PropOp46
 70
     1
102
RTVSPost2010Prop47
 90
       50
102
RTVSPost2010PropOp47
 70
     1
102
RTVSPost2010Prop48
 90
       50
102
RTVSPost2010PropOp48
 70
     1
102
RTVSPost2010Prop49
280
     0
102
RTVSPost2010PropOp49
 70
     1
102
RTVSPost2010Prop50
 90
       50
102
RTVSPost2010PropOp50
 70
     1
102
RTVSPost2010Prop51ColorIndex
 90
      256
102
RTVSPost2010Prop51ColorRGB
 90
-16777216
102
RTVSPost2010PropOp51
 70
     0
102
RTVSPost2010Prop52
140
1.0
102
RTVSPost2010PropOp52
 70
     0
102
RTVSPost2010Prop53
 90
        2
102
RTVSPost2010PropOp53
 70
     1
102
RTVSPost2010Prop54
  1
strokes_ogs.tif
102
RTVSPost2010PropOp54
 70
     1
102
RTVSPost2010Prop55
280
     0
102
RTVSPost2010PropOp55
 70
     1
102
RTVSPost2010Prop56
140
1.0
102
RTVSPost2010PropOp56
 70
     1
102
RTVSPost2010Prop57
140
1.0
102
RTVSPost2010PropOp57
 70
     1
102
RTVSPropertyOp0
 70
     1
102
RTVSPropertyOp1
 70
     1
102
RTVSPropertyOp2
 70
     1
102
RTVSPropertyOp3
 70
     1
102
RTVSPropertyOp4
 70
     1
102
RTVSPropertyOp5
 70
     1
102
RTVSPropertyOp6
 70
     1
102
RTVSPropertyOp7
 70
     1
102
RTVSPropertyOp8
 70
     1
102
RTVSPropertyOp9
 70
     1
102
RTVSPropertyOp10
 70
     1
102
RTVSPropertyOp11
 70
     1
102
RTVSPropertyOp12
 70
     1
102
RTVSPropertyOp13
 70
     1
102
RTVSPropertyOp14
 70
     1
102
RTVSPropertyOp15
 70
     1
102
RTVSPropertyOp16
 70
     1
102
RTVSPropertyOp17
 70
     1
102
RTVSPropertyOp18
 70
     1
102
RTVSPropertyOp19
 70
     1
102
RTVSPropertyOp20
 70
     1
102
RTVSPropertyOp21
 70
     1
102
RTVSPropertyOp22
 70
     1
102
RTVSPropertyOp23
 70
     1
102
RTVSPropertyOp24
 70
     1
102
RTVSPropertyOp25
 70
     1
102
RTVSPropertyOp26
 70
     1
102
RTVSPropertyOp27
 70
     1
102
RTVSPropertyOp28
 70
     1
102
RTVSPropertyOp29
 70
     1
102
RTVSPropertyOp30
 70
     1
102
RTVSPropertyOp31
 70
     1
102
RTVSPropertyOp32
 70
     1
102
RTVSPropertyOp33
 70
     1
102
RTVSPropertyOp34
 70
     1
102
RTVSPropertyOp35
 70
     1
102
RTVSPropertyOp36
 70
     1
102
RTVSPropertyOp37
 70
     1
102
RTVSPropertyOp38
 70
     1
102
RTVSPropertyOp39
 70
     1
102
RTVSPropertyOp40
 70
     1
102
RTVSPropertyOp41
 70
     1
102
RTVSPropertyOp42
 70
     1
102
RTVSPropertyOp43
 70
     1
102
RTVSPropertyOp44
 70
     1
102
RTVSPropertyOp45
 70
     1
102
RTVSPropertyOp46
 70
     1
102
RTVSPropertyOp47
 70
     1
102
RTVSPropertyOp48
 70
     1
102
RTVSPropertyOp49
 70
     1
102
RTVSPropertyOp50
 70
     1
102
RTVSPropertyOp51
 70
     0
102
RTVSPropertyOp52
 70
     0
102
RTVSPropertyOp53
 70
     1
102
RTVSPropertyOp54
 70
     1
102
RTVSPropertyOp55
 70
     1
102
RTVSPropertyOp56
 70
     1
102
RTVSPropertyOp57
 70
     1
102
RTVSPropertyOp58
 70
     1
102
RTVSPropertyOp59
 70
     1
102
RTVSPropertyOp60
 70
     1
102
RTVSPropertyOp61
 70
     1
102
RTVSPropertyOp62
 70
     1
  0
XRECORD
  5
7F5
102
{ACAD_REACTORS
330
7F4
102
}
330
7F4
100
AcDbXrecord
280
     1
102
RTVSPost2010Prop28
280
     0
102
RTVSPost2010PropOp28
 70
     0
102
RTVSPost2010Prop29
280
     1
102
RTVSPost2010PropOp29
 70
     0
102
RTVSPost2010Prop30
280
     1
102
RTVSPost2010PropOp30
 70
     0
102
RTVSPost2010Prop31
280
     0
102
RTVSPost2010PropOp31
 70
     0
102
RTVSPost2010Prop32
280
     0
102
RTVSPost2010PropOp32
 70
     0
102
RTVSPost2010Prop33
280
     0
102
RTVSPost2010PropOp33
 70
     0
102
RTVSPost2010Prop34
280
     0
102
RTVSPost2010PropOp34
 70
     0
102
RTVSPost2010Prop35
280
     0
102
RTVSPost2010PropOp35
 70
     0
102
RTVSPost2010Prop36
280
     0
102
RTVSPost2010PropOp36
 70
     0
102
RTVSPost2010Prop37
 90
       50
102
RTVSPost2010PropOp37
 70
     0
102
RTVSPost2010Prop38
140
0.0
102
RTVSPost2010PropOp38
 70
     0
102
RTVSPost2010Prop39
140
1.0
102
RTVSPost2010PropOp39
 70
     0
102
RTVSPost2010Prop40
 90
        0
102
RTVSPost2010PropOp40
 70
     0
102
RTVSPost2010Prop41ColorIndex
 90
       18
102
RTVSPost2010Prop41ColorRGB
 90
        0
102
RTVSPost2010PropOp41
 70
     0
102
RTVSPost2010Prop42
 90
       50
102
RTVSPost2010PropOp42
 70
     0
102
RTVSPost2010Prop43
 90
        3
102
RTVSPost2010PropOp43
 70
     0
102
RTVSPost2010Prop44ColorIndex
 90
        5
102
RTVSPost2010Prop44ColorRGB
 90
      255
102
RTVSPost2010PropOp44
 70
     0
102
RTVSPost2010Prop45
280
     0
102
RTVSPost2010PropOp45
 70
     0
102
RTVSPost2010Prop46
 90
       50
102
RTVSPost2010PropOp46
 70
     0
102
RTVSPost2010Prop47
 90
       50
102
RTVSPost2010PropOp47
 70
     0
102
RTVSPost2010Prop48
 90
       50
102
RTVSPost2010PropOp48
 70
     0
102
RTVSPost2010Prop49
280
     0
102
RTVSPost2010PropOp49
 70
     0
102
RTVSPost2010Prop50
 90
       50
102
RTVSPost2010PropOp50
 70
     0
102
RTVSPost2010Prop51ColorIndex
 90
      256
102
RTVSPost2010Prop51ColorRGB
 90
-16777216
102
RTVSPost2010PropOp51
 70
     0
102
RTVSPost2010Prop52
140
1.0
102
RTVSPost2010PropOp52
 70
     0
102
RTVSPost2010Prop53
 90
        2
102
RTVSPost2010PropOp53
 70
     0
102
RTVSPost2010Prop54
  1
strokes_ogs.tif
102
RTVSPost2010PropOp54
 70
     0
102
RTVSPost2010Prop55
280
     0
102
RTVSPost2010PropOp55
 70
     0
102
RTVSPost2010Prop56
140
1.0
102
RTVSPost2010PropOp56
 70
     0
102
RTVSPost2010Prop57
140
1.0
102
RTVSPost2010PropOp57
 70
     0
102
RTVSPropertyOp0
 70
     0
102
RTVSPropertyOp1
 70
     0
102
RTVSPropertyOp2
 70
     0
102
RTVSPropertyOp3
 70
     0
102
RTVSPropertyOp4
 70
     0
102
RTVSPropertyOp5
 70
     0
102
RTVSPropertyOp6
 70
     0
102
RTVSPropertyOp7
 70
     0
102
RTVSPropertyOp8
 70
     0
102
RTVSPropertyOp9
 70
     0
102
RTVSPropertyOp10
 70
     0
102
RTVSPropertyOp11
 70
     0
102
RTVSPropertyOp12
 70
     0
102
RTVSPropertyOp13
 70
     0
102
RTVSPropertyOp14
 70
     2
102
RTVSPropertyOp15
 70
     0
102
RTVSPropertyOp16
 70
     0
102
RTVSPropertyOp17
 70
     0
102
RTVSPropertyOp18
 70
     0
102
RTVSPropertyOp19
 70
     0
102
RTVSPropertyOp20
 70
     0
102
RTVSPropertyOp21
 70
     0
102
RTVSPropertyOp22
 70
     0
102
RTVSPropertyOp23
 70
     0
102
RTVSPropertyOp24
 70
     0
102
RTVSPropertyOp25
 70
     0
102
RTVSPropertyOp26
 70
     0
102
RTVSPropertyOp27
 70
     0
102
RTVSPropertyOp28
 70
     0
102
RTVSPropertyOp29
 70
     0
102
RTVSPropertyOp30
 70
     0
102
RTVSPropertyOp31
 70
     0
102
RTVSPropertyOp32
 70
     0
102
RTVSPropertyOp33
 70
     0
102
RTVSPropertyOp34
 70
     0
102
RTVSPropertyOp35
 70
     0
102
RTVSPropertyOp36
 70
     0
102
RTVSPropertyOp37
 70
     0
102
RTVSPropertyOp38
 70
     0
102
RTVSPropertyOp39
 70
     0
102
RTVSPropertyOp40
 70
     0
102
RTVSPropertyOp41
 70
     0
102
RTVSPropertyOp42
 70
     0
102
RTVSPropertyOp43
 70
     0
102
RTVSPropertyOp44
 70
     0
102
RTVSPropertyOp45
 70
     0
102
RTVSPropertyOp46
 70
     0
102
RTVSPropertyOp47
 70
     0
102
RTVSPropertyOp48
 70
     0
102
RTVSPropertyOp49
 70
     0
102
RTVSPropertyOp50
 70
     0
102
RTVSPropertyOp51
 70
     0
102
RTVSPropertyOp52
 70
     0
102
RTVSPropertyOp53
 70
     0
102
RTVSPropertyOp54
 70
     0
102
RTVSPropertyOp55
 70
     0
102
RTVSPropertyOp56
 70
     0
102
RTVSPropertyOp57
 70
     0
102
RTVSPropertyOp58
 70
     1
102
RTVSPropertyOp59
 70
     1
102
RTVSPropertyOp60
 70
     1
102
RTVSPropertyOp61
 70
     1
102
RTVSPropertyOp62
 70
     1
  0
XRECORD
  5
7DB
102
{ACAD_REACTORS
330
7DA
102
}
330
7DA
100
AcDbXrecord
280
     1
102
RTVSPost2010Prop28
280
     0
102
RTVSPost2010PropOp28
 70
     1
102
RTVSPost2010Prop29
280
     1
102
RTVSPost2010PropOp29
 70
     1
102
RTVSPost2010Prop30
280
     1
102
RTVSPost2010PropOp30
 70
     1
102
RTVSPost2010Prop31
280
     0
102
RTVSPost2010PropOp31
 70
     1
102
RTVSPost2010Prop32
280
     0
102
RTVSPost2010PropOp32
 70
     1
102
RTVSPost2010Prop33
280
     0
102
RTVSPost2010PropOp33
 70
     1
102
RTVSPost2010Prop34
280
     0
102
RTVSPost2010PropOp34
 70
     1
102
RTVSPost2010Prop35
280
     0
102
RTVSPost2010PropOp35
 70
     1
102
RTVSPost2010Prop36
280
     0
102
RTVSPost2010PropOp36
 70
     1
102
RTVSPost2010Prop37
 90
       50
102
RTVSPost2010PropOp37
 70
     1
102
RTVSPost2010Prop38
140
0.0
102
RTVSPost2010PropOp38
 70
     1
102
RTVSPost2010Prop39
140
1.0
102
RTVSPost2010PropOp39
 70
     1
102
RTVSPost2010Prop40
 90
        0
102
RTVSPost2010PropOp40
 70
     1
102
RTVSPost2010Prop41ColorIndex
 90
       18
102
RTVSPost2010Prop41ColorRGB
 90
        0
102
RTVSPost2010PropOp41
 70
     1
102
RTVSPost2010Prop42
 90
       50
102
RTVSPost2010PropOp42
 70
     1
102
RTVSPost2010Prop43
 90
        3
102
RTVSPost2010PropOp43
 70
     1
102
RTVSPost2010Prop44ColorIndex
 90
        5
102
RTVSPost2010Prop44ColorRGB
 90
      255
102
RTVSPost2010PropOp44
 70
     1
102
RTVSPost2010Prop45
280
     0
102
RTVSPost2010PropOp45
 70
     1
102
RTVSPost2010Prop46
 90
       50
102
RTVSPost2010PropOp46
 70
     1
102
RTVSPost2010Prop47
 90
       50
102
RTVSPost2010PropOp47
 70
     1
102
RTVSPost2010Prop48
 90
       50
102
RTVSPost2010PropOp48
 70
     1
102
RTVSPost2010Prop49
280
     0
102
RTVSPost2010PropOp49
 70
     1
102
RTVSPost2010Prop50
 90
       50
102
RTVSPost2010PropOp50
 70
     1
102
RTVSPost2010Prop51ColorIndex
 90
      256
102
RTVSPost2010Prop51ColorRGB
 90
-16777216
102
RTVSPost2010PropOp51
 70
     0
102
RTVSPost2010Prop52
140
1.0
102
RTVSPost2010PropOp52
 70
     0
102
RTVSPost2010Prop53
 90
        2
102
RTVSPost2010PropOp53
 70
     1
102
RTVSPost2010Prop54
  1
strokes_ogs.tif
102
RTVSPost2010PropOp54
 70
     1
102
RTVSPost2010Prop55
280
     0
102
RTVSPost2010PropOp55
 70
     1
102
RTVSPost2010Prop56
140
1.0
102
RTVSPost2010PropOp56
 70
     1
102
RTVSPost2010Prop57
140
1.0
102
RTVSPost2010PropOp57
 70
     1
102
RTVSPropertyOp0
 70
     1
102
RTVSPropertyOp1
 70
     1
102
RTVSPropertyOp2
 70
     1
102
RTVSPropertyOp3
 70
     1
102
RTVSPropertyOp4
 70
     1
102
RTVSPropertyOp5
 70
     1
102
RTVSPropertyOp6
 70
     1
102
RTVSPropertyOp7
 70
     1
102
RTVSPropertyOp8
 70
     1
102
RTVSPropertyOp9
 70
     1
102
RTVSPropertyOp10
 70
     1
102
RTVSPropertyOp11
 70
     1
102
RTVSPropertyOp12
 70
     1
102
RTVSPropertyOp13
 70
     1
102
RTVSPropertyOp14
 70
     1
102
RTVSPropertyOp15
 70
     1
102
RTVSPropertyOp16
 70
     1
102
RTVSPropertyOp17
 70
     1
102
RTVSPropertyOp18
 70
     1
102
RTVSPropertyOp19
 70
     1
102
RTVSPropertyOp20
 70
     1
102
RTVSPropertyOp21
 70
     1
102
RTVSPropertyOp22
 70
     1
102
RTVSPropertyOp23
 70
     1
102
RTVSPropertyOp24
 70
     1
102
RTVSPropertyOp25
 70
     1
102
RTVSPropertyOp26
 70
     1
102
RTVSPropertyOp27
 70
     1
102
RTVSPropertyOp28
 70
     1
102
RTVSPropertyOp29
 70
     1
102
RTVSPropertyOp30
 70
     1
102
RTVSPropertyOp31
 70
     1
102
RTVSPropertyOp32
 70
     1
102
RTVSPropertyOp33
 70
     1
102
RTVSPropertyOp34
 70
     1
102
RTVSPropertyOp35
 70
     1
102
RTVSPropertyOp36
 70
     1
102
RTVSPropertyOp37
 70
     1
102
RTVSPropertyOp38
 70
     1
102
RTVSPropertyOp39
 70
     1
102
RTVSPropertyOp40
 70
     1
102
RTVSPropertyOp41
 70
     1
102
RTVSPropertyOp42
 70
     1
102
RTVSPropertyOp43
 70
     1
102
RTVSPropertyOp44
 70
     1
102
RTVSPropertyOp45
 70
     1
102
RTVSPropertyOp46
 70
     1
102
RTVSPropertyOp47
 70
     1
102
RTVSPropertyOp48
 70
     1
102
RTVSPropertyOp49
 70
     1
102
RTVSPropertyOp50
 70
     1
102
RTVSPropertyOp51
 70
     0
102
RTVSPropertyOp52
 70
     0
102
RTVSPropertyOp53
 70
     1
102
RTVSPropertyOp54
 70
     1
102
RTVSPropertyOp55
 70
     1
102
RTVSPropertyOp56
 70
     1
102
RTVSPropertyOp57
 70
     1
102
RTVSPropertyOp58
 70
     1
102
RTVSPropertyOp59
 70
     1
102
RTVSPropertyOp60
 70
     1
102
RTVSPropertyOp61
 70
     1
102
RTVSPropertyOp62
 70
     1
  0
XRECORD
  5
7F1
102
{ACAD_REACTORS
330
7F0
102
}
330
7F0
100
AcDbXrecord
280
     1
102
RTVSPost2010Prop28
280
     0
102
RTVSPost2010PropOp28
 70
     1
102
RTVSPost2010Prop29
280
     1
102
RTVSPost2010PropOp29
 70
     1
102
RTVSPost2010Prop30
280
     1
102
RTVSPost2010PropOp30
 70
     1
102
RTVSPost2010Prop31
280
     0
102
RTVSPost2010PropOp31
 70
     1
102
RTVSPost2010Prop32
280
     0
102
RTVSPost2010PropOp32
 70
     1
102
RTVSPost2010Prop33
280
     0
102
RTVSPost2010PropOp33
 70
     1
102
RTVSPost2010Prop34
280
     0
102
RTVSPost2010PropOp34
 70
     1
102
RTVSPost2010Prop35
280
     0
102
RTVSPost2010PropOp35
 70
     1
102
RTVSPost2010Prop36
280
     0
102
RTVSPost2010PropOp36
 70
     1
102
RTVSPost2010Prop37
 90
       50
102
RTVSPost2010PropOp37
 70
     1
102
RTVSPost2010Prop38
140
0.0
102
RTVSPost2010PropOp38
 70
     1
102
RTVSPost2010Prop39
140
1.0
102
RTVSPost2010PropOp39
 70
     1
102
RTVSPost2010Prop40
 90
        0
102
RTVSPost2010PropOp40
 70
     1
102
RTVSPost2010Prop41ColorIndex
 90
       18
102
RTVSPost2010Prop41ColorRGB
 90
        0
102
RTVSPost2010PropOp41
 70
     1
102
RTVSPost2010Prop42
 90
       50
102
RTVSPost2010PropOp42
 70
     1
102
RTVSPost2010Prop43
 90
        3
102
RTVSPost2010PropOp43
 70
     1
102
RTVSPost2010Prop44ColorIndex
 90
        5
102
RTVSPost2010Prop44ColorRGB
 90
      255
102
RTVSPost2010PropOp44
 70
     1
102
RTVSPost2010Prop45
280
     0
102
RTVSPost2010PropOp45
 70
     1
102
RTVSPost2010Prop46
 90
       50
102
RTVSPost2010PropOp46
 70
     1
102
RTVSPost2010Prop47
 90
       50
102
RTVSPost2010PropOp47
 70
     1
102
RTVSPost2010Prop48
 90
       50
102
RTVSPost2010PropOp48
 70
     1
102
RTVSPost2010Prop49
280
     0
102
RTVSPost2010PropOp49
 70
     1
102
RTVSPost2010Prop50
 90
       50
102
RTVSPost2010PropOp50
 70
     1
102
RTVSPost2010Prop51ColorIndex
 90
      256
102
RTVSPost2010Prop51ColorRGB
 90
-16777216
102
RTVSPost2010PropOp51
 70
     0
102
RTVSPost2010Prop52
140
1.0
102
RTVSPost2010PropOp52
 70
     0
102
RTVSPost2010Prop53
 90
        2
102
RTVSPost2010PropOp53
 70
     1
102
RTVSPost2010Prop54
  1
strokes_ogs.tif
102
RTVSPost2010PropOp54
 70
     1
102
RTVSPost2010Prop55
280
     0
102
RTVSPost2010PropOp55
 70
     1
102
RTVSPost2010Prop56
140
1.0
102
RTVSPost2010PropOp56
 70
     1
102
RTVSPost2010Prop57
140
1.0
102
RTVSPost2010PropOp57
 70
     1
102
RTVSPropertyOp0
 70
     1
102
RTVSPropertyOp1
 70
     1
102
RTVSPropertyOp2
 70
     1
102
RTVSPropertyOp3
 70
     1
102
RTVSPropertyOp4
 70
     1
102
RTVSPropertyOp5
 70
     1
102
RTVSPropertyOp6
 70
     1
102
RTVSPropertyOp7
 70
     1
102
RTVSPropertyOp8
 70
     1
102
RTVSPropertyOp9
 70
     1
102
RTVSPropertyOp10
 70
     1
102
RTVSPropertyOp11
 70
     1
102
RTVSPropertyOp12
 70
     1
102
RTVSPropertyOp13
 70
     1
102
RTVSPropertyOp14
 70
     1
102
RTVSPropertyOp15
 70
     1
102
RTVSPropertyOp16
 70
     1
102
RTVSPropertyOp17
 70
     1
102
RTVSPropertyOp18
 70
     1
102
RTVSPropertyOp19
 70
     1
102
RTVSPropertyOp20
 70
     1
102
RTVSPropertyOp21
 70
     1
102
RTVSPropertyOp22
 70
     1
102
RTVSPropertyOp23
 70
     1
102
RTVSPropertyOp24
 70
     1
102
RTVSPropertyOp25
 70
     1
102
RTVSPropertyOp26
 70
     1
102
RTVSPropertyOp27
 70
     1
102
RTVSPropertyOp28
 70
     1
102
RTVSPropertyOp29
 70
     1
102
RTVSPropertyOp30
 70
     1
102
RTVSPropertyOp31
 70
     1
102
RTVSPropertyOp32
 70
     1
102
RTVSPropertyOp33
 70
     1
102
RTVSPropertyOp34
 70
     1
102
RTVSPropertyOp35
 70
     1
102
RTVSPropertyOp36
 70
     1
102
RTVSPropertyOp37
 70
     1
102
RTVSPropertyOp38
 70
     1
102
RTVSPropertyOp39
 70
     1
102
RTVSPropertyOp40
 70
     1
102
RTVSPropertyOp41
 70
     1
102
RTVSPropertyOp42
 70
     1
102
RTVSPropertyOp43
 70
     1
102
RTVSPropertyOp44
 70
     1
102
RTVSPropertyOp45
 70
     1
102
RTVSPropertyOp46
 70
     1
102
RTVSPropertyOp47
 70
     1
102
RTVSPropertyOp48
 70
     1
102
RTVSPropertyOp49
 70
     1
102
RTVSPropertyOp50
 70
     1
102
RTVSPropertyOp51
 70
     0
102
RTVSPropertyOp52
 70
     0
102
RTVSPropertyOp53
 70
     1
102
RTVSPropertyOp54
 70
     1
102
RTVSPropertyOp55
 70
     1
102
RTVSPropertyOp56
 70
     1
102
RTVSPropertyOp57
 70
     1
102
RTVSPropertyOp58
 70
     1
102
RTVSPropertyOp59
 70
     1
102
RTVSPropertyOp60
 70
     1
102
RTVSPropertyOp61
 70
     1
102
RTVSPropertyOp62
 70
     1
  0
XRECORD
  5
7EF
102
{ACAD_REACTORS
330
7EE
102
}
330
7EE
100
AcDbXrecord
280
     1
102
RTVSPost2010Prop28
280
     0
102
RTVSPost2010PropOp28
 70
     1
102
RTVSPost2010Prop29
280
     1
102
RTVSPost2010PropOp29
 70
     1
102
RTVSPost2010Prop30
280
     1
102
RTVSPost2010PropOp30
 70
     1
102
RTVSPost2010Prop31
280
     0
102
RTVSPost2010PropOp31
 70
     1
102
RTVSPost2010Prop32
280
     0
102
RTVSPost2010PropOp32
 70
     1
102
RTVSPost2010Prop33
280
     0
102
RTVSPost2010PropOp33
 70
     1
102
RTVSPost2010Prop34
280
     0
102
RTVSPost2010PropOp34
 70
     1
102
RTVSPost2010Prop35
280
     0
102
RTVSPost2010PropOp35
 70
     1
102
RTVSPost2010Prop36
280
     0
102
RTVSPost2010PropOp36
 70
     1
102
RTVSPost2010Prop37
 90
       50
102
RTVSPost2010PropOp37
 70
     1
102
RTVSPost2010Prop38
140
0.0
102
RTVSPost2010PropOp38
 70
     1
102
RTVSPost2010Prop39
140
1.0
102
RTVSPost2010PropOp39
 70
     1
102
RTVSPost2010Prop40
 90
        0
102
RTVSPost2010PropOp40
 70
     1
102
RTVSPost2010Prop41ColorIndex
 90
       18
102
RTVSPost2010Prop41ColorRGB
 90
        0
102
RTVSPost2010PropOp41
 70
     1
102
RTVSPost2010Prop42
 90
       50
102
RTVSPost2010PropOp42
 70
     1
102
RTVSPost2010Prop43
 90
        3
102
RTVSPost2010PropOp43
 70
     1
102
RTVSPost2010Prop44ColorIndex
 90
        5
102
RTVSPost2010Prop44ColorRGB
 90
      255
102
RTVSPost2010PropOp44
 70
     1
102
RTVSPost2010Prop45
280
     0
102
RTVSPost2010PropOp45
 70
     1
102
RTVSPost2010Prop46
 90
       50
102
RTVSPost2010PropOp46
 70
     1
102
RTVSPost2010Prop47
 90
       50
102
RTVSPost2010PropOp47
 70
     1
102
RTVSPost2010Prop48
 90
       50
102
RTVSPost2010PropOp48
 70
     1
102
RTVSPost2010Prop49
280
     0
102
RTVSPost2010PropOp49
 70
     1
102
RTVSPost2010Prop50
 90
       50
102
RTVSPost2010PropOp50
 70
     1
102
RTVSPost2010Prop51ColorIndex
 90
      256
102
RTVSPost2010Prop51ColorRGB
 90
-16777216
102
RTVSPost2010PropOp51
 70
     0
102
RTVSPost2010Prop52
140
1.0
102
RTVSPost2010PropOp52
 70
     0
102
RTVSPost2010Prop53
 90
        2
102
RTVSPost2010PropOp53
 70
     1
102
RTVSPost2010Prop54
  1
strokes_ogs.tif
102
RTVSPost2010PropOp54
 70
     1
102
RTVSPost2010Prop55
280
     0
102
RTVSPost2010PropOp55
 70
     1
102
RTVSPost2010Prop56
140
1.0
102
RTVSPost2010PropOp56
 70
     1
102
RTVSPost2010Prop57
140
1.0
102
RTVSPost2010PropOp57
 70
     1
102
RTVSPropertyOp0
 70
     1
102
RTVSPropertyOp1
 70
     1
102
RTVSPropertyOp2
 70
     1
102
RTVSPropertyOp3
 70
     1
102
RTVSPropertyOp4
 70
     1
102
RTVSPropertyOp5
 70
     1
102
RTVSPropertyOp6
 70
     1
102
RTVSPropertyOp7
 70
     1
102
RTVSPropertyOp8
 70
     1
102
RTVSPropertyOp9
 70
     1
102
RTVSPropertyOp10
 70
     1
102
RTVSPropertyOp11
 70
     1
102
RTVSPropertyOp12
 70
     1
102
RTVSPropertyOp13
 70
     1
102
RTVSPropertyOp14
 70
     1
102
RTVSPropertyOp15
 70
     1
102
RTVSPropertyOp16
 70
     1
102
RTVSPropertyOp17
 70
     1
102
RTVSPropertyOp18
 70
     1
102
RTVSPropertyOp19
 70
     1
102
RTVSPropertyOp20
 70
     1
102
RTVSPropertyOp21
 70
     1
102
RTVSPropertyOp22
 70
     1
102
RTVSPropertyOp23
 70
     1
102
RTVSPropertyOp24
 70
     1
102
RTVSPropertyOp25
 70
     1
102
RTVSPropertyOp26
 70
     1
102
RTVSPropertyOp27
 70
     1
102
RTVSPropertyOp28
 70
     1
102
RTVSPropertyOp29
 70
     1
102
RTVSPropertyOp30
 70
     1
102
RTVSPropertyOp31
 70
     1
102
RTVSPropertyOp32
 70
     1
102
RTVSPropertyOp33
 70
     1
102
RTVSPropertyOp34
 70
     1
102
RTVSPropertyOp35
 70
     1
102
RTVSPropertyOp36
 70
     1
102
RTVSPropertyOp37
 70
     1
102
RTVSPropertyOp38
 70
     1
102
RTVSPropertyOp39
 70
     1
102
RTVSPropertyOp40
 70
     1
102
RTVSPropertyOp41
 70
     1
102
RTVSPropertyOp42
 70
     1
102
RTVSPropertyOp43
 70
     1
102
RTVSPropertyOp44
 70
     1
102
RTVSPropertyOp45
 70
     1
102
RTVSPropertyOp46
 70
     1
102
RTVSPropertyOp47
 70
     1
102
RTVSPropertyOp48
 70
     1
102
RTVSPropertyOp49
 70
     1
102
RTVSPropertyOp50
 70
     1
102
RTVSPropertyOp51
 70
     0
102
RTVSPropertyOp52
 70
     0
102
RTVSPropertyOp53
 70
     1
102
RTVSPropertyOp54
 70
     1
102
RTVSPropertyOp55
 70
     1
102
RTVSPropertyOp56
 70
     1
102
RTVSPropertyOp57
 70
     1
102
RTVSPropertyOp58
 70
     1
102
RTVSPropertyOp59
 70
     1
102
RTVSPropertyOp60
 70
     1
102
RTVSPropertyOp61
 70
     1
102
RTVSPropertyOp62
 70
     1
  0
XRECORD
  5
7E9
102
{ACAD_REACTORS
330
7E8
102
}
330
7E8
100
AcDbXrecord
280
     1
102
RTVSPost2010Prop28
280
     0
102
RTVSPost2010PropOp28
 70
     1
102
RTVSPost2010Prop29
280
     1
102
RTVSPost2010PropOp29
 70
     1
102
RTVSPost2010Prop30
280
     1
102
RTVSPost2010PropOp30
 70
     1
102
RTVSPost2010Prop31
280
     0
102
RTVSPost2010PropOp31
 70
     1
102
RTVSPost2010Prop32
280
     0
102
RTVSPost2010PropOp32
 70
     1
102
RTVSPost2010Prop33
280
     0
102
RTVSPost2010PropOp33
 70
     1
102
RTVSPost2010Prop34
280
     0
102
RTVSPost2010PropOp34
 70
     1
102
RTVSPost2010Prop35
280
     0
102
RTVSPost2010PropOp35
 70
     1
102
RTVSPost2010Prop36
280
     0
102
RTVSPost2010PropOp36
 70
     1
102
RTVSPost2010Prop37
 90
       50
102
RTVSPost2010PropOp37
 70
     1
102
RTVSPost2010Prop38
140
0.0
102
RTVSPost2010PropOp38
 70
     1
102
RTVSPost2010Prop39
140
1.0
102
RTVSPost2010PropOp39
 70
     1
102
RTVSPost2010Prop40
 90
        0
102
RTVSPost2010PropOp40
 70
     1
102
RTVSPost2010Prop41ColorIndex
 90
       18
102
RTVSPost2010Prop41ColorRGB
 90
        0
102
RTVSPost2010PropOp41
 70
     1
102
RTVSPost2010Prop42
 90
       50
102
RTVSPost2010PropOp42
 70
     1
102
RTVSPost2010Prop43
 90
        3
102
RTVSPost2010PropOp43
 70
     1
102
RTVSPost2010Prop44ColorIndex
 90
        5
102
RTVSPost2010Prop44ColorRGB
 90
      255
102
RTVSPost2010PropOp44
 70
     1
102
RTVSPost2010Prop45
280
     0
102
RTVSPost2010PropOp45
 70
     1
102
RTVSPost2010Prop46
 90
       50
102
RTVSPost2010PropOp46
 70
     1
102
RTVSPost2010Prop47
 90
       50
102
RTVSPost2010PropOp47
 70
     1
102
RTVSPost2010Prop48
 90
       50
102
RTVSPost2010PropOp48
 70
     1
102
RTVSPost2010Prop49
280
     0
102
RTVSPost2010PropOp49
 70
     1
102
RTVSPost2010Prop50
 90
       50
102
RTVSPost2010PropOp50
 70
     1
102
RTVSPost2010Prop51ColorIndex
 90
      256
102
RTVSPost2010Prop51ColorRGB
 90
-16777216
102
RTVSPost2010PropOp51
 70
     0
102
RTVSPost2010Prop52
140
1.0
102
RTVSPost2010PropOp52
 70
     0
102
RTVSPost2010Prop53
 90
        2
102
RTVSPost2010PropOp53
 70
     1
102
RTVSPost2010Prop54
  1
strokes_ogs.tif
102
RTVSPost2010PropOp54
 70
     1
102
RTVSPost2010Prop55
280
     0
102
RTVSPost2010PropOp55
 70
     1
102
RTVSPost2010Prop56
140
1.0
102
RTVSPost2010PropOp56
 70
     1
102
RTVSPost2010Prop57
140
1.0
102
RTVSPost2010PropOp57
 70
     1
102
RTVSPropertyOp0
 70
     1
102
RTVSPropertyOp1
 70
     1
102
RTVSPropertyOp2
 70
     1
102
RTVSPropertyOp3
 70
     1
102
RTVSPropertyOp4
 70
     1
102
RTVSPropertyOp5
 70
     1
102
RTVSPropertyOp6
 70
     1
102
RTVSPropertyOp7
 70
     1
102
RTVSPropertyOp8
 70
     1
102
RTVSPropertyOp9
 70
     1
102
RTVSPropertyOp10
 70
     1
102
RTVSPropertyOp11
 70
     1
102
RTVSPropertyOp12
 70
     1
102
RTVSPropertyOp13
 70
     1
102
RTVSPropertyOp14
 70
     1
102
RTVSPropertyOp15
 70
     1
102
RTVSPropertyOp16
 70
     1
102
RTVSPropertyOp17
 70
     1
102
RTVSPropertyOp18
 70
     1
102
RTVSPropertyOp19
 70
     1
102
RTVSPropertyOp20
 70
     1
102
RTVSPropertyOp21
 70
     1
102
RTVSPropertyOp22
 70
     1
102
RTVSPropertyOp23
 70
     1
102
RTVSPropertyOp24
 70
     1
102
RTVSPropertyOp25
 70
     1
102
RTVSPropertyOp26
 70
     1
102
RTVSPropertyOp27
 70
     1
102
RTVSPropertyOp28
 70
     1
102
RTVSPropertyOp29
 70
     1
102
RTVSPropertyOp30
 70
     1
102
RTVSPropertyOp31
 70
     1
102
RTVSPropertyOp32
 70
     1
102
RTVSPropertyOp33
 70
     1
102
RTVSPropertyOp34
 70
     1
102
RTVSPropertyOp35
 70
     1
102
RTVSPropertyOp36
 70
     1
102
RTVSPropertyOp37
 70
     1
102
RTVSPropertyOp38
 70
     1
102
RTVSPropertyOp39
 70
     1
102
RTVSPropertyOp40
 70
     1
102
RTVSPropertyOp41
 70
     1
102
RTVSPropertyOp42
 70
     1
102
RTVSPropertyOp43
 70
     1
102
RTVSPropertyOp44
 70
     1
102
RTVSPropertyOp45
 70
     1
102
RTVSPropertyOp46
 70
     1
102
RTVSPropertyOp47
 70
     1
102
RTVSPropertyOp48
 70
     1
102
RTVSPropertyOp49
 70
     1
102
RTVSPropertyOp50
 70
     1
102
RTVSPropertyOp51
 70
     0
102
RTVSPropertyOp52
 70
     0
102
RTVSPropertyOp53
 70
     1
102
RTVSPropertyOp54
 70
     1
102
RTVSPropertyOp55
 70
     1
102
RTVSPropertyOp56
 70
     1
102
RTVSPropertyOp57
 70
     1
102
RTVSPropertyOp58
 70
     1
102
RTVSPropertyOp59
 70
     1
102
RTVSPropertyOp60
 70
     1
102
RTVSPropertyOp61
 70
     1
102
RTVSPropertyOp62
 70
     1
  0
XRECORD
  5
7EB
102
{ACAD_REACTORS
330
7EA
102
}
330
7EA
100
AcDbXrecord
280
     1
102
RTVSPost2010Prop28
280
     0
102
RTVSPost2010PropOp28
 70
     1
102
RTVSPost2010Prop29
280
     1
102
RTVSPost2010PropOp29
 70
     1
102
RTVSPost2010Prop30
280
     1
102
RTVSPost2010PropOp30
 70
     1
102
RTVSPost2010Prop31
280
     0
102
RTVSPost2010PropOp31
 70
     1
102
RTVSPost2010Prop32
280
     0
102
RTVSPost2010PropOp32
 70
     1
102
RTVSPost2010Prop33
280
     0
102
RTVSPost2010PropOp33
 70
     1
102
RTVSPost2010Prop34
280
     0
102
RTVSPost2010PropOp34
 70
     1
102
RTVSPost2010Prop35
280
     0
102
RTVSPost2010PropOp35
 70
     1
102
RTVSPost2010Prop36
280
     0
102
RTVSPost2010PropOp36
 70
     1
102
RTVSPost2010Prop37
 90
       50
102
RTVSPost2010PropOp37
 70
     1
102
RTVSPost2010Prop38
140
0.0
102
RTVSPost2010PropOp38
 70
     1
102
RTVSPost2010Prop39
140
1.0
102
RTVSPost2010PropOp39
 70
     1
102
RTVSPost2010Prop40
 90
        0
102
RTVSPost2010PropOp40
 70
     1
102
RTVSPost2010Prop41ColorIndex
 90
       18
102
RTVSPost2010Prop41ColorRGB
 90
        0
102
RTVSPost2010PropOp41
 70
     1
102
RTVSPost2010Prop42
 90
       50
102
RTVSPost2010PropOp42
 70
     1
102
RTVSPost2010Prop43
 90
        3
102
RTVSPost2010PropOp43
 70
     1
102
RTVSPost2010Prop44ColorIndex
 90
        5
102
RTVSPost2010Prop44ColorRGB
 90
      255
102
RTVSPost2010PropOp44
 70
     1
102
RTVSPost2010Prop45
280
     0
102
RTVSPost2010PropOp45
 70
     1
102
RTVSPost2010Prop46
 90
       50
102
RTVSPost2010PropOp46
 70
     1
102
RTVSPost2010Prop47
 90
       50
102
RTVSPost2010PropOp47
 70
     1
102
RTVSPost2010Prop48
 90
       50
102
RTVSPost2010PropOp48
 70
     1
102
RTVSPost2010Prop49
280
     0
102
RTVSPost2010PropOp49
 70
     1
102
RTVSPost2010Prop50
 90
       50
102
RTVSPost2010PropOp50
 70
     1
102
RTVSPost2010Prop51ColorIndex
 90
      256
102
RTVSPost2010Prop51ColorRGB
 90
-16777216
102
RTVSPost2010PropOp51
 70
     0
102
RTVSPost2010Prop52
140
1.0
102
RTVSPost2010PropOp52
 70
     0
102
RTVSPost2010Prop53
 90
        2
102
RTVSPost2010PropOp53
 70
     1
102
RTVSPost2010Prop54
  1
strokes_ogs.tif
102
RTVSPost2010PropOp54
 70
     1
102
RTVSPost2010Prop55
280
     0
102
RTVSPost2010PropOp55
 70
     1
102
RTVSPost2010Prop56
140
1.0
102
RTVSPost2010PropOp56
 70
     1
102
RTVSPost2010Prop57
140
1.0
102
RTVSPost2010PropOp57
 70
     1
102
RTVSPropertyOp0
 70
     1
102
RTVSPropertyOp1
 70
     1
102
RTVSPropertyOp2
 70
     1
102
RTVSPropertyOp3
 70
     1
102
RTVSPropertyOp4
 70
     1
102
RTVSPropertyOp5
 70
     1
102
RTVSPropertyOp6
 70
     1
102
RTVSPropertyOp7
 70
     1
102
RTVSPropertyOp8
 70
     1
102
RTVSPropertyOp9
 70
     1
102
RTVSPropertyOp10
 70
     1
102
RTVSPropertyOp11
 70
     1
102
RTVSPropertyOp12
 70
     1
102
RTVSPropertyOp13
 70
     1
102
RTVSPropertyOp14
 70
     1
102
RTVSPropertyOp15
 70
     1
102
RTVSPropertyOp16
 70
     1
102
RTVSPropertyOp17
 70
     1
102
RTVSPropertyOp18
 70
     1
102
RTVSPropertyOp19
 70
     1
102
RTVSPropertyOp20
 70
     1
102
RTVSPropertyOp21
 70
     1
102
RTVSPropertyOp22
 70
     1
102
RTVSPropertyOp23
 70
     1
102
RTVSPropertyOp24
 70
     1
102
RTVSPropertyOp25
 70
     1
102
RTVSPropertyOp26
 70
     1
102
RTVSPropertyOp27
 70
     1
102
RTVSPropertyOp28
 70
     1
102
RTVSPropertyOp29
 70
     1
102
RTVSPropertyOp30
 70
     1
102
RTVSPropertyOp31
 70
     1
102
RTVSPropertyOp32
 70
     1
102
RTVSPropertyOp33
 70
     1
102
RTVSPropertyOp34
 70
     1
102
RTVSPropertyOp35
 70
     1
102
RTVSPropertyOp36
 70
     1
102
RTVSPropertyOp37
 70
     1
102
RTVSPropertyOp38
 70
     1
102
RTVSPropertyOp39
 70
     1
102
RTVSPropertyOp40
 70
     1
102
RTVSPropertyOp41
 70
     1
102
RTVSPropertyOp42
 70
     1
102
RTVSPropertyOp43
 70
     1
102
RTVSPropertyOp44
 70
     1
102
RTVSPropertyOp45
 70
     1
102
RTVSPropertyOp46
 70
     1
102
RTVSPropertyOp47
 70
     1
102
RTVSPropertyOp48
 70
     1
102
RTVSPropertyOp49
 70
     1
102
RTVSPropertyOp50
 70
     1
102
RTVSPropertyOp51
 70
     0
102
RTVSPropertyOp52
 70
     0
102
RTVSPropertyOp53
 70
     1
102
RTVSPropertyOp54
 70
     1
102
RTVSPropertyOp55
 70
     1
102
RTVSPropertyOp56
 70
     1
102
RTVSPropertyOp57
 70
     1
102
RTVSPropertyOp58
 70
     1
102
RTVSPropertyOp59
 70
     1
102
RTVSPropertyOp60
 70
     1
102
RTVSPropertyOp61
 70
     1
102
RTVSPropertyOp62
 70
     1
  0
XRECORD
  5
7E1
102
{ACAD_REACTORS
330
7E0
102
}
330
7E0
100
AcDbXrecord
280
     1
102
RTVSPost2010Prop28
280
     0
102
RTVSPost2010PropOp28
 70
     1
102
RTVSPost2010Prop29
280
     1
102
RTVSPost2010PropOp29
 70
     1
102
RTVSPost2010Prop30
280
     1
102
RTVSPost2010PropOp30
 70
     1
102
RTVSPost2010Prop31
280
     0
102
RTVSPost2010PropOp31
 70
     1
102
RTVSPost2010Prop32
280
     0
102
RTVSPost2010PropOp32
 70
     1
102
RTVSPost2010Prop33
280
     0
102
RTVSPost2010PropOp33
 70
     1
102
RTVSPost2010Prop34
280
     0
102
RTVSPost2010PropOp34
 70
     1
102
RTVSPost2010Prop35
280
     0
102
RTVSPost2010PropOp35
 70
     1
102
RTVSPost2010Prop36
280
     0
102
RTVSPost2010PropOp36
 70
     1
102
RTVSPost2010Prop37
 90
       50
102
RTVSPost2010PropOp37
 70
     1
102
RTVSPost2010Prop38
140
0.0
102
RTVSPost2010PropOp38
 70
     1
102
RTVSPost2010Prop39
140
1.0
102
RTVSPost2010PropOp39
 70
     1
102
RTVSPost2010Prop40
 90
        0
102
RTVSPost2010PropOp40
 70
     1
102
RTVSPost2010Prop41ColorIndex
 90
       18
102
RTVSPost2010Prop41ColorRGB
 90
        0
102
RTVSPost2010PropOp41
 70
     1
102
RTVSPost2010Prop42
 90
       50
102
RTVSPost2010PropOp42
 70
     1
102
RTVSPost2010Prop43
 90
        3
102
RTVSPost2010PropOp43
 70
     1
102
RTVSPost2010Prop44ColorIndex
 90
        5
102
RTVSPost2010Prop44ColorRGB
 90
      255
102
RTVSPost2010PropOp44
 70
     1
102
RTVSPost2010Prop45
280
     0
102
RTVSPost2010PropOp45
 70
     1
102
RTVSPost2010Prop46
 90
       50
102
RTVSPost2010PropOp46
 70
     1
102
RTVSPost2010Prop47
 90
       50
102
RTVSPost2010PropOp47
 70
     1
102
RTVSPost2010Prop48
 90
       50
102
RTVSPost2010PropOp48
 70
     1
102
RTVSPost2010Prop49
280
     0
102
RTVSPost2010PropOp49
 70
     1
102
RTVSPost2010Prop50
 90
       50
102
RTVSPost2010PropOp50
 70
     1
102
RTVSPost2010Prop51ColorIndex
 90
      256
102
RTVSPost2010Prop51ColorRGB
 90
-16777216
102
RTVSPost2010PropOp51
 70
     0
102
RTVSPost2010Prop52
140
1.0
102
RTVSPost2010PropOp52
 70
     0
102
RTVSPost2010Prop53
 90
        2
102
RTVSPost2010PropOp53
 70
     1
102
RTVSPost2010Prop54
  1
strokes_ogs.tif
102
RTVSPost2010PropOp54
 70
     1
102
RTVSPost2010Prop55
280
     0
102
RTVSPost2010PropOp55
 70
     1
102
RTVSPost2010Prop56
140
1.0
102
RTVSPost2010PropOp56
 70
     1
102
RTVSPost2010Prop57
140
1.0
102
RTVSPost2010PropOp57
 70
     1
102
RTVSPropertyOp0
 70
     1
102
RTVSPropertyOp1
 70
     1
102
RTVSPropertyOp2
 70
     1
102
RTVSPropertyOp3
 70
     1
102
RTVSPropertyOp4
 70
     1
102
RTVSPropertyOp5
 70
     1
102
RTVSPropertyOp6
 70
     1
102
RTVSPropertyOp7
 70
     1
102
RTVSPropertyOp8
 70
     1
102
RTVSPropertyOp9
 70
     1
102
RTVSPropertyOp10
 70
     1
102
RTVSPropertyOp11
 70
     1
102
RTVSPropertyOp12
 70
     1
102
RTVSPropertyOp13
 70
     1
102
RTVSPropertyOp14
 70
     1
102
RTVSPropertyOp15
 70
     1
102
RTVSPropertyOp16
 70
     1
102
RTVSPropertyOp17
 70
     1
102
RTVSPropertyOp18
 70
     1
102
RTVSPropertyOp19
 70
     1
102
RTVSPropertyOp20
 70
     1
102
RTVSPropertyOp21
 70
     1
102
RTVSPropertyOp22
 70
     1
102
RTVSPropertyOp23
 70
     1
102
RTVSPropertyOp24
 70
     1
102
RTVSPropertyOp25
 70
     1
102
RTVSPropertyOp26
 70
     1
102
RTVSPropertyOp27
 70
     1
102
RTVSPropertyOp28
 70
     1
102
RTVSPropertyOp29
 70
     1
102
RTVSPropertyOp30
 70
     1
102
RTVSPropertyOp31
 70
     1
102
RTVSPropertyOp32
 70
     1
102
RTVSPropertyOp33
 70
     1
102
RTVSPropertyOp34
 70
     1
102
RTVSPropertyOp35
 70
     1
102
RTVSPropertyOp36
 70
     1
102
RTVSPropertyOp37
 70
     1
102
RTVSPropertyOp38
 70
     1
102
RTVSPropertyOp39
 70
     1
102
RTVSPropertyOp40
 70
     1
102
RTVSPropertyOp41
 70
     1
102
RTVSPropertyOp42
 70
     1
102
RTVSPropertyOp43
 70
     1
102
RTVSPropertyOp44
 70
     1
102
RTVSPropertyOp45
 70
     1
102
RTVSPropertyOp46
 70
     1
102
RTVSPropertyOp47
 70
     1
102
RTVSPropertyOp48
 70
     1
102
RTVSPropertyOp49
 70
     1
102
RTVSPropertyOp50
 70
     1
102
RTVSPropertyOp51
 70
     0
102
RTVSPropertyOp52
 70
     0
102
RTVSPropertyOp53
 70
     1
102
RTVSPropertyOp54
 70
     1
102
RTVSPropertyOp55
 70
     1
102
RTVSPropertyOp56
 70
     1
102
RTVSPropertyOp57
 70
     1
102
RTVSPropertyOp58
 70
     1
102
RTVSPropertyOp59
 70
     1
102
RTVSPropertyOp60
 70
     1
102
RTVSPropertyOp61
 70
     1
102
RTVSPropertyOp62
 70
     1
  0
XRECORD
  5
7D5
102
{ACAD_REACTORS
330
7D4
102
}
330
7D4
100
AcDbXrecord
280
     1
102
RTVSPost2010Prop28
280
     0
102
RTVSPost2010PropOp28
 70
     1
102
RTVSPost2010Prop29
280
     1
102
RTVSPost2010PropOp29
 70
     1
102
RTVSPost2010Prop30
280
     1
102
RTVSPost2010PropOp30
 70
     1
102
RTVSPost2010Prop31
280
     0
102
RTVSPost2010PropOp31
 70
     1
102
RTVSPost2010Prop32
280
     0
102
RTVSPost2010PropOp32
 70
     1
102
RTVSPost2010Prop33
280
     0
102
RTVSPost2010PropOp33
 70
     1
102
RTVSPost2010Prop34
280
     0
102
RTVSPost2010PropOp34
 70
     1
102
RTVSPost2010Prop35
280
     0
102
RTVSPost2010PropOp35
 70
     1
102
RTVSPost2010Prop36
280
     0
102
RTVSPost2010PropOp36
 70
     1
102
RTVSPost2010Prop37
 90
       50
102
RTVSPost2010PropOp37
 70
     1
102
RTVSPost2010Prop38
140
0.0
102
RTVSPost2010PropOp38
 70
     1
102
RTVSPost2010Prop39
140
1.0
102
RTVSPost2010PropOp39
 70
     1
102
RTVSPost2010Prop40
 90
        0
102
RTVSPost2010PropOp40
 70
     1
102
RTVSPost2010Prop41ColorIndex
 90
       18
102
RTVSPost2010Prop41ColorRGB
 90
        0
102
RTVSPost2010PropOp41
 70
     1
102
RTVSPost2010Prop42
 90
       50
102
RTVSPost2010PropOp42
 70
     1
102
RTVSPost2010Prop43
 90
        3
102
RTVSPost2010PropOp43
 70
     1
102
RTVSPost2010Prop44ColorIndex
 90
        5
102
RTVSPost2010Prop44ColorRGB
 90
      255
102
RTVSPost2010PropOp44
 70
     1
102
RTVSPost2010Prop45
280
     0
102
RTVSPost2010PropOp45
 70
     1
102
RTVSPost2010Prop46
 90
       50
102
RTVSPost2010PropOp46
 70
     1
102
RTVSPost2010Prop47
 90
       50
102
RTVSPost2010PropOp47
 70
     1
102
RTVSPost2010Prop48
 90
       50
102
RTVSPost2010PropOp48
 70
     1
102
RTVSPost2010Prop49
280
     0
102
RTVSPost2010PropOp49
 70
     1
102
RTVSPost2010Prop50
 90
       50
102
RTVSPost2010PropOp50
 70
     1
102
RTVSPost2010Prop51ColorIndex
 90
      256
102
RTVSPost2010Prop51ColorRGB
 90
-16777216
102
RTVSPost2010PropOp51
 70
     0
102
RTVSPost2010Prop52
140
1.0
102
RTVSPost2010PropOp52
 70
     0
102
RTVSPost2010Prop53
 90
        2
102
RTVSPost2010PropOp53
 70
     1
102
RTVSPost2010Prop54
  1
strokes_ogs.tif
102
RTVSPost2010PropOp54
 70
     1
102
RTVSPost2010Prop55
280
     0
102
RTVSPost2010PropOp55
 70
     1
102
RTVSPost2010Prop56
140
1.0
102
RTVSPost2010PropOp56
 70
     1
102
RTVSPost2010Prop57
140
1.0
102
RTVSPost2010PropOp57
 70
     1
102
RTVSPropertyOp0
 70
     1
102
RTVSPropertyOp1
 70
     1
102
RTVSPropertyOp2
 70
     1
102
RTVSPropertyOp3
 70
     1
102
RTVSPropertyOp4
 70
     1
102
RTVSPropertyOp5
 70
     1
102
RTVSPropertyOp6
 70
     1
102
RTVSPropertyOp7
 70
     1
102
RTVSPropertyOp8
 70
     1
102
RTVSPropertyOp9
 70
     1
102
RTVSPropertyOp10
 70
     1
102
RTVSPropertyOp11
 70
     1
102
RTVSPropertyOp12
 70
     1
102
RTVSPropertyOp13
 70
     1
102
RTVSPropertyOp14
 70
     1
102
RTVSPropertyOp15
 70
     1
102
RTVSPropertyOp16
 70
     1
102
RTVSPropertyOp17
 70
     1
102
RTVSPropertyOp18
 70
     1
102
RTVSPropertyOp19
 70
     1
102
RTVSPropertyOp20
 70
     1
102
RTVSPropertyOp21
 70
     1
102
RTVSPropertyOp22
 70
     1
102
RTVSPropertyOp23
 70
     1
102
RTVSPropertyOp24
 70
     1
102
RTVSPropertyOp25
 70
     1
102
RTVSPropertyOp26
 70
     1
102
RTVSPropertyOp27
 70
     1
102
RTVSPropertyOp28
 70
     1
102
RTVSPropertyOp29
 70
     1
102
RTVSPropertyOp30
 70
     1
102
RTVSPropertyOp31
 70
     1
102
RTVSPropertyOp32
 70
     1
102
RTVSPropertyOp33
 70
     1
102
RTVSPropertyOp34
 70
     1
102
RTVSPropertyOp35
 70
     1
102
RTVSPropertyOp36
 70
     1
102
RTVSPropertyOp37
 70
     1
102
RTVSPropertyOp38
 70
     1
102
RTVSPropertyOp39
 70
     1
102
RTVSPropertyOp40
 70
     1
102
RTVSPropertyOp41
 70
     1
102
RTVSPropertyOp42
 70
     1
102
RTVSPropertyOp43
 70
     1
102
RTVSPropertyOp44
 70
     1
102
RTVSPropertyOp45
 70
     1
102
RTVSPropertyOp46
 70
     1
102
RTVSPropertyOp47
 70
     1
102
RTVSPropertyOp48
 70
     1
102
RTVSPropertyOp49
 70
     1
102
RTVSPropertyOp50
 70
     1
102
RTVSPropertyOp51
 70
     0
102
RTVSPropertyOp52
 70
     0
102
RTVSPropertyOp53
 70
     1
102
RTVSPropertyOp54
 70
     1
102
RTVSPropertyOp55
 70
     1
102
RTVSPropertyOp56
 70
     1
102
RTVSPropertyOp57
 70
     1
102
RTVSPropertyOp58
 70
     1
102
RTVSPropertyOp59
 70
     1
102
RTVSPropertyOp60
 70
     1
102
RTVSPropertyOp61
 70
     1
102
RTVSPropertyOp62
 70
     1
  0
XRECORD
  5
7ED
102
{ACAD_REACTORS
330
7EC
102
}
330
7EC
100
AcDbXrecord
280
     1
102
RTVSPost2010Prop28
280
     0
102
RTVSPost2010PropOp28
 70
     1
102
RTVSPost2010Prop29
280
     1
102
RTVSPost2010PropOp29
 70
     1
102
RTVSPost2010Prop30
280
     1
102
RTVSPost2010PropOp30
 70
     1
102
RTVSPost2010Prop31
280
     0
102
RTVSPost2010PropOp31
 70
     1
102
RTVSPost2010Prop32
280
     0
102
RTVSPost2010PropOp32
 70
     1
102
RTVSPost2010Prop33
280
     0
102
RTVSPost2010PropOp33
 70
     1
102
RTVSPost2010Prop34
280
     0
102
RTVSPost2010PropOp34
 70
     1
102
RTVSPost2010Prop35
280
     0
102
RTVSPost2010PropOp35
 70
     1
102
RTVSPost2010Prop36
280
     0
102
RTVSPost2010PropOp36
 70
     1
102
RTVSPost2010Prop37
 90
       50
102
RTVSPost2010PropOp37
 70
     1
102
RTVSPost2010Prop38
140
0.0
102
RTVSPost2010PropOp38
 70
     1
102
RTVSPost2010Prop39
140
1.0
102
RTVSPost2010PropOp39
 70
     1
102
RTVSPost2010Prop40
 90
        0
102
RTVSPost2010PropOp40
 70
     1
102
RTVSPost2010Prop41ColorIndex
 90
       18
102
RTVSPost2010Prop41ColorRGB
 90
        0
102
RTVSPost2010PropOp41
 70
     1
102
RTVSPost2010Prop42
 90
       50
102
RTVSPost2010PropOp42
 70
     1
102
RTVSPost2010Prop43
 90
        3
102
RTVSPost2010PropOp43
 70
     1
102
RTVSPost2010Prop44ColorIndex
 90
        5
102
RTVSPost2010Prop44ColorRGB
 90
      255
102
RTVSPost2010PropOp44
 70
     1
102
RTVSPost2010Prop45
280
     0
102
RTVSPost2010PropOp45
 70
     1
102
RTVSPost2010Prop46
 90
       50
102
RTVSPost2010PropOp46
 70
     1
102
RTVSPost2010Prop47
 90
       50
102
RTVSPost2010PropOp47
 70
     1
102
RTVSPost2010Prop48
 90
       50
102
RTVSPost2010PropOp48
 70
     1
102
RTVSPost2010Prop49
280
     0
102
RTVSPost2010PropOp49
 70
     1
102
RTVSPost2010Prop50
 90
       50
102
RTVSPost2010PropOp50
 70
     1
102
RTVSPost2010Prop51ColorIndex
 90
      256
102
RTVSPost2010Prop51ColorRGB
 90
-16777216
102
RTVSPost2010PropOp51
 70
     0
102
RTVSPost2010Prop52
140
1.0
102
RTVSPost2010PropOp52
 70
     0
102
RTVSPost2010Prop53
 90
        2
102
RTVSPost2010PropOp53
 70
     1
102
RTVSPost2010Prop54
  1
strokes_ogs.tif
102
RTVSPost2010PropOp54
 70
     1
102
RTVSPost2010Prop55
280
     0
102
RTVSPost2010PropOp55
 70
     1
102
RTVSPost2010Prop56
140
1.0
102
RTVSPost2010PropOp56
 70
     1
102
RTVSPost2010Prop57
140
1.0
102
RTVSPost2010PropOp57
 70
     1
102
RTVSPropertyOp0
 70
     1
102
RTVSPropertyOp1
 70
     1
102
RTVSPropertyOp2
 70
     1
102
RTVSPropertyOp3
 70
     1
102
RTVSPropertyOp4
 70
     1
102
RTVSPropertyOp5
 70
     1
102
RTVSPropertyOp6
 70
     1
102
RTVSPropertyOp7
 70
     1
102
RTVSPropertyOp8
 70
     1
102
RTVSPropertyOp9
 70
     1
102
RTVSPropertyOp10
 70
     1
102
RTVSPropertyOp11
 70
     1
102
RTVSPropertyOp12
 70
     1
102
RTVSPropertyOp13
 70
     1
102
RTVSPropertyOp14
 70
     1
102
RTVSPropertyOp15
 70
     1
102
RTVSPropertyOp16
 70
     1
102
RTVSPropertyOp17
 70
     1
102
RTVSPropertyOp18
 70
     1
102
RTVSPropertyOp19
 70
     1
102
RTVSPropertyOp20
 70
     1
102
RTVSPropertyOp21
 70
     1
102
RTVSPropertyOp22
 70
     1
102
RTVSPropertyOp23
 70
     1
102
RTVSPropertyOp24
 70
     1
102
RTVSPropertyOp25
 70
     1
102
RTVSPropertyOp26
 70
     1
102
RTVSPropertyOp27
 70
     1
102
RTVSPropertyOp28
 70
     1
102
RTVSPropertyOp29
 70
     1
102
RTVSPropertyOp30
 70
     1
102
RTVSPropertyOp31
 70
     1
102
RTVSPropertyOp32
 70
     1
102
RTVSPropertyOp33
 70
     1
102
RTVSPropertyOp34
 70
     1
102
RTVSPropertyOp35
 70
     1
102
RTVSPropertyOp36
 70
     1
102
RTVSPropertyOp37
 70
     1
102
RTVSPropertyOp38
 70
     1
102
RTVSPropertyOp39
 70
     1
102
RTVSPropertyOp40
 70
     1
102
RTVSPropertyOp41
 70
     1
102
RTVSPropertyOp42
 70
     1
102
RTVSPropertyOp43
 70
     1
102
RTVSPropertyOp44
 70
     1
102
RTVSPropertyOp45
 70
     1
102
RTVSPropertyOp46
 70
     1
102
RTVSPropertyOp47
 70
     1
102
RTVSPropertyOp48
 70
     1
102
RTVSPropertyOp49
 70
     1
102
RTVSPropertyOp50
 70
     1
102
RTVSPropertyOp51
 70
     0
102
RTVSPropertyOp52
 70
     0
102
RTVSPropertyOp53
 70
     1
102
RTVSPropertyOp54
 70
     1
102
RTVSPropertyOp55
 70
     1
102
RTVSPropertyOp56
 70
     1
102
RTVSPropertyOp57
 70
     1
102
RTVSPropertyOp58
 70
     1
102
RTVSPropertyOp59
 70
     1
102
RTVSPropertyOp60
 70
     1
102
RTVSPropertyOp61
 70
     1
102
RTVSPropertyOp62
 70
     1
  0
ENDSEC
  0
EOF
