  0
SECTION
  2
HEADER
  9
$ACADVER
  1
AC1018
  9
$ACADMAINTVER
 70
   104
  9
$DWGCODEPAGE
  3
ANSI_932
  9
$TITLE
  1
15㎏型 LPガス容器
  9
$SUBJECT
  1
組立図　（構内フォークリフト用、Ａ型）
  9
$AUTHOR
  1
岩﨑
  9
$KEYWORDS
  1
LP-36-5760
  9
$COMMENTS
  1
K-CADで作成した図をAuto-CAD化したもの^M^J^M^J2014.1.28　変換ブッシング検討^M^J^M^JHP掲載用^M^J2022.5.30
  9
$LASTSAVEDBY
  1
CKK004820
  9
$INSBASE
 10
0.0
 20
0.0
 30
0.0
  9
$EXTMIN
 10
22.49999966813584
 20
6.749999400701199
 30
-0.0000000116415251
  9
$EXTMAX
 10
1237.499998498859
 20
884.2499995682192
 30
-0.0000000116415251
  9
$LIMMIN
 10
-3.17498779296875
 20
-3.174999952316283
  9
$LIMMAX
 10
416.8139953613281
 20
293.8356506824494
  9
$ORTHOMODE
 70
     1
  9
$REGENMODE
 70
     1
  9
$FILLMODE
 70
     1
  9
$QTEXTMODE
 70
     0
  9
$MIRRTEXT
 70
     0
  9
$LTSCALE
 40
0.5
  9
$ATTMODE
 70
     1
  9
$TEXTSIZE
 40
4.0
  9
$TRACEWID
 40
1.0
  9
$TEXTSTYLE
  7
Standard
  9
$CLAYER
  8
Size
  9
$CELTYPE
  6
ByLayer
  9
$CECOLOR
 62
   256
  9
$CELTSCALE
 40
1.0
  9
$DISPSILH
 70
     0
  9
$DIMSCALE
 40
1.0
  9
$DIMASZ
 40
0.001
  9
$DIMEXO
 40
0.625
  9
$DIMDLI
 40
6.0
  9
$DIMRND
 40
0.0
  9
$DIMDLE
 40
0.0
  9
$DIMEXE
 40
1.25
  9
$DIMTP
 40
0.0
  9
$DIMTM
 40
0.000000001
  9
$DIMTXT
 40
4.0
  9
$DIMCEN
 40
0.0
  9
$DIMTSZ
 40
0.0
  9
$DIMTOL
 70
     0
  9
$DIMLIM
 70
     0
  9
$DIMTIH
 70
     0
  9
$DIMTOH
 70
     0
  9
$DIMSE1
 70
     0
  9
$DIMSE2
 70
     0
  9
$DIMTAD
 70
     1
  9
$DIMZIN
 70
     8
  9
$DIMBLK
  1
30a
  9
$DIMASO
 70
     1
  9
$DIMSHO
 70
     1
  9
$DIMPOST
  1

  9
$DIMAPOST
  1

  9
$DIMALT
 70
     0
  9
$DIMALTD
 70
     3
  9
$DIMALTF
 40
0.03937007874016
  9
$DIMLFAC
 40
1.0
  9
$DIMTOFL
 70
     0
  9
$DIMTVP
 40
0.0
  9
$DIMTIX
 70
     0
  9
$DIMSOXD
 70
     0
  9
$DIMSAH
 70
     0
  9
$DIMBLK1
  1

  9
$DIMBLK2
  1

  9
$DIMSTYLE
  2
設計
  9
$DIMCLRD
 70
     0
  9
$DIMCLRE
 70
     0
  9
$DIMCLRT
 70
     0
  9
$DIMTFAC
 40
0.5
  9
$DIMGAP
 40
0.625
  9
$DIMJUST
 70
     0
  9
$DIMSD1
 70
     0
  9
$DIMSD2
 70
     0
  9
$DIMTOLJ
 70
     0
  9
$DIMTZIN
 70
     8
  9
$DIMALTZ
 70
     0
  9
$DIMALTTZ
 70
     0
  9
$DIMUPT
 70
     0
  9
$DIMDEC
 70
     2
  9
$DIMTDEC
 70
     2
  9
$DIMALTU
 70
     2
  9
$DIMALTTD
 70
     3
  9
$DIMTXSTY
  7
Standard
  9
$DIMAUNIT
 70
     0
  9
$DIMADEC
 70
     0
  9
$DIMALTRND
 40
0.0
  9
$DIMAZIN
 70
     0
  9
$DIMDSEP
 70
    46
  9
$DIMATFIT
 70
     3
  9
$DIMFRAC
 70
     0
  9
$DIMLDRBLK
  1
30a
  9
$DIMLUNIT
 70
     2
  9
$DIMLWD
 70
     9
  9
$DIMLWE
 70
     9
  9
$DIMTMOVE
 70
     0
  9
$LUNITS
 70
     2
  9
$LUPREC
 70
     4
  9
$SKETCHINC
 40
1.0
  9
$FILLETRAD
 40
0.0
  9
$AUNITS
 70
     0
  9
$AUPREC
 70
     8
  9
$MENU
  1
.
  9
$ELEVATION
 40
0.0
  9
$PELEVATION
 40
0.0
  9
$THICKNESS
 40
0.0
  9
$LIMCHECK
 70
     0
  9
$CHAMFERA
 40
0.5
  9
$CHAMFERB
 40
0.5
  9
$CHAMFERC
 40
0.0
  9
$CHAMFERD
 40
0.0
  9
$SKPOLY
 70
     0
  9
$TDCREATE
 40
2460957.648182870
  9
$TDUCREATE
 40
2460957.273182871
  9
$TDUPDATE
 40
2460957.650636574
  9
$TDUUPDATE
 40
2460957.275636574
  9
$TDINDWG
 40
0.0020254630
  9
$TDUSRTIMER
 40
0.0020254630
  9
$USRTIMER
 70
     1
  9
$ANGBASE
 50
0.0
  9
$ANGDIR
 70
     0
  9
$PDMODE
 70
     0
  9
$PDSIZE
 40
0.0
  9
$PLINEWID
 40
0.0
  9
$SPLFRAME
 70
     0
  9
$SPLINETYPE
 70
     6
  9
$SPLINESEGS
 70
     8
  9
$HANDSEED
  5
7A0
  9
$SURFTAB1
 70
     6
  9
$SURFTAB2
 70
     6
  9
$SURFTYPE
 70
     6
  9
$SURFU
 70
     6
  9
$SURFV
 70
     6
  9
$UCSBASE
  2

  9
$UCSNAME
  2

  9
$UCSORG
 10
0.0
 20
0.0
 30
0.0
  9
$UCSXDIR
 10
1.0
 20
0.0
 30
0.0
  9
$UCSYDIR
 10
0.0
 20
1.0
 30
0.0
  9
$UCSORTHOREF
  2

  9
$UCSORTHOVIEW
 70
     0
  9
$UCSORGTOP
 10
0.0
 20
0.0
 30
0.0
  9
$UCSORGBOTTOM
 10
0.0
 20
0.0
 30
0.0
  9
$UCSORGLEFT
 10
0.0
 20
0.0
 30
0.0
  9
$UCSORGRIGHT
 10
0.0
 20
0.0
 30
0.0
  9
$UCSORGFRONT
 10
0.0
 20
0.0
 30
0.0
  9
$UCSORGBACK
 10
0.0
 20
0.0
 30
0.0
  9
$PUCSBASE
  2

  9
$PUCSNAME
  2

  9
$PUCSORG
 10
0.0
 20
0.0
 30
0.0
  9
$PUCSXDIR
 10
1.0
 20
0.0
 30
0.0
  9
$PUCSYDIR
 10
0.0
 20
1.0
 30
0.0
  9
$PUCSORTHOREF
  2

  9
$PUCSORTHOVIEW
 70
     0
  9
$PUCSORGTOP
 10
0.0
 20
0.0
 30
0.0
  9
$PUCSORGBOTTOM
 10
0.0
 20
0.0
 30
0.0
  9
$PUCSORGLEFT
 10
0.0
 20
0.0
 30
0.0
  9
$PUCSORGRIGHT
 10
0.0
 20
0.0
 30
0.0
  9
$PUCSORGFRONT
 10
0.0
 20
0.0
 30
0.0
  9
$PUCSORGBACK
 10
0.0
 20
0.0
 30
0.0
  9
$USERI1
 70
     0
  9
$USERI2
 70
     0
  9
$USERI3
 70
     0
  9
$USERI4
 70
     0
  9
$USERI5
 70
     0
  9
$USERR1
 40
0.0
  9
$USERR2
 40
0.0
  9
$USERR3
 40
0.0
  9
$USERR4
 40
0.0
  9
$USERR5
 40
0.0
  9
$WORLDVIEW
 70
     1
  9
$SHADEDGE
 70
     3
  9
$SHADEDIF
 70
    70
  9
$TILEMODE
 70
     1
  9
$MAXACTVP
 70
    64
  9
$PINSBASE
 10
0.0
 20
0.0
 30
0.0
  9
$PLIMCHECK
 70
     0
  9
$PEXTMIN
 10
29.69999999999999
 20
21.0
 30
0.0
  9
$PEXTMAX
 10
267.3
 20
189.0
 30
0.0
  9
$PLIMMIN
 10
0.0
 20
0.0
  9
$PLIMMAX
 10
297.0
 20
210.0
  9
$UNITMODE
 70
     0
  9
$VISRETAIN
 70
     1
  9
$PLINEGEN
 70
     0
  9
$PSLTSCALE
 70
     1
  9
$TREEDEPTH
 70
  3020
  9
$CMLSTYLE
  2
Standard
  9
$CMLJUST
 70
     0
  9
$CMLSCALE
 40
20.0
  9
$PROXYGRAPHICS
 70
     1
  9
$MEASUREMENT
 70
     1
  9
$CELWEIGHT
370
    -1
  9
$ENDCAPS
280
     0
  9
$JOINSTYLE
280
     0
  9
$LWDISPLAY
290
     0
  9
$INSUNITS
 70
     4
  9
$HYPERLINKBASE
  1

  9
$STYLESHEET
  1

  9
$XEDIT
290
     1
  9
$CEPSNTYPE
380
     0
  9
$PSTYLEMODE
290
     0
  9
$FINGERPRINTGUID
  2
{C91380F6-9B93-644D-932F-9C0563B7F6FA}
  9
$VERSIONGUID
  2
{82607816-F31C-2941-881A-DA900EBEAAB4}
  9
$EXTNAMES
290
     1
  9
$PSVPSCALE
 40
0.0
  9
$OLESTARTUP
290
     0
  9
$SORTENTS
280
   127
  9
$INDEXCTL
280
     0
  9
$HIDETEXT
280
     1
  9
$XCLIPFRAME
290
     0
  9
$HALOGAP
280
     0
  9
$OBSCOLOR
 70
   257
  9
$OBSLTYPE
280
     0
  9
$INTERSECTIONDISPLAY
280
     0
  9
$INTERSECTIONCOLOR
 70
   257
  9
$DIMASSOC
280
     2
  9
$PROJECTNAME
  1

  0
ENDSEC
  0
SECTION
  2
CLASSES
  0
CLASS
  1
ACDBDICTIONARYWDFLT
  2
AcDbDictionaryWithDefault
  3
ObjectDBX Classes
 90
        0
 91
        1
280
     0
281
     0
  0
CLASS
  1
MATERIAL
  2
AcDbMaterial
  3
ObjectDBX Classes
 90
     1153
 91
        3
280
     0
281
     0
  0
CLASS
  1
VISUALSTYLE
  2
AcDbVisualStyle
  3
ObjectDBX Classes
 90
     4095
 91
       24
280
     0
281
     0
  0
CLASS
  1
SCALE
  2
AcDbScale
  3
ObjectDBX Classes
 90
     1153
 91
       17
280
     0
281
     0
  0
CLASS
  1
TABLESTYLE
  2
AcDbTableStyle
  3
ObjectDBX Classes
 90
     4095
 91
        1
280
     0
281
     0
  0
CLASS
  1
MLEADERSTYLE
  2
AcDbMLeaderStyle
  3
ACDB_MLEADERSTYLE_CLASS
 90
     4095
 91
        1
280
     0
281
     0
  0
CLASS
  1
ACDBSECTIONVIEWSTYLE
  2
AcDbSectionViewStyle
  3
ObjectDBX Classes
 90
     1025
 91
        2
280
     0
281
     0
  0
CLASS
  1
ACDBDETAILVIEWSTYLE
  2
AcDbDetailViewStyle
  3
ObjectDBX Classes
 90
     1025
 91
        2
280
     0
281
     0
  0
CLASS
  1
SORTENTSTABLE
  2
AcDbSortentsTable
  3
ObjectDBX Classes
 90
        0
 91
        2
280
     0
281
     0
  0
CLASS
  1
DIMASSOC
  2
AcDbDimAssoc
  3
"AcDbDimAssoc|Product Desc:     AcDim ARX App For Dimension|Company:          Autodesk, Inc.|WEB Address:      www.autodesk.com"
 90
        0
 91
        0
280
     0
281
     0
  0
CLASS
  1
DICTIONARYVAR
  2
AcDbDictionaryVar
  3
ObjectDBX Classes
 90
        0
 91
       10
280
     0
281
     0
  0
CLASS
  1
CELLSTYLEMAP
  2
AcDbCellStyleMap
  3
ObjectDBX Classes
 90
     1152
 91
        2
280
     0
281
     0
  0
ENDSEC
  0
SECTION
  2
TABLES
  0
TABLE
  2
VPORT
  5
8
330
0
100
AcDbSymbolTable
 70
     1
  0
VPORT
  5
57
330
8
100
AcDbSymbolTableRecord
100
AcDbViewportTableRecord
  2
*Active
 70
     0
 10
0.0
 20
0.0
 11
1.0
 21
1.0
 12
629.9999990834975
 22
445.4999994844601
 13
0.0
 23
0.0
 14
10.0
 24
10.0
 15
10.0
 25
10.0
 16
0.0
 26
0.0
 36
1.0
 17
0.0
 27
0.0
 37
0.0
 40
883.4693879237596
 41
1.62883087400681
 42
50.0
 43
0.0
 44
0.0
 50
0.0
 51
0.0
 71
     0
 72
  1000
 73
     1
 74
     1
 75
     0
 76
     0
 77
     0
 78
     0
281
     0
 65
     1
110
0.0
120
0.0
130
0.0
111
1.0
121
0.0
131
0.0
112
0.0
122
1.0
132
0.0
 79
     0
146
0.0
1001
ACAD_NAV_VCDISPLAY
1070
     3
  0
ENDTAB
  0
TABLE
  2
LTYPE
  5
5
330
0
100
AcDbSymbolTable
 70
     6
  0
LTYPE
  5
5B
330
5
100
AcDbSymbolTableRecord
100
AcDbLinetypeTableRecord
  2
ByBlock
 70
     0
  3

 72
    65
 73
     0
 40
0.0
  0
LTYPE
  5
5C
330
5
100
AcDbSymbolTableRecord
100
AcDbLinetypeTableRecord
  2
ByLayer
 70
     0
  3

 72
    65
 73
     0
 40
0.0
  0
LTYPE
  5
5D
330
5
100
AcDbSymbolTableRecord
100
AcDbLinetypeTableRecord
  2
Continuous
 70
     0
  3
Solid line
 72
    65
 73
     0
 40
0.0
  0
LTYPE
  5
7A
330
5
100
AcDbSymbolTableRecord
100
AcDbLinetypeTableRecord
  2
CENTER2
 70
     0
  3
Center (.5x) ___ _ ___ _ ___ _ ___ _ ___ _ ___
 72
    65
 73
     4
 40
28.575
 49
19.05
 74
     0
 49
-3.174999999999998
 74
     0
 49
3.174999999999998
 74
     0
 49
-3.174999999999998
 74
     0
  0
LTYPE
  5
7B
330
5
100
AcDbSymbolTableRecord
100
AcDbLinetypeTableRecord
  2
DASHED2
 70
     0
  3
Dashed (.5x) _ _ _ _ _ _ _ _ _ _ _ _ _ _ _ _ _
 72
    65
 73
     2
 40
9.524999999999996
 49
6.349999999999998
 74
     0
 49
-3.174999999999998
 74
     0
  0
LTYPE
  5
7C
330
5
100
AcDbSymbolTableRecord
100
AcDbLinetypeTableRecord
  2
HIDDEN2
 70
     0
  3
Hidden (.5x) _ _ _ _ _ _ _ _ _ _ _ _ _ _ _ _ _
 72
    65
 73
     2
 40
4.762499999999998
 49
3.174999999999998
 74
     0
 49
-1.587499999999999
 74
     0
  0
LTYPE
  5
7D
330
5
100
AcDbSymbolTableRecord
100
AcDbLinetypeTableRecord
  2
PHANTOM2
 70
     0
  3
Phantom (.5x) ___ _ _ ___ _ _ ___ _ _ ___ _ _
 72
    65
 73
     6
 40
31.75
 49
15.875
 74
     0
 49
-3.174999999999998
 74
     0
 49
3.174999999999998
 74
     0
 49
-3.174999999999998
 74
     0
 49
3.174999999999998
 74
     0
 49
-3.174999999999998
 74
     0
  0
ENDTAB
  0
TABLE
  2
LAYER
  5
2
102
{ACAD_XDICTIONARY
360
653
102
}
330
0
100
AcDbSymbolTable
 70
     8
  0
LAYER
  5
54
102
{ACAD_XDICTIONARY
360
6F3
102
}
330
2
100
AcDbSymbolTableRecord
100
AcDbLayerTableRecord
  2
0
 70
     0
 62
     7
  6
Continuous
370
    -3
390
83
1001
AcAecLayerStandard
1000

1000

  0
LAYER
  5
79
330
2
100
AcDbSymbolTableRecord
100
AcDbLayerTableRecord
  2
Defpoints
 70
     0
 62
   151
  6
Continuous
290
     0
370
    -3
390
83
1001
AcAecLayerStandard
1000

1000
非表示用
  0
LAYER
  5
96
102
{ACAD_XDICTIONARY
360
97
102
}
330
2
100
AcDbSymbolTableRecord
100
AcDbLayerTableRecord
  2
Center
 70
     0
 62
     2
  6
CENTER2
370
     9
390
83
1001
AcAecLayerStandard
1000

1000
一点鎖線
  0
LAYER
  5
9D
102
{ACAD_XDICTIONARY
360
9E
102
}
330
2
100
AcDbSymbolTableRecord
100
AcDbLayerTableRecord
  2
Line
 70
     0
 62
     3
  6
Continuous
370
    30
390
83
1001
AcAecLayerStandard
1000

1000
実線
  0
LAYER
  5
D0
102
{ACAD_XDICTIONARY
360
D1
102
}
330
2
100
AcDbSymbolTableRecord
100
AcDbLayerTableRecord
  2
Hidden
 70
     0
 62
     7
  6
HIDDEN2
370
     9
390
83
1001
AcAecLayerStandard
1000

1000
点線
  0
LAYER
  5
E0
102
{ACAD_XDICTIONARY
360
E1
102
}
330
2
100
AcDbSymbolTableRecord
100
AcDbLayerTableRecord
  2
Phantom
 70
     0
 62
     7
  6
PHANTOM2
370
     9
390
83
1001
AcAecLayerStandard
1000

1000
二点鎖線
  0
LAYER
  5
1D8
102
{ACAD_XDICTIONARY
360
1D9
102
}
330
2
100
AcDbSymbolTableRecord
100
AcDbLayerTableRecord
  2
Text
 70
     0
 62
     7
  6
Continuous
370
    30
390
83
1001
AcAecLayerStandard
1000

1000
文字
  0
LAYER
  5
1F2
102
{ACAD_XDICTIONARY
360
1F3
102
}
330
2
100
AcDbSymbolTableRecord
100
AcDbLayerTableRecord
  2
Size
 70
     0
 62
    40
  6
Continuous
370
    30
390
83
1001
AcAecLayerStandard
1000

1000
寸法
  0
ENDTAB
  0
TABLE
  2
STYLE
  5
3
330
0
100
AcDbSymbolTable
 70
     2
  0
STYLE
  5
55
330
3
100
AcDbSymbolTableRecord
100
AcDbTextStyleTableRecord
  2
Standard
 70
     0
 40
0.0
 41
1.0
 50
0.0
 71
     0
 42
4.0
  3
exthalf2.shx
  4
extfont2.shx
  0
STYLE
  5
5A
330
3
100
AcDbSymbolTableRecord
100
AcDbTextStyleTableRecord
  2
Annotative
 70
     0
 40
0.0
 41
1.0
 50
0.0
 71
     0
 42
0.2
  3
txt
  4

1001
AcadAnnotative
1000
AnnotativeData
1002
{
1070
     1
1070
     1
1002
}
  0
ENDTAB
  0
TABLE
  2
VIEW
  5
6
330
0
100
AcDbSymbolTable
 70
     0
  0
ENDTAB
  0
TABLE
  2
UCS
  5
7
330
0
100
AcDbSymbolTable
 70
     0
  0
ENDTAB
  0
TABLE
  2
APPID
  5
9
330
0
100
AcDbSymbolTable
 70
    16
  0
APPID
  5
56
330
9
100
AcDbSymbolTableRecord
100
AcDbRegAppTableRecord
  2
ACAD
 70
     0
  0
APPID
  5
5E
330
9
100
AcDbSymbolTableRecord
100
AcDbRegAppTableRecord
  2
AcadAnnotative
 70
     0
  0
APPID
  5
78
330
9
100
AcDbSymbolTableRecord
100
AcDbRegAppTableRecord
  2
ACAD_PSEXT
 70
     0
  0
APPID
  5
85
330
9
100
AcDbSymbolTableRecord
100
AcDbRegAppTableRecord
  2
AcDbBlockRepETag
 70
     0
  0
APPID
  5
89
330
9
100
AcDbSymbolTableRecord
100
AcDbRegAppTableRecord
  2
AcDbDynamicBlockGUID
 70
     0
  0
APPID
  5
8A
330
9
100
AcDbSymbolTableRecord
100
AcDbRegAppTableRecord
  2
ACAD_DSTYLE_DIMJOGGED_JOGANGLE_SYMBOL
 70
     0
  0
APPID
  5
99
330
9
100
AcDbSymbolTableRecord
100
AcDbRegAppTableRecord
  2
AcAecLayerStandard
 70
     0
  0
APPID
  5
9A
330
9
100
AcDbSymbolTableRecord
100
AcDbRegAppTableRecord
  2
Sigma
 70
     0
  0
APPID
  5
200
330
9
100
AcDbSymbolTableRecord
100
AcDbRegAppTableRecord
  2
ACAD_DIMASSOC_OVERRIDDEN_DIMLFAC
 70
     0
  0
APPID
  5
201
330
9
100
AcDbSymbolTableRecord
100
AcDbRegAppTableRecord
  2
ACAD_DIMASSOC_CALC_DIMLFAC
 70
     0
  0
APPID
  5
202
330
9
100
AcDbSymbolTableRecord
100
AcDbRegAppTableRecord
  2
ACAD_DIMASSOC_DIMLFAC
 70
     0
  0
APPID
  5
65A
330
9
100
AcDbSymbolTableRecord
100
AcDbRegAppTableRecord
  2
ACAD_NAV_VCDISPLAY
 70
     0
  0
APPID
  5
6F0
330
9
100
AcDbSymbolTableRecord
100
AcDbRegAppTableRecord
  2
ACAD_EXEMPT_FROM_CAD_STANDARDS
 70
     0
  0
APPID
  5
738
330
9
100
AcDbSymbolTableRecord
100
AcDbRegAppTableRecord
  2
ACAD_MLEADERVER
 70
     0
  0
APPID
  5
73F
330
9
100
AcDbSymbolTableRecord
100
AcDbRegAppTableRecord
  2
ACAD_DSTYLE_DIMARC_LENGTH_SYMBOL
 70
     0
  0
APPID
  5
740
330
9
100
AcDbSymbolTableRecord
100
AcDbRegAppTableRecord
  2
ACAD_DSTYLE_DIMEXT_LENGTH
 70
     0
  0
ENDTAB
  0
TABLE
  2
DIMSTYLE
  5
A
330
0
100
AcDbSymbolTable
 70
     5
100
AcDbDimStyleTable
 71
     1
340
7E
  0
DIMSTYLE
105
58
330
A
100
AcDbSymbolTableRecord
100
AcDbDimStyleTableRecord
  2
Standard
 70
     0
340
55
  0
DIMSTYLE
105
59
330
A
100
AcDbSymbolTableRecord
100
AcDbDimStyleTableRecord
  2
Annotative
 70
     0
340
55
1001
AcadAnnotative
1000
AnnotativeData
1002
{
1070
     1
1070
     1
1002
}
  0
DIMSTYLE
105
7E
330
A
100
AcDbSymbolTableRecord
100
AcDbDimStyleTableRecord
  2
設計
 70
     0
 41
0.001
 42
0.625
 43
6.0
 44
1.25
 48
0.000000001
 73
     0
 74
     0
 77
     1
 78
     8
140
4.0
141
0.0
143
0.03937007874016
146
0.5
147
0.625
171
     3
271
     2
272
     2
274
     3
283
     0
284
     8
340
55
341
7F
342
7F
371
     9
372
     9
1001
ACAD_DSTYLE_DIMARC_LENGTH_SYMBOL
1070
   379
1070
     1
1001
ACAD_DSTYLE_DIMEXT_LENGTH
1070
   378
1040
1.25
1001
ACAD_DSTYLE_DIMJOGGED_JOGANGLE_SYMBOL
1070
   384
1040
1.570796326794896
  0
DIMSTYLE
105
8B
330
A
100
AcDbSymbolTableRecord
100
AcDbDimStyleTableRecord
  2
設計$2
 70
     0
 41
2.0
 42
0.625
 43
6.0
 44
1.25
 48
0.000000001
 73
     0
 74
     0
 77
     1
 78
     8
140
4.0
141
0.0
143
0.03937007874016
146
0.5
147
0.625
171
     3
271
     2
272
     2
274
     3
283
     0
284
     8
340
55
341
7F
342
8C
371
     9
372
     9
1001
ACAD_DSTYLE_DIMARC_LENGTH_SYMBOL
1070
   379
1070
     1
1001
ACAD_DSTYLE_DIMEXT_LENGTH
1070
   378
1040
1.25
1001
ACAD_DSTYLE_DIMJOGGED_JOGANGLE_SYMBOL
1070
   384
1040
1.570796326794896
  0
DIMSTYLE
105
92
330
A
100
AcDbSymbolTableRecord
100
AcDbDimStyleTableRecord
  2
設計$3
 70
     0
 41
0.001
 42
0.625
 43
6.0
 44
1.25
 48
0.000000001
 73
     0
 74
     0
 77
     1
 78
     8
140
4.0
141
0.0
143
0.03937007874016
146
0.5
147
0.625
171
     3
172
     1
271
     2
272
     2
274
     3
283
     0
284
     8
288
     1
289
     0
340
55
341
7F
342
7F
371
     9
372
     9
1001
ACAD_DSTYLE_DIMARC_LENGTH_SYMBOL
1070
   379
1070
     1
1001
ACAD_DSTYLE_DIMEXT_LENGTH
1070
   378
1040
1.25
1001
ACAD_DSTYLE_DIMJOGGED_JOGANGLE_SYMBOL
1070
   384
1040
1.570796326794896
  0
ENDTAB
  0
TABLE
  2
BLOCK_RECORD
  5
1
330
0
100
AcDbSymbolTable
 70
    14
  0
BLOCK_RECORD
  5
70
102
{ACAD_XDICTIONARY
360
ED
102
}
330
1
100
AcDbSymbolTableRecord
100
AcDbBlockTableRecord
  2
*Model_Space
340
73
  0
BLOCK_RECORD
  5
6C
330
1
100
AcDbSymbolTableRecord
100
AcDbBlockTableRecord
  2
*Paper_Space
340
6F
  0
BLOCK_RECORD
  5
7F
102
{ACAD_XDICTIONARY
360
80
102
}
330
1
100
AcDbSymbolTableRecord
100
AcDbBlockTableRecord
  2
30a
340
0
102
{BLKREFS
331
629
331
62A
331
632
331
633
331
642
331
643
331
6E3
331
6E4
331
6E7
331
6EA
331
6ED
331
677
331
678
331
67E
331
67F
331
5E4
331
5E5
331
687
331
688
331
6A4
331
6A5
331
6AA
331
6AB
331
6B0
331
6B1
331
6B5
331
6B6
331
6BB
331
6BC
331
6C1
331
6C2
331
6C5
331
6C6
331
6CB
331
6CC
331
6D1
331
6D2
331
6D7
331
6D8
331
6DE
331
6DF
331
59B
331
59C
331
5A4
331
5A5
331
5CD
331
5CE
331
5D5
331
5D6
331
5DD
331
5DE
102
}
1001
AcDbDynamicBlockGUID
1000
{389DF1C4-3B1C-4050-A5E6-C67CA2AE57A6}
1001
AcDbBlockRepETag
1070
     1
1071
        6
1001
ACAD
1000
DesignCenter Data
1002
{
1070
     1
1070
     4
1002
}
  0
BLOCK_RECORD
  5
8C
330
1
100
AcDbSymbolTableRecord
100
AcDbBlockTableRecord
  2
_Open30
340
0
  0
BLOCK_RECORD
  5
2B2
330
1
100
AcDbSymbolTableRecord
100
AcDbBlockTableRecord
  2
*D2
340
0
  0
BLOCK_RECORD
  5
2BD
330
1
100
AcDbSymbolTableRecord
100
AcDbBlockTableRecord
  2
*D3
340
0
  0
BLOCK_RECORD
  5
2C8
330
1
100
AcDbSymbolTableRecord
100
AcDbBlockTableRecord
  2
*D4
340
0
  0
BLOCK_RECORD
  5
2D3
330
1
100
AcDbSymbolTableRecord
100
AcDbBlockTableRecord
  2
*D5
340
0
  0
BLOCK_RECORD
  5
2DE
330
1
100
AcDbSymbolTableRecord
100
AcDbBlockTableRecord
  2
*D6
340
0
  0
BLOCK_RECORD
  5
2EA
330
1
100
AcDbSymbolTableRecord
100
AcDbBlockTableRecord
  2
*D7
340
0
  0
BLOCK_RECORD
  5
2F6
330
1
100
AcDbSymbolTableRecord
100
AcDbBlockTableRecord
  2
*D8
340
0
  0
BLOCK_RECORD
  5
300
330
1
100
AcDbSymbolTableRecord
100
AcDbBlockTableRecord
  2
*D9
340
0
  0
BLOCK_RECORD
  5
30C
330
1
100
AcDbSymbolTableRecord
100
AcDbBlockTableRecord
  2
*D10
340
0
  0
BLOCK_RECORD
  5
318
330
1
100
AcDbSymbolTableRecord
100
AcDbBlockTableRecord
  2
*D11
340
0
  0
BLOCK_RECORD
  5
324
330
1
100
AcDbSymbolTableRecord
100
AcDbBlockTableRecord
  2
*D12
340
0
  0
BLOCK_RECORD
  5
32F
330
1
100
AcDbSymbolTableRecord
100
AcDbBlockTableRecord
  2
*D13
340
0
  0
ENDTAB
  0
ENDSEC
  0
SECTION
  2
BLOCKS
  0
BLOCK
  5
71
330
70
100
AcDbEntity
  8
0
100
AcDbBlockBegin
  2
*Model_Space
 70
     0
 10
0.0
 20
0.0
 30
0.0
  3
*Model_Space
  1

  0
ENDBLK
  5
72
330
70
100
AcDbEntity
  8
0
100
AcDbBlockEnd
  0
BLOCK
  5
6D
330
6C
100
AcDbEntity
 67
     1
  8
0
100
AcDbBlockBegin
  2
*Paper_Space
 70
     0
 10
0.0
 20
0.0
 30
0.0
  3
*Paper_Space
  1

  0
ENDBLK
  5
6E
330
6C
100
AcDbEntity
 67
     1
  8
0
100
AcDbBlockEnd
  0
BLOCK
  5
82
330
7F
100
AcDbEntity
  8
0
390
83
100
AcDbBlockBegin
  2
30a
 70
     0
 10
0.0
 20
0.0
 30
0.0
  3
30a
  1

  0
LINE
  5
84
330
7F
100
AcDbEntity
  8
0
  6
ByBlock
 62
     0
370
    -2
100
AcDbLine
 10
0.0000000000002331
 20
0.0000000000000381
 30
0.0
 11
-3500.0
 21
0.0000000000002524
 31
0.0
1001
AcDbBlockRepETag
1070
     1
1071
        3
1005
84
  0
LINE
  5
86
330
7F
100
AcDbEntity
  8
0
  6
ByBlock
 62
     0
370
    -2
100
AcDbLine
 10
0.0000000000003695
 20
0.0000000000000076
 30
0.0
 11
-1931.851652578136
 21
517.6380902050416
 31
0.0
1001
AcDbBlockRepETag
1070
     1
1071
        4
1005
86
  0
LINE
  5
87
330
7F
100
AcDbEntity
  8
0
  6
ByBlock
 62
     0
370
    -2
100
AcDbLine
 10
0.0000000000003695
 20
0.0000000000000076
 30
0.0
 11
-1931.851652578136
 21
-517.6380902050413
 31
0.0
1001
AcDbBlockRepETag
1070
     1
1071
        5
1005
87
  0
ENDBLK
  5
88
330
7F
100
AcDbEntity
  8
0
390
83
100
AcDbBlockEnd
  0
BLOCK
  5
8D
330
8C
100
AcDbEntity
  8
0
100
AcDbBlockBegin
  2
_Open30
 70
     0
 10
0.0
 20
0.0
 30
0.0
  3
_Open30
  1

  0
LINE
  5
8E
330
8C
100
AcDbEntity
  8
0
  6
ByBlock
 62
     0
370
    -2
100
AcDbLine
 10
-1.0
 20
0.26794919
 30
0.0
 11
0.0
 21
0.0
 31
0.0
  0
LINE
  5
8F
330
8C
100
AcDbEntity
  8
0
  6
ByBlock
 62
     0
370
    -2
100
AcDbLine
 10
0.0
 20
0.0
 30
0.0
 11
-1.0
 21
-0.26794919
 31
0.0
  0
LINE
  5
90
330
8C
100
AcDbEntity
  8
0
  6
ByBlock
 62
     0
370
    -2
100
AcDbLine
 10
0.0
 20
0.0
 30
0.0
 11
-1.0
 21
0.0
 31
0.0
  0
ENDBLK
  5
91
330
8C
100
AcDbEntity
  8
0
100
AcDbBlockEnd
  0
BLOCK
  5
2B3
330
2B2
100
AcDbEntity
  8
0
100
AcDbBlockBegin
  2
*D2
 70
     1
 10
0.0
 20
0.0
 30
0.0
  3
*D2
  1

  0
LINE
  5
5D2
330
2B2
100
AcDbEntity
  8
Size
 62
     0
440
 16777216
370
     9
100
AcDbLine
 10
289.9364380329684
 20
524.8432948412961
 30
0.0
 11
289.9391367195591
 21
524.8419844632267
 31
0.0
  0
LINE
  5
5D3
330
2B2
100
AcDbEntity
  8
Size
 62
     0
440
 16777216
370
     9
100
AcDbLine
 10
252.149466170618
 20
543.1911902239196
 30
0.0
 11
224.7935944345345
 21
556.4741459088188
 31
0.0
  0
LINE
  5
5D4
330
2B2
100
AcDbEntity
  8
Size
 62
     0
440
 16777216
370
     9
100
AcDbLine
 10
289.9337393463775
 20
524.8446052193656
 30
0.0
 11
252.1521648572087
 21
543.1898798458503
 31
0.0
  0
INSERT
  5
5D5
330
2B2
100
AcDbEntity
  8
Size
 62
     0
440
 16777216
370
     9
100
AcDbBlockReference
  2
30a
 10
289.9337393463775
 20
524.8446052193656
 30
0.0
 41
0.003
 42
0.003
 43
0.003
 50
154.1005795158671
  0
INSERT
  5
5D6
330
2B2
100
AcDbEntity
  8
Size
 62
     0
440
 16777216
370
     9
100
AcDbBlockReference
  2
30a
 10
252.1521648572087
 20
543.1898798458503
 30
0.0
 41
0.003
 42
0.003
 43
0.003
 50
334.1005795158671
  0
MTEXT
  5
5D7
102
{ACAD_XDICTIONARY
360
74D
102
}
330
2B2
100
AcDbEntity
  8
Size
 62
     0
440
 16777216
100
AcDbMText
 10
238.9156379552077
 20
558.3712850181651
 30
0.0
 40
12.0
 41
0.0
 71
     5
 72
     1
  1
\U+220542
 11
0.8995621969233607
 21
-0.436792689804233
 31
0.0
 73
     1
 44
1.0
  0
POINT
  5
5D8
330
2B2
100
AcDbEntity
  8
Defpoints
 62
     0
440
 16777216
100
AcDbPoint
 10
252.1521648572087
 20
543.1898798458503
 30
0.0
  0
POINT
  5
5D9
330
2B2
100
AcDbEntity
  8
Defpoints
 62
     0
440
 16777216
100
AcDbPoint
 10
289.9337393463775
 20
524.8446052193656
 30
0.0
  0
ENDBLK
  5
2B4
330
2B2
100
AcDbEntity
  8
0
100
AcDbBlockEnd
  0
BLOCK
  5
2BE
330
2BD
100
AcDbEntity
  8
0
100
AcDbBlockBegin
  2
*D3
 70
     1
 10
0.0
 20
0.0
 30
0.0
  3
*D3
  1

  0
LINE
  5
5DA
330
2BD
100
AcDbEntity
  8
Size
 62
     0
440
 16777216
370
     9
100
AcDbLine
 10
206.7899757514559
 20
452.1191959978773
 30
0.0
 11
206.7876006405096
 21
452.117363281862
 31
0.0
  0
LINE
  5
5DB
330
2BD
100
AcDbEntity
  8
Size
 62
     0
440
 16777216
370
     9
100
AcDbLine
 10
235.296028709611
 20
474.1154315300727
 30
0.0
 11
259.3860216036308
 21
492.7040856114921
 31
0.0
  0
LINE
  5
5DC
330
2BD
100
AcDbEntity
  8
Size
 62
     0
440
 16777216
370
     9
100
AcDbLine
 10
206.7923508624022
 20
452.1210287138926
 30
0.0
 11
235.2936535986648
 21
474.1135988140574
 31
0.0
  0
INSERT
  5
5DD
330
2BD
100
AcDbEntity
  8
Size
 62
     0
440
 16777216
370
     9
100
AcDbBlockReference
  2
30a
 10
206.7923508624022
 20
452.1210287138926
 30
0.0
 41
0.003
 42
0.003
 43
0.003
 50
37.65499365372754
  0
INSERT
  5
5DE
330
2BD
100
AcDbEntity
  8
Size
 62
     0
440
 16777216
370
     9
100
AcDbBlockReference
  2
30a
 10
235.2936535986648
 20
474.1135988140574
 30
0.0
 41
0.003
 42
0.003
 43
0.003
 50
217.6549936537276
  0
MTEXT
  5
5DF
102
{ACAD_XDICTIONARY
360
74F
102
}
330
2BD
100
AcDbEntity
  8
Size
 62
     0
440
 16777216
100
AcDbMText
 10
245.1736612343462
 20
491.6842509515651
 30
0.0
 40
12.0
 41
0.0
 71
     5
 72
     1
  1
\U+220536
 11
0.7917036487650538
 21
0.6109053384380437
 31
0.0
 73
     1
 44
1.0
  0
POINT
  5
5E0
330
2BD
100
AcDbEntity
  8
Defpoints
 62
     0
440
 16777216
100
AcDbPoint
 10
235.2936535986648
 20
474.1135988140574
 30
0.0
  0
POINT
  5
5E1
330
2BD
100
AcDbEntity
  8
Defpoints
 62
     0
440
 16777216
100
AcDbPoint
 10
206.7923508624022
 20
452.1210287138926
 30
0.0
  0
ENDBLK
  5
2BF
330
2BD
100
AcDbEntity
  8
0
100
AcDbBlockEnd
  0
BLOCK
  5
2C9
330
2C8
100
AcDbEntity
  8
0
100
AcDbBlockBegin
  2
*D4
 70
     1
 10
0.0
 20
0.0
 30
0.0
  3
*D4
  1

  0
LINE
  5
5CA
330
2C8
100
AcDbEntity
  8
Size
 62
     0
440
 16777216
370
     9
100
AcDbLine
 10
293.902313934054
 20
450.9805072054931
 30
0.0
 11
293.8997654905728
 21
450.9789243486383
 31
0.0
  0
LINE
  5
5CB
330
2C8
100
AcDbEntity
  8
Size
 62
     0
440
 16777216
370
     9
100
AcDbLine
 10
332.9835049622499
 20
475.2541203224576
 30
0.0
 11
359.0528721730259
 21
491.4459946545861
 31
0.0
  0
LINE
  5
5CC
330
2C8
100
AcDbEntity
  8
Size
 62
     0
440
 16777216
370
     9
100
AcDbLine
 10
293.9048623775353
 20
450.9820900623481
 30
0.0
 11
332.9809565187686
 21
475.2525374656028
 31
0.0
  0
INSERT
  5
5CD
330
2C8
100
AcDbEntity
  8
Size
 62
     0
440
 16777216
370
     9
100
AcDbBlockReference
  2
30a
 10
293.9048623775353
 20
450.9820900623481
 30
0.0
 41
0.003
 42
0.003
 43
0.003
 50
31.84471769949718
  0
INSERT
  5
5CE
330
2C8
100
AcDbEntity
  8
Size
 62
     0
440
 16777216
370
     9
100
AcDbBlockReference
  2
30a
 10
332.9809565187686
 20
475.2525374656028
 30
0.0
 41
0.003
 42
0.003
 43
0.003
 50
211.8447176994972
  0
MTEXT
  5
5CF
102
{ACAD_XDICTIONARY
360
74B
102
}
330
2C8
100
AcDbEntity
  8
Size
 62
     0
440
 16777216
100
AcDbMText
 10
344.8102841491541
 20
491.870183742456
 30
0.0
 40
12.0
 41
0.0
 71
     5
 72
     1
  1
\U+220546
 11
0.8494811604147175
 21
0.5276189516123026
 31
0.0
 73
     1
 44
1.0
  0
POINT
  5
5D0
330
2C8
100
AcDbEntity
  8
Defpoints
 62
     0
440
 16777216
100
AcDbPoint
 10
332.9809565187686
 20
475.2525374656028
 30
0.0
  0
POINT
  5
5D1
330
2C8
100
AcDbEntity
  8
Defpoints
 62
     0
440
 16777216
100
AcDbPoint
 10
293.9048623775353
 20
450.9820900623481
 30
0.0
  0
ENDBLK
  5
2CA
330
2C8
100
AcDbEntity
  8
0
100
AcDbBlockEnd
  0
BLOCK
  5
2D4
330
2D3
100
AcDbEntity
  8
0
100
AcDbBlockBegin
  2
*D5
 70
     1
 10
0.0
 20
0.0
 30
0.0
  3
*D5
  1

  0
LINE
  5
5E2
330
2D3
100
AcDbEntity
  8
Size
 62
     0
440
 16777216
370
     9
100
AcDbLine
 10
186.5450841688888
 20
463.1173137639753
 30
0.0
 11
93.66160635417932
 21
463.1173137639753
 31
0.0
  0
LINE
  5
5E3
330
2D3
100
AcDbEntity
  8
Size
 62
     0
440
 16777216
370
     9
100
AcDbLine
 10
97.41160635417932
 20
463.1203137639753
 30
0.0
 11
97.41160635417932
 21
505.5142713639753
 31
0.0
  0
INSERT
  5
5E4
330
2D3
100
AcDbEntity
  8
Size
 62
     0
440
 16777216
370
     9
100
AcDbBlockReference
  2
30a
 10
97.41160635417932
 20
463.1173137639753
 30
0.0
 41
0.003
 42
0.003
 43
0.003
 50
270.0
  0
INSERT
  5
5E5
330
2D3
100
AcDbEntity
  8
Size
 62
     0
440
 16777216
370
     9
100
AcDbBlockReference
  2
30a
 10
97.41160635417932
 20
505.5172713639754
 30
0.0
 41
0.003
 42
0.003
 43
0.003
 50
90.0
  0
MTEXT
  5
5E6
330
2D3
100
AcDbEntity
  8
Size
 62
     0
440
 16777216
100
AcDbMText
 10
89.53660635417939
 20
484.3172925639752
 30
0.0
 40
12.0
 41
0.0
 71
     5
 72
     1
  1
42.4
 11
0.0000000000000001
 21
1.0
 31
0.0
 73
     1
 44
1.0
  0
POINT
  5
5E7
330
2D3
100
AcDbEntity
  8
Defpoints
 62
     0
440
 16777216
100
AcDbPoint
 10
188.4200841688887
 20
463.1173137639753
 30
0.0
  0
POINT
  5
5E8
330
2D3
100
AcDbEntity
  8
Defpoints
 62
     0
440
 16777216
100
AcDbPoint
 10
81.3787218149582
 20
505.5172713639754
 30
0.0
  0
POINT
  5
5E9
330
2D3
100
AcDbEntity
  8
Defpoints
 62
     0
440
 16777216
100
AcDbPoint
 10
97.41160635417932
 20
505.5172713639754
 30
0.0
  0
ENDBLK
  5
2D5
330
2D3
100
AcDbEntity
  8
0
100
AcDbBlockEnd
  0
BLOCK
  5
2DF
330
2DE
100
AcDbEntity
  8
0
100
AcDbBlockBegin
  2
*D6
 70
     1
 10
0.0
 20
0.0
 30
0.0
  3
*D6
  1

  0
LINE
  5
5A1
330
2DE
100
AcDbEntity
  8
Size
 62
     0
440
 16777216
370
     9
100
AcDbLine
 10
221.0430022305332
 20
431.312898850208
 30
0.0
 11
221.0430022305332
 21
303.4577899369676
 31
0.0
  0
LINE
  5
5A2
330
2DE
100
AcDbEntity
  8
Size
 62
     0
440
 16777216
370
     9
100
AcDbLine
 10
271.0429522305332
 20
320.8066334281331
 30
0.0
 11
271.0429522305332
 21
303.4577899369676
 31
0.0
  0
LINE
  5
5A3
330
2DE
100
AcDbEntity
  8
Size
 62
     0
440
 16777216
370
     9
100
AcDbLine
 10
221.0460022305332
 20
307.2077899369676
 30
0.0
 11
271.0399522305332
 21
307.2077899369676
 31
0.0
  0
INSERT
  5
5A4
330
2DE
100
AcDbEntity
  8
Size
 62
     0
440
 16777216
370
     9
100
AcDbBlockReference
  2
30a
 10
221.0430022305332
 20
307.2077899369676
 30
0.0
 41
0.003
 42
0.003
 43
0.003
 50
180.0
  0
INSERT
  5
5A5
330
2DE
100
AcDbEntity
  8
Size
 62
     0
440
 16777216
370
     9
100
AcDbBlockReference
  2
30a
 10
271.0429522305332
 20
307.2077899369676
 30
0.0
 41
0.003
 42
0.003
 43
0.003
  0
MTEXT
  5
5A6
330
2DE
100
AcDbEntity
  8
Size
 62
     0
440
 16777216
100
AcDbMText
 10
246.0429772305332
 20
315.0827899369676
 30
0.0
 40
12.0
 41
0.0
 71
     5
 72
     1
  1
50
 73
     1
 44
1.0
  0
POINT
  5
5A7
330
2DE
100
AcDbEntity
  8
Defpoints
 62
     0
440
 16777216
100
AcDbPoint
 10
221.0430022305332
 20
433.1878988502081
 30
0.0
  0
POINT
  5
5A8
330
2DE
100
AcDbEntity
  8
Defpoints
 62
     0
440
 16777216
100
AcDbPoint
 10
271.0429522305332
 20
322.6816334281331
 30
0.0
  0
POINT
  5
5A9
330
2DE
100
AcDbEntity
  8
Defpoints
 62
     0
440
 16777216
100
AcDbPoint
 10
271.0429522305332
 20
307.2077899369676
 30
0.0
  0
ENDBLK
  5
2E0
330
2DE
100
AcDbEntity
  8
0
100
AcDbBlockEnd
  0
BLOCK
  5
2EB
330
2EA
100
AcDbEntity
  8
0
100
AcDbBlockBegin
  2
*D7
 70
     1
 10
0.0
 20
0.0
 30
0.0
  3
*D7
  1

  0
LINE
  5
598
330
2EA
100
AcDbEntity
  8
Size
 62
     0
440
 16777216
370
     9
100
AcDbLine
 10
271.0429520236165
 20
320.8066338854453
 30
0.0
 11
271.0429520236165
 21
303.457789936968
 31
0.0
  0
LINE
  5
599
330
2EA
100
AcDbEntity
  8
Size
 62
     0
440
 16777216
370
     9
100
AcDbLine
 10
313.4429096236165
 20
428.4152857579668
 30
0.0
 11
313.4429096236165
 21
303.457789936968
 31
0.0
  0
LINE
  5
59A
330
2EA
100
AcDbEntity
  8
Size
 62
     0
440
 16777216
370
     9
100
AcDbLine
 10
271.0459520236165
 20
307.207789936968
 30
0.0
 11
313.4399096236165
 21
307.207789936968
 31
0.0
  0
INSERT
  5
59B
330
2EA
100
AcDbEntity
  8
Size
 62
     0
440
 16777216
370
     9
100
AcDbBlockReference
  2
30a
 10
271.0429520236165
 20
307.207789936968
 30
0.0
 41
0.003
 42
0.003
 43
0.003
 50
180.0
  0
INSERT
  5
59C
330
2EA
100
AcDbEntity
  8
Size
 62
     0
440
 16777216
370
     9
100
AcDbBlockReference
  2
30a
 10
313.4429096236165
 20
307.207789936968
 30
0.0
 41
0.003
 42
0.003
 43
0.003
  0
MTEXT
  5
59D
330
2EA
100
AcDbEntity
  8
Size
 62
     0
440
 16777216
100
AcDbMText
 10
292.2429308236165
 20
315.082789936968
 30
0.0
 40
12.0
 41
0.0
 71
     5
 72
     1
  1
42.4
 73
     1
 44
1.0
  0
POINT
  5
59E
330
2EA
100
AcDbEntity
  8
Defpoints
 62
     0
440
 16777216
100
AcDbPoint
 10
271.0429520236165
 20
322.6816338854452
 30
0.0
  0
POINT
  5
59F
330
2EA
100
AcDbEntity
  8
Defpoints
 62
     0
440
 16777216
100
AcDbPoint
 10
313.4429096236165
 20
430.2902857579668
 30
0.0
  0
POINT
  5
5A0
330
2EA
100
AcDbEntity
  8
Defpoints
 62
     0
440
 16777216
100
AcDbPoint
 10
313.4429096236165
 20
307.207789936968
 30
0.0
  0
ENDBLK
  5
2EC
330
2EA
100
AcDbEntity
  8
0
100
AcDbBlockEnd
  0
BLOCK
  5
2F7
330
2F6
100
AcDbEntity
  8
0
100
AcDbBlockBegin
  2
*D8
 70
     1
 10
0.0
 20
0.0
 30
0.0
  3
*D8
  1

  0
LINE
  5
67D
330
2F6
100
AcDbEntity
  8
Size
 62
     0
440
 16777216
370
     9
100
AcDbLine
 10
811.9900840748114
 20
345.5204318506432
 30
0.0
 11
811.9900840748114
 21
665.5141118506431
 31
0.0
  0
INSERT
  5
67E
330
2F6
100
AcDbEntity
  8
Size
 62
     0
440
 16777216
370
     9
100
AcDbBlockReference
  2
30a
 10
811.9900840748114
 20
345.5174318506433
 30
0.0
 41
0.003
 42
0.003
 43
0.003
 50
270.0
  0
INSERT
  5
67F
330
2F6
100
AcDbEntity
  8
Size
 62
     0
440
 16777216
370
     9
100
AcDbBlockReference
  2
30a
 10
811.9900840748114
 20
665.5171118506432
 30
0.0
 41
0.003
 42
0.003
 43
0.003
 50
90.0
  0
MTEXT
  5
680
330
2F6
100
AcDbEntity
  8
Size
 62
     0
440
 16777216
100
AcDbMText
 10
804.1150840748112
 20
462.2150107303281
 30
0.0
 40
12.0
 41
0.0
 71
     5
 72
     1
  1
φ320
 11
0.0000000000000001
 21
1.0
 31
0.0
 73
     1
 44
1.0
  0
POINT
  5
681
330
2F6
100
AcDbEntity
  8
Defpoints
 62
     0
440
 16777216
100
AcDbPoint
 10
848.6624327608478
 20
345.5174318506433
 30
0.0
  0
POINT
  5
682
330
2F6
100
AcDbEntity
  8
Defpoints
 62
     0
440
 16777216
100
AcDbPoint
 10
849.6901885466609
 20
665.5171118506432
 30
0.0
  0
POINT
  5
683
330
2F6
100
AcDbEntity
  8
Defpoints
 62
     0
440
 16777216
100
AcDbPoint
 10
811.9900840748114
 20
665.5171118506432
 30
0.0
  0
ENDBLK
  5
2F8
330
2F6
100
AcDbEntity
  8
0
100
AcDbBlockEnd
  0
BLOCK
  5
301
330
300
100
AcDbEntity
  8
0
100
AcDbBlockBegin
  2
*D9
 70
     1
 10
0.0
 20
0.0
 30
0.0
  3
*D9
  1

  0
LINE
  5
674
330
300
100
AcDbEntity
  8
Size
 62
     0
440
 16777216
370
     9
100
AcDbLine
 10
1123.537162053516
 20
360.5174151012775
 30
0.0
 11
1179.47215813364
 21
360.5174151012775
 31
0.0
  0
LINE
  5
675
330
300
100
AcDbEntity
  8
Size
 62
     0
440
 16777216
370
     9
100
AcDbLine
 10
1123.537162053516
 20
650.5171251012774
 30
0.0
 11
1179.47215813364
 21
650.5171251012774
 31
0.0
  0
LINE
  5
676
330
300
100
AcDbEntity
  8
Size
 62
     0
440
 16777216
370
     9
100
AcDbLine
 10
1175.72215813364
 20
360.5204151012775
 30
0.0
 11
1175.72215813364
 21
650.5141251012775
 31
0.0
  0
INSERT
  5
677
330
300
100
AcDbEntity
  8
Size
 62
     0
440
 16777216
370
     9
100
AcDbBlockReference
  2
30a
 10
1175.72215813364
 20
360.5174151012775
 30
0.0
 41
0.003
 42
0.003
 43
0.003
 50
270.0
  0
INSERT
  5
678
330
300
100
AcDbEntity
  8
Size
 62
     0
440
 16777216
370
     9
100
AcDbBlockReference
  2
30a
 10
1175.72215813364
 20
650.5171251012774
 30
0.0
 41
0.003
 42
0.003
 43
0.003
 50
90.0
  0
MTEXT
  5
679
330
300
100
AcDbEntity
  8
Size
 62
     0
440
 16777216
100
AcDbMText
 10
1167.84715813364
 20
505.5172701012772
 30
0.0
 40
12.0
 41
0.0
 71
     5
 72
     1
  1
φ290
 11
0.0000000000000001
 21
1.0
 31
0.0
 73
     1
 44
1.0
  0
POINT
  5
67A
330
300
100
AcDbEntity
  8
Defpoints
 62
     0
440
 16777216
100
AcDbPoint
 10
1121.662162053516
 20
360.5174151012775
 30
0.0
  0
POINT
  5
67B
330
300
100
AcDbEntity
  8
Defpoints
 62
     0
440
 16777216
100
AcDbPoint
 10
1121.662162053516
 20
650.5171251012774
 30
0.0
  0
POINT
  5
67C
330
300
100
AcDbEntity
  8
Defpoints
 62
     0
440
 16777216
100
AcDbPoint
 10
1175.72215813364
 20
650.5171251012774
 30
0.0
  0
ENDBLK
  5
302
330
300
100
AcDbEntity
  8
0
100
AcDbBlockEnd
  0
BLOCK
  5
30D
330
30C
100
AcDbEntity
  8
0
100
AcDbBlockBegin
  2
*D10
 70
     1
 10
0.0
 20
0.0
 30
0.0
  3
*D10
  1

  0
LINE
  5
62F
330
30C
100
AcDbEntity
  8
Size
 62
     0
440
 16777216
370
     9
100
AcDbLine
 10
589.6626928326756
 20
507.3922711885098
 30
0.0
 11
589.6626928326756
 21
703.1148594122988
 31
0.0
  0
LINE
  5
630
330
30C
100
AcDbEntity
  8
Size
 62
     0
440
 16777216
370
     9
100
AcDbLine
 10
1132.662149832675
 20
641.3921371885098
 30
0.0
 11
1132.662149832675
 21
703.1148594122988
 31
0.0
  0
LINE
  5
631
330
30C
100
AcDbEntity
  8
Size
 62
     0
440
 16777216
370
     9
100
AcDbLine
 10
589.6656928326756
 20
699.3648594122991
 30
0.0
 11
1132.659149832675
 21
699.3648594122991
 31
0.0
  0
INSERT
  5
632
330
30C
100
AcDbEntity
  8
Size
 62
     0
440
 16777216
370
     9
100
AcDbBlockReference
  2
30a
 10
589.6626928326756
 20
699.3648594122991
 30
0.0
 41
0.003
 42
0.003
 43
0.003
 50
180.0
  0
INSERT
  5
633
330
30C
100
AcDbEntity
  8
Size
 62
     0
440
 16777216
370
     9
100
AcDbBlockReference
  2
30a
 10
1132.662149832675
 20
699.3648594122991
 30
0.0
 41
0.003
 42
0.003
 43
0.003
  0
MTEXT
  5
634
330
30C
100
AcDbEntity
  8
Size
 62
     0
440
 16777216
100
AcDbMText
 10
861.1624213326756
 20
707.2398594122988
 30
0.0
 40
12.0
 41
0.0
 71
     5
 72
     1
  1
543
 73
     1
 44
1.0
  0
POINT
  5
635
330
30C
100
AcDbEntity
  8
Defpoints
 62
     0
440
 16777216
100
AcDbPoint
 10
589.6626928326756
 20
505.5172711885098
 30
0.0
  0
POINT
  5
636
330
30C
100
AcDbEntity
  8
Defpoints
 62
     0
440
 16777216
100
AcDbPoint
 10
1132.662149832675
 20
639.5171371885099
 30
0.0
  0
POINT
  5
637
330
30C
100
AcDbEntity
  8
Defpoints
 62
     0
440
 16777216
100
AcDbPoint
 10
1132.662149832675
 20
699.3648594122991
 30
0.0
  0
ENDBLK
  5
30E
330
30C
100
AcDbEntity
  8
0
100
AcDbBlockEnd
  0
BLOCK
  5
319
330
318
100
AcDbEntity
  8
0
100
AcDbBlockBegin
  2
*D11
 70
     1
 10
0.0
 20
0.0
 30
0.0
  3
*D11
  1

  0
LINE
  5
626
330
318
100
AcDbEntity
  8
Size
 62
     0
440
 16777216
370
     9
100
AcDbLine
 10
489.9623915698343
 20
623.7421543570146
 30
0.0
 11
489.9623915698343
 21
721.1148589294857
 31
0.0
  0
LINE
  5
627
330
318
100
AcDbEntity
  8
Size
 62
     0
440
 16777216
370
     9
100
AcDbLine
 10
1132.662150245269
 20
641.3921367070147
 30
0.0
 11
1132.662150245269
 21
721.1148589294857
 31
0.0
  0
LINE
  5
628
330
318
100
AcDbEntity
  8
Size
 62
     0
440
 16777216
370
     9
100
AcDbLine
 10
489.9653915698343
 20
717.3648589294857
 30
0.0
 11
1132.659150245268
 21
717.3648589294857
 31
0.0
  0
INSERT
  5
629
330
318
100
AcDbEntity
  8
Size
 62
     0
440
 16777216
370
     9
100
AcDbBlockReference
  2
30a
 10
489.9623915698343
 20
717.3648589294857
 30
0.0
 41
0.003
 42
0.003
 43
0.003
 50
180.0
  0
INSERT
  5
62A
330
318
100
AcDbEntity
  8
Size
 62
     0
440
 16777216
370
     9
100
AcDbBlockReference
  2
30a
 10
1132.662150245269
 20
717.3648589294857
 30
0.0
 41
0.003
 42
0.003
 43
0.003
  0
MTEXT
  5
62B
330
318
100
AcDbEntity
  8
Size
 62
     0
440
 16777216
100
AcDbMText
 10
811.3122709075517
 20
725.2398589294857
 30
0.0
 40
12.0
 41
0.0
 71
     5
 72
     1
  1
約643
 73
     1
 44
1.0
  0
POINT
  5
62C
330
318
100
AcDbEntity
  8
Defpoints
 62
     0
440
 16777216
100
AcDbPoint
 10
489.9623915698343
 20
621.8671543570146
 30
0.0
  0
POINT
  5
62D
330
318
100
AcDbEntity
  8
Defpoints
 62
     0
440
 16777216
100
AcDbPoint
 10
1132.662150245269
 20
639.5171367070147
 30
0.0
  0
POINT
  5
62E
330
318
100
AcDbEntity
  8
Defpoints
 62
     0
440
 16777216
100
AcDbPoint
 10
1132.662150245269
 20
717.3648589294857
 30
0.0
  0
ENDBLK
  5
31A
330
318
100
AcDbEntity
  8
0
100
AcDbBlockEnd
  0
BLOCK
  5
325
330
324
100
AcDbEntity
  8
0
100
AcDbBlockBegin
  2
*D12
 70
     1
 10
0.0
 20
0.0
 30
0.0
  3
*D12
  1

  0
LINE
  5
63F
330
324
100
AcDbEntity
  8
Size
 62
     0
440
 16777216
370
     9
100
AcDbLine
 10
589.2043964902183
 20
534.017242587506
 30
0.0
 11
541.4640537388224
 21
534.017242587506
 31
0.0
  0
LINE
  5
640
330
324
100
AcDbEntity
  8
Size
 62
     0
440
 16777216
370
     9
100
AcDbLine
 10
545.2140537388223
 20
505.5202711885099
 30
0.0
 11
545.2140537388223
 21
534.014242587506
 31
0.0
  0
MTEXT
  5
641
330
324
100
AcDbEntity
  8
Size
 62
     0
440
 16777216
100
AcDbMText
 10
537.3390537388197
 20
527.8055855050454
 30
0.0
 40
12.0
 41
0.0
 71
     5
 72
     1
  1
28.5
 11
0.0000000000000001
 21
1.0
 31
0.0
 73
     1
 44
1.0
  0
INSERT
  5
642
330
324
100
AcDbEntity
  8
Size
 62
     0
440
 16777216
370
     9
100
AcDbBlockReference
  2
30a
 10
545.2140537388223
 20
505.5172711885099
 30
0.0
 41
0.003
 42
0.003
 43
0.003
 50
270.0
  0
INSERT
  5
643
330
324
100
AcDbEntity
  8
Size
 62
     0
440
 16777216
370
     9
100
AcDbBlockReference
  2
30a
 10
545.2140537388223
 20
534.017242587506
 30
0.0
 41
0.003
 42
0.003
 43
0.003
 50
90.0
  0
POINT
  5
644
330
324
100
AcDbEntity
  8
Defpoints
 62
     0
440
 16777216
100
AcDbPoint
 10
589.6626928326758
 20
505.5172711885099
 30
0.0
  0
POINT
  5
645
330
324
100
AcDbEntity
  8
Defpoints
 62
     0
440
 16777216
100
AcDbPoint
 10
591.0793964902183
 20
534.017242587506
 30
0.0
  0
POINT
  5
646
330
324
100
AcDbEntity
  8
Defpoints
 62
     0
440
 16777216
100
AcDbPoint
 10
545.2140537388223
 20
534.017242587506
 30
0.0
  0
ENDBLK
  5
326
330
324
100
AcDbEntity
  8
0
100
AcDbBlockEnd
  0
BLOCK
  5
330
330
32F
100
AcDbEntity
  8
0
100
AcDbBlockBegin
  2
*D13
 70
     1
 10
0.0
 20
0.0
 30
0.0
  3
*D13
  1

  0
LINE
  5
684
330
32F
100
AcDbEntity
  8
Size
 62
     0
440
 16777216
370
     9
100
AcDbLine
 10
496.7373828840388
 20
380.5173967227378
 30
0.0
 11
460.7514175610503
 21
380.5173967227378
 31
0.0
  0
LINE
  5
685
330
32F
100
AcDbEntity
  8
Size
 62
     0
440
 16777216
370
     9
100
AcDbLine
 10
496.737382884038
 20
630.5171456881545
 30
0.0
 11
460.7514175610503
 21
630.5171456881545
 31
0.0
  0
LINE
  5
686
330
32F
100
AcDbEntity
  8
Size
 62
     0
440
 16777216
370
     9
100
AcDbLine
 10
464.5014175610503
 20
380.5203967227378
 30
0.0
 11
464.5014175610501
 21
630.5141456881544
 31
0.0
  0
INSERT
  5
687
330
32F
100
AcDbEntity
  8
Size
 62
     0
440
 16777216
370
     9
100
AcDbBlockReference
  2
30a
 10
464.5014175610503
 20
380.5173967227378
 30
0.0
 41
0.003
 42
0.003
 43
0.003
 50
270.0
  0
INSERT
  5
688
330
32F
100
AcDbEntity
  8
Size
 62
     0
440
 16777216
370
     9
100
AcDbBlockReference
  2
30a
 10
464.5014175610501
 20
630.5171456881545
 30
0.0
 41
0.003
 42
0.003
 43
0.003
 50
90.0
  0
MTEXT
  5
689
330
32F
100
AcDbEntity
  8
Size
 62
     0
440
 16777216
100
AcDbMText
 10
456.6264175610503
 20
505.5172712054458
 30
0.0
 40
12.0
 41
0.0
 71
     5
 72
     1
  1
φ250
 11
0.0000000000000001
 21
1.0
 31
0.0
 73
     1
 44
1.0
  0
POINT
  5
68A
330
32F
100
AcDbEntity
  8
Defpoints
 62
     0
440
 16777216
100
AcDbPoint
 10
498.6123828840388
 20
380.5173967227378
 30
0.0
  0
POINT
  5
68B
330
32F
100
AcDbEntity
  8
Defpoints
 62
     0
440
 16777216
100
AcDbPoint
 10
498.612382884038
 20
630.5171456881545
 30
0.0
  0
POINT
  5
68C
330
32F
100
AcDbEntity
  8
Defpoints
 62
     0
440
 16777216
100
AcDbPoint
 10
464.5014175610501
 20
630.5171456881545
 30
0.0
  0
ENDBLK
  5
331
330
32F
100
AcDbEntity
  8
0
100
AcDbBlockEnd
  0
ENDSEC
  0
SECTION
  2
ENTITIES
  0
LINE
  5
9B
330
70
100
AcDbEntity
  8
Center
100
AcDbLine
 10
231.853159572629
 20
651.7755677538405
 30
0.0
 11
246.9147197013239
 21
595.5650601120924
 31
0.0
1001
Sigma
1000

  0
CIRCLE
  5
9C
330
70
100
AcDbEntity
  8
Line
100
AcDbCircle
 10
271.0429520236165
 20
505.5172711885099
 30
0.0
 40
159.9998393378666
1001
Sigma
1000

  0
LINE
  5
A0
330
70
100
AcDbEntity
  8
Center
100
AcDbLine
 10
271.0429520236165
 20
693.0693216660873
 30
0.0
 11
271.0429520236165
 21
322.6816338854455
 31
0.0
1001
Sigma
1000

  0
CIRCLE
  5
A1
330
70
100
AcDbEntity
  8
Line
100
AcDbCircle
 10
271.0429520236165
 20
505.5172711885099
 30
0.0
 40
124.9998744827083
1001
Sigma
1000

  0
CIRCLE
  5
A2
330
70
100
AcDbEntity
  8
Line
100
AcDbCircle
 10
271.0429520236165
 20
505.5172711885099
 30
0.0
 40
107.6998918543015
1001
Sigma
1000

  0
CIRCLE
  5
A3
330
70
100
AcDbEntity
  8
Center
100
AcDbCircle
 10
271.0429520236165
 20
505.5172711885099
 30
0.0
 40
116.3498831685049
1001
Sigma
1000

  0
LINE
  5
A4
330
70
100
AcDbEntity
  8
Center
100
AcDbLine
 10
188.4200841688887
 20
463.1173137639753
 30
0.0
 11
367.6821992466464
 21
463.1173137639753
 31
0.0
1001
Sigma
1000

  0
CIRCLE
  5
A5
330
70
100
AcDbEntity
  8
Line
100
AcDbCircle
 10
271.0429520236165
 20
534.0172425705674
 30
0.0
 40
20.999978913095
1001
Sigma
1000

  0
LINE
  5
A6
330
70
100
AcDbEntity
  8
Center
100
AcDbLine
 10
221.0430022305332
 20
493.0467286777424
 30
0.0
 11
221.0430022305332
 21
433.1878988502082
 31
0.0
1001
Sigma
1000

  0
LINE
  5
A7
330
70
100
AcDbEntity
  8
Center
100
AcDbLine
 10
313.4429094481512
 20
430.290285312646
 30
0.0
 11
313.4429094481512
 21
663.5171125346535
 31
0.0
1001
Sigma
1000

  0
CIRCLE
  5
A8
330
70
100
AcDbEntity
  8
Line
100
AcDbCircle
 10
221.0430022305332
 20
463.1173137639753
 30
0.0
 40
17.99998192551
1001
Sigma
1000

  0
CIRCLE
  5
A9
330
70
100
AcDbEntity
  8
Line
100
AcDbCircle
 10
313.4429094481512
 20
463.1173137639753
 30
0.0
 40
22.99997690481833
1001
Sigma
1000

  0
CIRCLE
  5
AA
330
70
100
AcDbEntity
  8
Line
 62
     4
370
     9
100
AcDbCircle
 10
271.0429520236165
 20
534.0172425705674
 30
0.0
 40
13.99998594206333
1001
Sigma
1000

  0
CIRCLE
  5
AB
330
70
100
AcDbEntity
  8
Line
 62
     4
370
     9
100
AcDbCircle
 10
313.4429094481512
 20
463.1173137639753
 30
0.0
 40
13.99998594206333
1001
Sigma
1000

  0
CIRCLE
  5
AC
330
70
100
AcDbEntity
  8
Line
 62
     4
370
     9
100
AcDbCircle
 10
221.0430022305332
 20
463.1173137639753
 30
0.0
 40
9.999989958616666
1001
Sigma
1000

  0
CIRCLE
  5
AD
330
70
100
AcDbEntity
  8
Line
100
AcDbCircle
 10
271.0429520236165
 20
534.0172425705674
 30
0.0
 40
11.67998827166426
1001
Sigma
1000

  0
CIRCLE
  5
AE
330
70
100
AcDbEntity
  8
Line
100
AcDbCircle
 10
313.4429094481512
 20
463.1173137639753
 30
0.0
 40
11.67998827166426
1001
Sigma
1000

  0
CIRCLE
  5
AF
330
70
100
AcDbEntity
  8
Line
100
AcDbCircle
 10
221.0430022305332
 20
463.1173137639753
 30
0.0
 40
7.679992288217598
1001
Sigma
1000

  0
LINE
  5
B0
330
70
100
AcDbEntity
  8
Center
100
AcDbLine
 10
395.0770956038533
 20
592.3669135187172
 30
0.0
 11
347.9965318728995
 21
559.4007478911612
 31
0.0
1001
Sigma
1000

  0
LINE
  5
B1
330
70
100
AcDbEntity
  8
Center
100
AcDbLine
 10
310.2327444747041
 20
359.2589746231677
 30
0.0
 11
296.2586231402692
 21
411.4111054343734
 31
0.0
1001
Sigma
1000

  0
LINE
  5
B2
330
70
100
AcDbEntity
  8
Center
100
AcDbLine
 10
147.0088084434798
 20
418.6676288582926
 30
0.0
 11
192.9457039477358
 21
450.8329893723086
 31
0.0
1001
Sigma
1000

  0
ARC
  5
B3
330
70
100
AcDbEntity
  8
Line
100
AcDbCircle
 10
375.423779806421
 20
574.376630668328
 30
0.0
 40
7.999991966893332
100
AcDbArc
 50
9.341093726748287
 51
60.65890627325718
1001
Sigma
1000

  0
LINE
  5
B4
330
70
100
AcDbEntity
  8
Line
100
AcDbLine
 10
379.343838206736
 20
581.3503680887139
 30
0.0
 11
373.4368547420704
 21
577.2142537386291
 31
0.0
1001
Sigma
1000

  0
LINE
  5
B5
330
70
100
AcDbEntity
  8
Line
100
AcDbLine
 10
383.9639146448355
 20
576.1276144812462
 30
0.0
 11
376.016214387134
 21
587.4781067624304
 31
0.0
1001
Sigma
1000

  0
LINE
  5
B6
330
70
100
AcDbEntity
  8
Line
100
AcDbLine
 10
369.4630046131698
 20
582.8894998792211
 30
0.0
 11
376.016214387134
 21
587.4781067624304
 31
0.0
1001
Sigma
1000

  0
LINE
  5
B7
330
70
100
AcDbEntity
  8
Line
100
AcDbLine
 10
377.4107048708712
 20
571.5390075980368
 30
0.0
 11
369.4630046131698
 21
582.8894998792211
 31
0.0
1001
Sigma
1000

  0
LINE
  5
B8
330
70
100
AcDbEntity
  8
Line
100
AcDbLine
 10
383.9639146448355
 20
576.1276144812462
 30
0.0
 11
377.4107048708712
 21
571.5390075980368
 31
0.0
1001
Sigma
1000

  0
ARC
  5
B9
330
70
100
AcDbEntity
  8
Line
100
AcDbCircle
 10
371.4499296776202
 20
580.0518768089201
 30
0.0
 40
7.999991966893332
100
AcDbArc
 50
9.341093726748287
 51
60.65890627325718
1001
Sigma
1000

  0
ARC
  5
BA
330
70
100
AcDbEntity
  8
Line
100
AcDbCircle
 10
235.3445420170944
 20
625.3613036623622
 30
0.0
 40
7.999991966893332
100
AcDbArc
 50
79.34109372674095
 51
130.6589062732484
1001
Sigma
1000

  0
LINE
  5
BB
330
70
100
AcDbEntity
  8
Line
100
AcDbLine
 10
243.3121773004785
 20
635.7784262289393
 30
0.0
 11
245.3827275821574
 21
628.0510273780147
 31
0.0
1001
Sigma
1000

  0
LINE
  5
BC
330
70
100
AcDbEntity
  8
Line
100
AcDbLine
 10
245.3827275821574
 20
628.0510273780147
 30
0.0
 11
231.9984801620068
 21
624.4647290904779
 31
0.0
1001
Sigma
1000

  0
LINE
  5
BD
330
70
100
AcDbEntity
  8
Line
100
AcDbLine
 10
231.9984801620068
 20
624.4647290904779
 30
0.0
 11
229.9279298803278
 21
632.1921279414127
 31
0.0
1001
Sigma
1000

  0
LINE
  5
BE
330
70
100
AcDbEntity
  8
Line
100
AcDbLine
 10
243.3121773004785
 20
635.7784262289393
 30
0.0
 11
229.9279298803278
 21
632.1921279414127
 31
0.0
1001
Sigma
1000

  0
LINE
  5
BF
330
70
100
AcDbEntity
  8
Line
100
AcDbLine
 10
236.8242350697765
 20
633.2232614299909
 30
0.0
 11
238.6906038720822
 21
626.2578782342464
 31
0.0
1001
Sigma
1000

  0
ARC
  5
C0
330
70
100
AcDbEntity
  8
Line
100
AcDbCircle
 10
242.0366657271698
 20
627.1544528061305
 30
0.0
 40
7.999991966893332
100
AcDbArc
 50
79.34109372674095
 51
130.6589062732484
1001
Sigma
1000

  0
ARC
  5
C1
330
70
100
AcDbEntity
  8
Line
100
AcDbCircle
 10
306.7413620302387
 20
385.6732387146479
 30
0.0
 40
7.999991966893332
100
AcDbArc
 50
259.3410937267482
 51
310.6589062732572
1001
Sigma
1000

  0
LINE
  5
C2
330
70
100
AcDbEntity
  8
Line
100
AcDbLine
 10
298.7737267468546
 20
375.2561161480703
 30
0.0
 11
296.7031764650757
 21
382.9835149990053
 31
0.0
1001
Sigma
1000

  0
LINE
  5
C3
330
70
100
AcDbEntity
  8
Line
100
AcDbLine
 10
296.7031764650757
 20
382.9835149990053
 30
0.0
 11
310.0874238852262
 21
386.5698132865321
 31
0.0
1001
Sigma
1000

  0
LINE
  5
C4
330
70
100
AcDbEntity
  8
Line
100
AcDbLine
 10
310.0874238852262
 20
386.5698132865321
 30
0.0
 11
312.1579741670053
 21
378.8424144356073
 31
0.0
1001
Sigma
1000

  0
LINE
  5
C5
330
70
100
AcDbEntity
  8
Line
100
AcDbLine
 10
298.7737267468546
 20
375.2561161480703
 30
0.0
 11
312.1579741670053
 21
378.8424144356073
 31
0.0
1001
Sigma
1000

  0
LINE
  5
C6
330
70
100
AcDbEntity
  8
Line
100
AcDbLine
 10
305.2616689774566
 20
377.811280947019
 30
0.0
 11
303.3953001751509
 21
384.7766641427637
 31
0.0
1001
Sigma
1000

  0
ARC
  5
C7
330
70
100
AcDbEntity
  8
Line
100
AcDbCircle
 10
300.0492383201633
 20
383.8800895708796
 30
0.0
 40
7.999991966893332
100
AcDbArc
 50
259.3410937267482
 51
310.6589062732572
1001
Sigma
1000

  0
ARC
  5
C8
330
70
100
AcDbEntity
  8
Line
100
AcDbCircle
 10
166.6621242408121
 20
436.6579117086819
 30
0.0
 40
7.999991966893332
100
AcDbArc
 50
189.3410937267482
 51
240.6589062732572
1001
Sigma
1000

  0
LINE
  5
C9
330
70
100
AcDbEntity
  8
Line
100
AcDbLine
 10
162.7420658404971
 20
429.684174288296
 30
0.0
 11
168.6490493052626
 21
433.8202886383908
 31
0.0
1001
Sigma
1000

  0
LINE
  5
CA
330
70
100
AcDbEntity
  8
Line
100
AcDbLine
 10
158.1219894024976
 20
434.9069278957736
 30
0.0
 11
166.069689660099
 21
423.5564356145895
 31
0.0
1001
Sigma
1000

  0
LINE
  5
CB
330
70
100
AcDbEntity
  8
Line
100
AcDbLine
 10
172.6228994340634
 20
428.1450424977988
 30
0.0
 11
166.069689660099
 21
423.5564356145895
 31
0.0
1001
Sigma
1000

  0
LINE
  5
CC
330
70
100
AcDbEntity
  8
Line
100
AcDbLine
 10
164.6751991764619
 20
439.495534778983
 30
0.0
 11
172.6228994340634
 21
428.1450424977988
 31
0.0
1001
Sigma
1000

  0
LINE
  5
CD
330
70
100
AcDbEntity
  8
Line
100
AcDbLine
 10
158.1219894024976
 20
434.9069278957736
 30
0.0
 11
164.6751991764619
 21
439.495534778983
 31
0.0
1001
Sigma
1000

  0
ARC
  5
CE
330
70
100
AcDbEntity
  8
Line
100
AcDbCircle
 10
170.6359743697129
 20
430.9826655680898
 30
0.0
 40
7.999991966893332
100
AcDbArc
 50
189.3410937267482
 51
240.6589062732572
1001
Sigma
1000

  0
LINE
  5
CF
330
70
100
AcDbEntity
  8
Hidden
 62
     3
100
AcDbLine
 10
220.2009226916984
 20
619.7103387280782
 30
0.0
 11
221.5024786425549
 21
616.7869961990715
 31
0.0
1001
Sigma
1000

  0
LINE
  5
D3
330
70
100
AcDbEntity
  8
Hidden
 62
     3
100
AcDbLine
 10
380.5159569367655
 20
558.9108232528538
 30
0.0
 11
383.3920949968221
 21
560.3136095139809
 31
0.0
1001
Sigma
1000

  0
LINE
  5
D4
330
70
100
AcDbEntity
  8
Hidden
 62
     3
100
AcDbLine
 10
320.5834254047782
 20
394.2475461779484
 30
0.0
 11
321.8849813556348
 21
391.3242036489316
 31
0.0
1001
Sigma
1000

  0
LINE
  5
D5
330
70
100
AcDbEntity
  8
Hidden
 62
     3
100
AcDbLine
 10
158.6938090504109
 20
450.720932863029
 30
0.0
 11
161.5699471105676
 21
452.1237191241661
 31
0.0
1001
Sigma
1000

  0
ARC
  5
D6
330
70
100
AcDbEntity
  8
Hidden
 62
     3
100
AcDbCircle
 10
271.0429520236165
 20
505.5172711885099
 30
0.0
 40
121.7998776959509
100
AcDbArc
 50
26.00000000000298
 51
113.9999999999981
1001
Sigma
1000

  0
ARC
  5
D7
330
70
100
AcDbEntity
  8
Hidden
 62
     3
100
AcDbCircle
 10
271.0429520236165
 20
505.5172711885099
 30
0.0
 40
121.7998776959509
100
AcDbArc
 50
206.0000000000029
 51
293.9999999999981
1001
Sigma
1000

  0
LINE
  5
D8
330
70
100
AcDbEntity
  8
Hidden
 62
     3
100
AcDbLine
 10
302.5929203430522
 20
642.267133872593
 30
0.0
 11
302.5929203430522
 21
483.3972712107121
 31
0.0
1001
Sigma
1000

  0
LINE
  5
D9
330
70
100
AcDbEntity
  8
Hidden
 62
     3
100
AcDbLine
 10
324.2928985532503
 20
642.267133872593
 30
0.0
 11
324.2928985532503
 21
483.3972712107121
 31
0.0
1001
Sigma
1000

  0
ARC
  5
DA
330
70
100
AcDbEntity
  8
Hidden
 62
     3
100
AcDbCircle
 10
271.0429520236165
 20
357.3674199516012
 30
0.0
 40
8.649991314203418
100
AcDbArc
 50
205.3054043257153
 51
25.30540432571533
1001
Sigma
1000

  0
LINE
  5
DB
330
70
100
AcDbEntity
  8
Center
100
AcDbLine
 10
278.255555068258
 20
342.1127645122728
 30
0.0
 11
221.0430022305332
 21
463.1173137639753
 31
0.0
1001
Sigma
1000

  0
LINE
  5
DC
330
70
100
AcDbEntity
  8
Hidden
 62
     3
100
AcDbLine
 10
278.8629095113896
 20
361.0647993784299
 30
0.0
 11
235.6102955252409
 21
452.5440779591074
 31
0.0
1001
Sigma
1000

  0
LINE
  5
DD
330
70
100
AcDbEntity
  8
Hidden
 62
     3
100
AcDbLine
 10
263.2229945359433
 20
353.6700405247782
 30
0.0
 11
219.9703805497948
 21
445.1493191054557
 31
0.0
1001
Sigma
1000

  0
ARC
  5
DE
330
70
100
AcDbEntity
  8
Hidden
 62
     3
100
AcDbCircle
 10
313.4429094481512
 20
642.267133872593
 30
0.0
 40
10.84998910509908
100
AcDbArc
 50
0.0
 51
180.0
1001
Sigma
1000

  0
LINE
  5
DF
330
70
100
AcDbEntity
  8
Phantom
100
AcDbLine
 10
373.0330736137228
 20
546.7239550870076
 30
0.0
 11
408.2660247084306
 21
560.9589913428476
 31
0.0
1001
Sigma
1000

  0
LINE
  5
E3
330
70
100
AcDbEntity
  8
Phantom
100
AcDbLine
 10
322.6847720745333
 20
408.3931335001876
 30
0.0
 11
340.5246735465865
 21
374.8411586624157
 31
0.0
1001
Sigma
1000

  0
ARC
  5
E4
330
70
100
AcDbEntity
  8
Phantom
100
AcDbCircle
 10
271.0429520236165
 20
505.5172711885099
 30
0.0
 40
109.9998895447833
100
AcDbArc
 50
297.9999999999996
 51
22.00000000000199
1001
Sigma
1000

  0
ARC
  5
E5
330
70
100
AcDbEntity
  8
Phantom
100
AcDbCircle
 10
271.0429520236165
 20
505.5172711885099
 30
0.0
 40
147.9998513875266
100
AcDbArc
 50
297.9999999999996
 51
22.00000000000199
1001
Sigma
1000

  0
LINE
  5
E6
330
70
100
AcDbEntity
  8
Center
100
AcDbLine
 10
365.162323367353
 20
471.2606215515596
 30
0.0
 11
440.4192330828291
 21
443.8693464922764
 31
0.0
1001
Sigma
1000

  0
CIRCLE
  5
E7
330
70
100
AcDbEntity
  8
Hidden
 62
     3
100
AcDbCircle
 10
271.0429520236165
 20
505.5172711885099
 30
0.0
 40
157.4498418984194
1001
Sigma
1000

  0
LINE
  5
E8
330
70
100
AcDbEntity
  8
Center
100
AcDbLine
 10
300.8117098188356
 20
534.0172425705674
 30
0.0
 11
240.063887469014
 21
534.0172425705674
 31
0.0
1001
Sigma
1000

  0
LINE
  5
EB
330
70
100
AcDbEntity
  8
Center
100
AcDbLine
 10
467.7900602776412
 20
505.5172711885099
 30
0.0
 11
81.37872225793136
 21
505.5172711885099
 31
0.0
1001
Sigma
1000

  0
LINE
  5
EF
330
70
100
AcDbEntity
  8
Hidden
 62
     3
100
AcDbLine
 10
673.4276665529002
 20
349.1168190619261
 30
0.0
 11
685.5950479653336
 21
366.4936405733629
 31
0.0
1001
Sigma
1000

  0
LINE
  5
F0
330
70
100
AcDbEntity
  8
Line
100
AcDbLine
 10
851.3483805440111
 20
505.517271205446
 30
0.0
 11
851.3483805440111
 21
345.5174318675793
 31
0.0
1001
Sigma
1000

  0
LINE
  5
F1
330
70
100
AcDbEntity
  8
Line
100
AcDbLine
 10
846.8143415234981
 20
505.517271205446
 30
0.0
 11
846.8143415234981
 21
345.5174318675793
 31
0.0
1001
Sigma
1000

  0
LINE
  5
F2
330
70
100
AcDbEntity
  8
Line
100
AcDbLine
 10
848.6624327608472
 20
662.9671131038652
 30
0.0
 11
850.8021346717882
 21
665.5171105433128
 31
0.0
1001
Sigma
1000

  0
LINE
  5
F3
330
70
100
AcDbEntity
  8
Center
100
AcDbLine
 10
848.6624327608472
 20
334.3699020776456
 30
0.0
 11
848.6624327608472
 21
680.4964079422002
 31
0.0
1001
Sigma
1000

  0
LINE
  5
F4
330
70
100
AcDbEntity
  8
Line
100
AcDbLine
 10
848.6624327608472
 20
662.9671131038652
 30
0.0
 11
847.1901910527529
 21
665.5171105433128
 31
0.0
1001
Sigma
1000

  0
LINE
  5
F5
330
70
100
AcDbEntity
  8
Hidden
 62
     3
100
AcDbLine
 10
671.1626109954011
 20
348.7174286543357
 30
0.0
 11
673.4276665529002
 21
349.1168190619261
 31
0.0
1001
Sigma
1000

  0
LINE
  5
F6
330
70
100
AcDbEntity
  8
Line
100
AcDbLine
 10
1021.39584731532
 20
665.5171105433128
 30
0.0
 11
670.9290232270658
 21
665.5171105433128
 31
0.0
1001
Sigma
1000

  0
LINE
  5
F7
330
70
100
AcDbEntity
  8
Line
100
AcDbLine
 10
1021.39584731532
 20
345.5174318675793
 30
0.0
 11
670.9290232270658
 21
345.5174318675793
 31
0.0
1001
Sigma
1000

  0
LINE
  5
F8
330
70
100
AcDbEntity
  8
Line
100
AcDbLine
 10
596.4303924126522
 20
549.3115478561
 30
0.0
 11
593.3031332422761
 21
517.9671981679946
 31
0.0
1001
Sigma
1000

  0
LINE
  5
F9
330
70
100
AcDbEntity
  8
Line
100
AcDbLine
 10
590.5672912693727
 20
515.727746539606
 30
0.0
 11
593.3031332422761
 21
517.9671981679946
 31
0.0
1001
Sigma
1000

  0
ARC
  5
FA
330
70
100
AcDbEntity
  8
Line
100
AcDbCircle
 10
1079.662200804892
 20
383.0185049111666
 30
0.0
 40
3.999995983446667
100
AcDbArc
 50
242.7115945823498
 51
0.0
1001
Sigma
1000

  0
LINE
  5
FB
330
70
100
AcDbEntity
  8
Line
100
AcDbLine
 10
1077.826268107575
 20
379.459683632579
 30
0.0
 11
1070.06221044462
 21
383.9422644142933
 31
0.0
1001
Sigma
1000

  0
LINE
  5
FC
330
70
100
AcDbEntity
  8
Line
100
AcDbLine
 10
1068.662211850414
 20
381.5173957185994
 30
0.0
 11
1070.06221044462
 21
383.9422644142933
 31
0.0
1001
Sigma
1000

  0
LINE
  5
FD
330
70
100
AcDbEntity
  8
Line
100
AcDbLine
 10
1068.662211850414
 20
403.5173736275558
 30
0.0
 11
1068.662211850414
 21
483.0172937985587
 31
0.0
1001
Sigma
1000

  0
LINE
  5
FE
330
70
100
AcDbEntity
  8
Line
100
AcDbLine
 10
1068.662211850414
 20
381.5173957185994
 30
0.0
 11
1076.647320453122
 21
376.9071911173173
 31
0.0
1001
Sigma
1000

  0
LINE
  5
FF
330
70
100
AcDbEntity
  8
Line
100
AcDbLine
 10
1068.662211850414
 20
403.5173736275558
 30
0.0
 11
1078.662201809031
 21
397.7438767330513
 31
0.0
1001
Sigma
1000

  0
ARC
  5
100
330
70
100
AcDbEntity
  8
Line
100
AcDbCircle
 10
1078.662201809031
 20
381.5173957185994
 30
0.0
 40
4.999994979308334
100
AcDbArc
 50
240.0
 51
0.0
1001
Sigma
1000

  0
ARC
  5
101
330
70
100
AcDbEntity
  8
Line
100
AcDbCircle
 10
1073.662206829722
 20
389.0836313913044
 30
0.0
 40
9.999989958616668
100
AcDbArc
 50
0.0
 51
60.00000000000006
1001
Sigma
1000

  0
ARC
  5
102
330
70
100
AcDbEntity
  8
Line
100
AcDbCircle
 10
1073.662206829722
 20
493.0172837571752
 30
0.0
 40
9.999989958616668
100
AcDbArc
 50
270.0
 51
0.0
1001
Sigma
1000

  0
LINE
  5
103
330
70
100
AcDbEntity
  8
Line
100
AcDbLine
 10
1083.662196788339
 20
389.0836313913044
 30
0.0
 11
1083.662196788339
 21
381.5173957185994
 31
0.0
1001
Sigma
1000

  0
LINE
  5
104
330
70
100
AcDbEntity
  8
Line
100
AcDbLine
 10
1068.662211850414
 20
483.0172937985587
 30
0.0
 11
1073.662206829722
 21
483.0172937985587
 31
0.0
1001
Sigma
1000

  0
LINE
  5
105
330
70
100
AcDbEntity
  8
Line
100
AcDbLine
 10
1083.662196788339
 20
505.517271205446
 30
0.0
 11
1083.662196788339
 21
493.0172837571752
 31
0.0
1001
Sigma
1000

  0
LINE
  5
106
330
70
100
AcDbEntity
  8
Center
100
AcDbLine
 10
1102.66217770971
 20
563.4942132331977
 30
0.0
 11
1102.66217770971
 21
595.2154928560227
 31
0.0
1001
Sigma
1000

  0
LINE
  5
107
330
70
100
AcDbEntity
  8
Center
100
AcDbLine
 10
1102.66217770971
 20
658.6580521016733
 30
0.0
 11
1102.66217770971
 21
639.4777434925255
 31
0.0
1001
Sigma
1000

  0
CIRCLE
  5
108
330
70
100
AcDbEntity
  8
Line
100
AcDbCircle
 10
1102.66217770971
 20
433.0173440054751
 30
0.0
 40
7.499992468962501
1001
Sigma
1000

  0
CIRCLE
  5
109
330
70
100
AcDbEntity
  8
Line
100
AcDbCircle
 10
1102.66217770971
 20
578.0171984054167
 30
0.0
 40
7.499992468962501
1001
Sigma
1000

  0
LINE
  5
10A
330
70
100
AcDbEntity
  8
Line
100
AcDbLine
 10
1110.162170178673
 20
647.3171288186302
 30
0.0
 11
1110.162170178673
 21
650.5171256053877
 31
0.0
1001
Sigma
1000

  0
LINE
  5
10B
330
70
100
AcDbEntity
  8
Line
100
AcDbLine
 10
1095.162185240748
 20
647.3171288186302
 30
0.0
 11
1095.162185240748
 21
650.5171256053877
 31
0.0
1001
Sigma
1000

  0
LINE
  5
10D
330
70
100
AcDbEntity
  8
Line
100
AcDbLine
 10
1121.662158631082
 20
650.5171256053877
 30
0.0
 11
1085.628931758713
 21
650.5171256053877
 31
0.0
1001
Sigma
1000

  0
LINE
  5
10E
330
70
100
AcDbEntity
  8
Line
100
AcDbLine
 10
1121.662158631082
 20
360.5174168055043
 30
0.0
 11
1085.628931758713
 21
360.5174168055054
 31
0.0
1001
Sigma
1000

  0
LINE
  5
10F
330
70
100
AcDbEntity
  8
Line
100
AcDbLine
 10
590.5672912693727
 20
515.727746539606
 30
0.0
 11
589.8471014291636
 21
515.7996006474244
 31
0.0
1001
Sigma
1000

  0
LINE
  5
110
330
70
100
AcDbEntity
  8
Line
100
AcDbLine
 10
1132.66214758556
 20
371.5174057599837
 30
0.0
 11
1132.66214758556
 21
639.5171366509095
 31
0.0
1001
Sigma
1000

  0
LINE
  5
111
330
70
100
AcDbEntity
  8
Line
100
AcDbLine
 10
1068.662211850414
 20
370.7120506324735
 30
0.0
 11
1068.662211850414
 21
381.5173957185994
 31
0.0
1001
Sigma
1000

  0
ARC
  5
112
330
70
100
AcDbEntity
  8
Line
100
AcDbCircle
 10
1121.662158631082
 20
639.5171366509095
 30
0.0
 40
10.99998895447833
100
AcDbArc
 50
299.9999999999996
 51
90.0
1001
Sigma
1000

  0
LINE
  5
113
330
70
100
AcDbEntity
  8
Line
 62
     4
370
     9
100
AcDbLine
 10
567.8005412242021
 20
522.270305598615
 30
0.0
 11
593.624579707769
 21
521.1890387226977
 31
0.0
1001
Sigma
1000

  0
LINE
  5
114
330
70
100
AcDbEntity
  8
Line
100
AcDbLine
 10
569.152209347099
 20
523.3767274639334
 30
0.0
 11
593.740132431428
 21
522.3472174283149
 31
0.0
1001
Sigma
1000

  0
ARC
  5
115
330
70
100
AcDbEntity
  8
Line
100
AcDbCircle
 10
1121.662158631082
 20
371.5174057599827
 30
0.0
 40
10.99998895447833
100
AcDbArc
 50
270.0
 51
0.0
1001
Sigma
1000

  0
LINE
  5
116
330
70
100
AcDbEntity
  8
Line
100
AcDbLine
 10
1068.662211850414
 20
370.7120506324735
 30
0.0
 11
1085.628931758713
 21
360.5174168055054
 31
0.0
1001
Sigma
1000

  0
LINE
  5
117
330
70
100
AcDbEntity
  8
Line
100
AcDbLine
 10
1068.662211850414
 20
640.3224917784207
 30
0.0
 11
1085.628931758713
 21
650.5171256053877
 31
0.0
1001
Sigma
1000

  0
LINE
  5
118
330
70
100
AcDbEntity
  8
Center
100
AcDbLine
 10
1121.662158631082
 20
639.5171366509095
 30
0.0
 11
1134.652526643712
 21
647.0171291198719
 31
0.0
1001
Sigma
1000

  0
LINE
  5
119
330
70
100
AcDbEntity
  8
Line
100
AcDbLine
 10
1127.647433995272
 20
648.7462338880996
 30
0.0
 11
1124.34674849411
 21
646.8405822254896
 31
0.0
1001
Sigma
1000

  0
LINE
  5
11A
330
70
100
AcDbEntity
  8
Line
100
AcDbLine
 10
1132.64742897458
 20
640.0859885463427
 30
0.0
 11
1129.346743473418
 21
638.1803368837426
 31
0.0
1001
Sigma
1000

  0
LINE
  5
11B
330
70
100
AcDbEntity
  8
Line
100
AcDbLine
 10
1125.562154714943
 20
632.7621452843417
 30
0.0
 11
1127.162153108321
 21
629.9908667749818
 31
0.0
1001
Sigma
1000

  0
ARC
  5
11C
330
70
100
AcDbEntity
  8
Line
100
AcDbCircle
 10
1121.662158631082
 20
639.5171366509095
 30
0.0
 40
7.799992167720999
100
AcDbArc
 50
299.9999999999996
 51
90.0
1001
Sigma
1000

  0
LINE
  5
11D
330
70
100
AcDbEntity
  8
Line
100
AcDbLine
 10
1121.662158631082
 20
647.3171288186302
 30
0.0
 11
1086.516369408601
 21
647.3171288186302
 31
0.0
1001
Sigma
1000

  0
LINE
  5
11E
330
70
100
AcDbEntity
  8
Line
100
AcDbLine
 10
1086.516369408601
 20
647.3171288186302
 30
0.0
 11
1070.310332035191
 21
637.5795591704571
 31
0.0
1001
Sigma
1000

  0
LINE
  5
11F
330
70
100
AcDbEntity
  8
Line
100
AcDbLine
 10
1125.562154714943
 20
632.7621452843417
 30
0.0
 11
1125.562154714943
 21
505.517271205446
 31
0.0
1001
Sigma
1000

  0
LINE
  5
120
330
70
100
AcDbEntity
  8
Line
100
AcDbLine
 10
1127.162153108321
 20
505.517271205446
 30
0.0
 11
1127.162153108321
 21
629.9908667749818
 31
0.0
1001
Sigma
1000

  0
LINE
  5
121
330
70
100
AcDbEntity
  8
Center
100
AcDbLine
 10
1102.66217770971
 20
417.4287861327494
 30
0.0
 11
1102.66217770971
 21
448.4123615782924
 31
0.0
1001
Sigma
1000

  0
LINE
  5
122
330
70
100
AcDbEntity
  8
Center
100
AcDbLine
 10
1114.834296634747
 20
578.0171984054167
 30
0.0
 11
1089.752354607402
 21
578.0171984054167
 31
0.0
1001
Sigma
1000

  0
LINE
  5
123
330
70
100
AcDbEntity
  8
Center
100
AcDbLine
 10
1114.834296634747
 20
433.0173440054751
 30
0.0
 11
1088.276946252848
 21
433.0173440054751
 31
0.0
1001
Sigma
1000

  0
LINE
  5
124
330
70
100
AcDbEntity
  8
0
  6
Continuous
 62
     3
100
AcDbLine
 10
567.8005412242021
 20
522.270305598615
 30
0.0
 11
569.152209347099
 21
523.3767274639334
 31
0.0
1001
Sigma
1000

  0
LINE
  5
125
330
70
100
AcDbEntity
  8
Line
100
AcDbLine
 10
589.8382204743714
 20
515.5492457600058
 30
0.0
 11
592.3805883421497
 21
515.2955910085803
 31
0.0
1001
Sigma
1000

  0
LINE
  5
126
330
70
100
AcDbEntity
  8
Line
100
AcDbLine
 10
567.3041508796869
 20
517.2950119973331
 30
0.0
 11
571.0767174979245
 21
555.1072433671039
 31
0.0
1001
Sigma
1000

  0
LINE
  5
127
330
70
100
AcDbEntity
  8
Line
100
AcDbLine
 10
593.5115090236977
 20
552.3664184095241
 30
0.0
 11
596.0499367818727
 21
552.1131567670241
 31
0.0
1001
Sigma
1000

  0
LINE
  5
128
330
70
100
AcDbEntity
  8
Line
100
AcDbLine
 10
573.2653910762515
 20
556.8988046698168
 30
0.0
 11
593.9310728750172
 21
554.8369675744384
 31
0.0
1001
Sigma
1000

  0
LINE
  5
129
330
70
100
AcDbEntity
  8
Line
100
AcDbLine
 10
569.0957121824001
 20
515.1063384190162
 30
0.0
 11
589.7626764828483
 21
513.0443733670866
 31
0.0
1001
Sigma
1000

  0
LINE
  5
12A
330
70
100
AcDbEntity
  8
Line
100
AcDbLine
 10
570.5803271534295
 20
550.131949765812
 30
0.0
 11
571.6867490187478
 21
548.7802816429251
 31
0.0
1001
Sigma
1000

  0
LINE
  5
12B
330
70
100
AcDbEntity
  8
Line
100
AcDbLine
 10
571.6867490187478
 20
548.7802816429251
 30
0.0
 11
595.9933932235002
 21
544.9315285957794
 31
0.0
1001
Sigma
1000

  0
LINE
  5
12C
330
70
100
AcDbEntity
  8
Line
 62
     4
370
     9
100
AcDbLine
 10
570.5803271534295
 20
550.131949765812
 30
0.0
 11
596.1089459471791
 21
546.0897073014067
 31
0.0
1001
Sigma
1000

  0
LINE
  5
12D
330
70
100
AcDbEntity
  8
Line
100
AcDbLine
 10
569.152209347099
 20
523.3767274639334
 30
0.0
 11
571.6867490187478
 21
548.7802816429251
 31
0.0
1001
Sigma
1000

  0
LINE
  5
12E
330
70
100
AcDbEntity
  8
Line
100
AcDbLine
 10
567.3041508796869
 20
517.2950119973331
 30
0.0
 11
569.0957121824001
 21
515.1063384190162
 31
0.0
1001
Sigma
1000

  0
LINE
  5
12F
330
70
100
AcDbEntity
  8
Line
100
AcDbLine
 10
571.0767174979245
 20
555.1072433671039
 30
0.0
 11
573.2653910762515
 21
556.8988046698168
 31
0.0
1001
Sigma
1000

  0
LINE
  5
130
330
70
100
AcDbEntity
  8
Line
100
AcDbLine
 10
594.1909407842635
 20
552.0473898289933
 30
0.0
 11
593.4707509440447
 21
552.1192439368119
 31
0.0
1001
Sigma
1000

  0
LINE
  5
131
330
70
100
AcDbEntity
  8
Line
100
AcDbLine
 10
594.1909407842635
 20
552.0473898289933
 30
0.0
 11
596.4303924126522
 21
549.3115478561
 31
0.0
1001
Sigma
1000

  0
LINE
  5
132
330
70
100
AcDbEntity
  8
Center
100
AcDbLine
 10
606.2522934088749
 20
532.5034264929858
 30
0.0
 11
557.3624065833536
 21
537.3812226009087
 31
0.0
1001
Sigma
1000

  0
LINE
  5
133
330
70
100
AcDbEntity
  8
Center
100
AcDbLine
 10
561.3022279843541
 20
463.1173137809112
 30
0.0
 11
628.412653922315
 21
463.1173137809112
 31
0.0
1001
Sigma
1000

  0
LINE
  5
135
330
70
100
AcDbEntity
  8
Line
100
AcDbLine
 10
573.6627088983789
 20
481.1172957064213
 30
0.0
 11
585.6626968487187
 21
481.1172957064213
 31
0.0
1001
Sigma
1000

  0
LINE
  5
136
330
70
100
AcDbEntity
  8
Hidden
 62
     3
100
AcDbLine
 10
613.6626687333555
 20
445.1173318554013
 30
0.0
 11
613.6626687328455
 21
481.1172957064213
 31
0.0
1001
Sigma
1000

  0
LINE
  5
137
330
70
100
AcDbEntity
  8
Line
100
AcDbLine
 10
573.6627088983789
 20
481.1172957064213
 30
0.0
 11
573.6627088983789
 21
445.1173318554013
 31
0.0
1001
Sigma
1000

  0
LINE
  5
138
330
70
100
AcDbEntity
  8
Hidden
 62
     3
100
AcDbLine
 10
613.6626687328455
 20
481.1172957064213
 30
0.0
 11
585.6626968487187
 21
481.1172957064213
 31
0.0
1001
Sigma
1000

  0
LINE
  5
139
330
70
100
AcDbEntity
  8
Hidden
 62
     3
100
AcDbLine
 10
625.6626566831855
 20
440.1173368760931
 30
0.0
 11
625.6626566831855
 21
486.1172906857297
 31
0.0
1001
Sigma
1000

  0
LINE
  5
13A
330
70
100
AcDbEntity
  8
Line
100
AcDbLine
 10
585.6626968487187
 20
486.1172906857297
 30
0.0
 11
590.3193516394186
 21
486.1172906857297
 31
0.0
1001
Sigma
1000

  0
LINE
  5
13B
330
70
100
AcDbEntity
  8
Line
100
AcDbLine
 10
585.6626968487187
 20
486.1172906857297
 30
0.0
 11
585.6626968487187
 21
440.1173368760931
 31
0.0
1001
Sigma
1000

  0
LINE
  5
13C
330
70
100
AcDbEntity
  8
Hidden
 62
     3
100
AcDbLine
 10
590.3193516394186
 20
486.1172906857297
 30
0.0
 11
625.6626566831855
 21
486.1172906857297
 31
0.0
1001
Sigma
1000

  0
LINE
  5
13D
330
70
100
AcDbEntity
  8
Hidden
 62
     3
100
AcDbLine
 10
685.5950479653336
 20
366.4936405733629
 30
0.0
 11
675.3815275496114
 21
424.4173932213342
 31
0.0
1001
Sigma
1000

  0
LINE
  5
13E
330
70
100
AcDbEntity
  8
Hidden
 62
     3
100
AcDbLine
 10
613.6626687331056
 20
454.467322466708
 30
0.0
 11
618.9520999650193
 21
454.467322466708
 31
0.0
1001
Sigma
1000

  0
LINE
  5
13F
330
70
100
AcDbEntity
  8
Hidden
 62
     3
100
AcDbLine
 10
613.6626687331056
 20
471.7673050951146
 30
0.0
 11
618.9520999650193
 21
471.7673050951146
 31
0.0
1001
Sigma
1000

  0
LINE
  5
140
330
70
100
AcDbEntity
  8
Center
100
AcDbLine
 10
666.862949039891
 20
422.9153379927969
 30
0.0
 11
680.510288140111
 21
345.5174318675793
 31
0.0
1001
Sigma
1000

  0
LINE
  5
141
330
70
100
AcDbEntity
  8
Hidden
 62
     3
100
AcDbLine
 10
671.1626109954011
 20
348.7174286543357
 30
0.0
 11
658.3443705301808
 21
421.4132827642496
 31
0.0
1001
Sigma
1000

  0
ARC
  5
142
330
70
100
AcDbEntity
  8
Hidden
 62
     3
100
AcDbCircle
 10
618.9520999650193
 20
414.4673626322413
 30
0.0
 40
57.2999424628735
100
AcDbArc
 50
9.999999999998641
 51
90.0
1001
Sigma
1000

  0
ARC
  5
143
330
70
100
AcDbEntity
  8
Center
100
AcDbCircle
 10
618.9520999650193
 20
414.4673626322413
 30
0.0
 40
48.64995114867009
100
AcDbArc
 50
9.999999999998641
 51
90.0
1001
Sigma
1000

  0
LINE
  5
144
330
70
100
AcDbEntity
  8
Hidden
 62
     3
100
AcDbLine
 10
671.1626109954011
 20
348.0674293070267
 30
0.0
 11
756.5935123644623
 21
348.0674293070267
 31
0.0
1001
Sigma
1000

  0
ARC
  5
145
330
70
100
AcDbEntity
  8
Hidden
 62
     3
100
AcDbCircle
 10
618.9520999650193
 20
414.4673626322413
 30
0.0
 40
39.99995983446667
100
AcDbArc
 50
9.999999999998641
 51
90.0
1001
Sigma
1000

  0
ARC
  5
146
330
70
100
AcDbEntity
  8
Line
100
AcDbCircle
 10
815.2854162760224
 20
505.517271205446
 30
0.0
 40
287.376761433688
100
AcDbArc
 50
334.4108155361217
 51
337.5841589596014
1001
Sigma
1000

  0
ARC
  5
147
330
70
100
AcDbEntity
  8
Line
100
AcDbCircle
 10
815.2854162760224
 20
505.517271205446
 30
0.0
 40
284.8267639942408
100
AcDbArc
 50
0.0
 51
26.567597690213
1001
Sigma
1000

  0
LINE
  5
148
330
70
100
AcDbEntity
  8
Line
100
AcDbLine
 10
848.6624327608472
 20
662.9671131038652
 30
0.0
 11
670.9290232270658
 21
662.9671131038652
 31
0.0
1001
Sigma
1000

  0
ARC
  5
149
330
70
100
AcDbEntity
  8
Line
100
AcDbCircle
 10
1021.39584731532
 20
608.5839377121514
 30
0.0
 40
54.38317539171407
100
AcDbArc
 50
26.567597690213
 51
90.0
1001
Sigma
1000

  0
ARC
  5
14A
330
70
100
AcDbEntity
  8
Line
100
AcDbCircle
 10
1021.39584731532
 20
608.5839377121514
 30
0.0
 40
56.93317283116131
100
AcDbArc
 50
26.567597690213
 51
90.0
1001
Sigma
1000

  0
ARC
  5
14B
330
70
100
AcDbEntity
  8
Line
100
AcDbCircle
 10
1021.39584731532
 20
402.4506046987406
 30
0.0
 40
56.93317283116131
100
AcDbArc
 50
270.0
 51
326.119315922926
1001
Sigma
1000

  0
LINE
  5
14C
330
70
100
AcDbEntity
  8
Line
100
AcDbLine
 10
849.851516095142
 20
660.4171156644181
 30
0.0
 11
845.8407489646509
 21
660.4171156644181
 31
0.0
1001
Sigma
1000

  0
LINE
  5
14D
330
70
100
AcDbEntity
  8
Line
100
AcDbLine
 10
851.991218006073
 20
662.9671131038652
 30
0.0
 11
849.851516095142
 21
660.4171156644181
 31
0.0
1001
Sigma
1000

  0
LINE
  5
14E
330
70
100
AcDbEntity
  8
Line
100
AcDbLine
 10
851.991218006073
 20
662.9671131038652
 30
0.0
 11
1021.39584731532
 21
662.9671131038652
 31
0.0
1001
Sigma
1000

  0
LINE
  5
14F
330
70
100
AcDbEntity
  8
Line
100
AcDbLine
 10
845.6624357732621
 20
662.9671131038652
 30
0.0
 11
843.6624377815386
 21
662.6860317167102
 31
0.0
1001
Sigma
1000

  0
LINE
  5
150
330
70
100
AcDbEntity
  8
Line
100
AcDbLine
 10
845.8407489646509
 20
660.4171156644181
 30
0.0
 11
844.0173288326286
 21
660.1608506770539
 31
0.0
1001
Sigma
1000

  0
ARC
  5
151
330
70
100
AcDbEntity
  8
Line
100
AcDbCircle
 10
670.9290232270658
 20
402.4506046987406
 30
0.0
 40
56.93317283116131
100
AcDbArc
 50
206.567597690213
 51
270.0
1001
Sigma
1000

  0
ARC
  5
152
330
70
100
AcDbEntity
  8
Line
100
AcDbCircle
 10
877.0394542663636
 20
505.517271205446
 30
0.0
 40
287.376761433688
100
AcDbArc
 50
153.432402309787
 51
170.6673743294191
1001
Sigma
1000

  0
ARC
  5
153
330
70
100
AcDbEntity
  8
Line
100
AcDbCircle
 10
670.9290232270658
 20
608.5839377121514
 30
0.0
 40
56.93317283116131
100
AcDbArc
 50
90.0
 51
153.432402309787
1001
Sigma
1000

  0
ARC
  5
154
330
70
100
AcDbEntity
  8
Line
100
AcDbCircle
 10
877.0394542663636
 20
505.517271205446
 30
0.0
 40
284.8267639942408
100
AcDbArc
 50
153.432402309787
 51
170.5844462573439
1001
Sigma
1000

  0
ARC
  5
155
330
70
100
AcDbEntity
  8
Line
100
AcDbCircle
 10
670.9290232270658
 20
608.5839377121514
 30
0.0
 40
54.38317539171407
100
AcDbArc
 50
90.0
 51
153.432402309787
1001
Sigma
1000

  0
LINE
  5
156
330
70
100
AcDbEntity
  8
Line
100
AcDbLine
 10
844.0173288326286
 20
660.1608506770539
 30
0.0
 11
843.6624377815386
 21
662.6860317167102
 31
0.0
1001
Sigma
1000

  0
LINE
  5
157
330
70
100
AcDbEntity
  8
Line
100
AcDbLine
 10
844.0173288326286
 20
660.1608506770539
 30
0.0
 11
844.0173288326286
 21
505.517271205446
 31
0.0
1001
Sigma
1000

  0
LINE
  5
158
330
70
100
AcDbEntity
  8
Line
100
AcDbLine
 10
843.6624377815386
 20
662.6860317167102
 30
0.0
 11
843.6624377815386
 21
505.517271205446
 31
0.0
1001
Sigma
1000

  0
ARC
  5
159
330
70
100
AcDbEntity
  8
Line
100
AcDbCircle
 10
815.2854162760224
 20
505.517271205446
 30
0.0
 40
287.376761433688
100
AcDbArc
 50
0.0
 51
26.567597690213
1001
Sigma
1000

  0
ARC
  5
15A
330
70
100
AcDbEntity
  8
Line
100
AcDbCircle
 10
877.0394542663636
 20
505.517271205446
 30
0.0
 40
287.376761433688
100
AcDbArc
 50
177.9495187076507
 51
206.567597690213
1001
Sigma
1000

  0
ARC
  5
15B
330
70
100
AcDbEntity
  8
Hidden
 62
     3
100
AcDbCircle
 10
877.0394542663636
 20
505.517271205446
 30
0.0
 40
287.376761433688
100
AcDbArc
 50
170.6673743294241
 51
177.9495187076507
1001
Sigma
1000

  0
ARC
  5
15C
330
70
100
AcDbEntity
  8
Line
100
AcDbCircle
 10
877.0394542663636
 20
505.517271205446
 30
0.0
 40
284.8267639942408
100
AcDbArc
 50
178.0326056471871
 51
180.0
1001
Sigma
1000

  0
LINE
  5
15D
330
70
100
AcDbEntity
  8
Line
370
     9
100
AcDbLine
 10
596.0499367818727
 20
552.1131567670241
 30
0.0
 11
596.4303924126522
 21
549.3115478561
 31
0.0
1001
Sigma
1000

  0
LINE
  5
15E
330
70
100
AcDbEntity
  8
Line
370
     9
100
AcDbLine
 10
593.3031332422761
 20
517.9671981679946
 30
0.0
 11
592.3805883421497
 21
515.2955910085803
 31
0.0
1001
Sigma
1000

  0
LINE
  5
15F
330
70
100
AcDbEntity
  8
Line
100
AcDbLine
 10
571.5483291047608
 20
452.1237191411023
 30
0.0
 11
507.262374198241
 21
452.1237191411023
 31
0.0
1001
Sigma
1000

  0
LINE
  5
160
330
70
100
AcDbEntity
  8
Line
100
AcDbLine
 10
585.6626968487187
 20
440.1173368760931
 30
0.0
 11
597.2033386525463
 21
440.1173368760931
 31
0.0
1001
Sigma
1000

  0
LINE
  5
161
330
70
100
AcDbEntity
  8
Hidden
 62
     3
100
AcDbLine
 10
597.2033386525463
 20
440.1173368760931
 30
0.0
 11
625.6626566831855
 21
440.1173368760931
 31
0.0
1001
Sigma
1000

  0
LINE
  5
162
330
70
100
AcDbEntity
  8
Line
100
AcDbLine
 10
573.6627088983789
 20
445.1173318554013
 30
0.0
 11
585.6626968487187
 21
445.1173318554013
 31
0.0
1001
Sigma
1000

  0
LINE
  5
163
330
70
100
AcDbEntity
  8
Hidden
 62
     3
100
AcDbLine
 10
585.6626968487187
 20
445.1173318554013
 30
0.0
 11
613.6626687328455
 21
445.1173318554013
 31
0.0
1001
Sigma
1000

  0
LINE
  5
164
330
70
100
AcDbEntity
  8
Line
100
AcDbLine
 10
614.9622660525388
 20
623.3171529179505
 30
0.0
 11
614.9622660525388
 21
627.3171489013971
 31
0.0
1001
Sigma
1000

  0
ARC
  5
165
330
70
100
AcDbEntity
  8
Line
100
AcDbCircle
 10
594.9622861353055
 20
624.5171517129845
 30
0.0
 40
11.99998795034
100
AcDbArc
 50
70.52877936550586
 51
109.4712206344941
1001
Sigma
1000

  0
LINE
  5
166
330
70
100
AcDbEntity
  8
Line
100
AcDbLine
 10
586.9622941684122
 20
635.830848851436
 30
0.0
 11
586.9622941684122
 21
630.5171456881544
 31
0.0
1001
Sigma
1000

  0
LINE
  5
167
330
70
100
AcDbEntity
  8
0
  6
Continuous
 62
     3
100
AcDbLine
 10
586.9622941684122
 20
630.5171456881544
 30
0.0
 11
602.9622781021989
 21
630.5171456881544
 31
0.0
1001
Sigma
1000

  0
LINE
  5
168
330
70
100
AcDbEntity
  8
Line
100
AcDbLine
 10
602.9622781021989
 20
630.5171456881544
 30
0.0
 11
602.9622781021989
 21
635.830848851436
 31
0.0
1001
Sigma
1000

  0
LINE
  5
169
330
70
100
AcDbEntity
  8
Line
100
AcDbLine
 10
588.9622921601353
 20
636.5171396633245
 30
0.0
 11
600.9622801104755
 21
636.5171396633245
 31
0.0
1001
Sigma
1000

  0
LINE
  5
16A
330
70
100
AcDbEntity
  8
Line
100
AcDbLine
 10
598.9622821187522
 20
630.5171456881544
 30
0.0
 11
598.9622821187522
 21
635.830848851436
 31
0.0
1001
Sigma
1000

  0
LINE
  5
16B
330
70
100
AcDbEntity
  8
Line
100
AcDbLine
 10
590.9622901518587
 20
630.5171456881544
 30
0.0
 11
590.9622901518587
 21
635.830848851436
 31
0.0
1001
Sigma
1000

  0
ARC
  5
16C
330
70
100
AcDbEntity
  8
Line
100
AcDbCircle
 10
600.9622801104755
 20
633.2597836212837
 30
0.0
 40
3.257356042041348
100
AcDbArc
 50
52.12112050828664
 51
127.878879491719
1001
Sigma
1000

  0
ARC
  5
16D
330
70
100
AcDbEntity
  8
Line
100
AcDbCircle
 10
588.9622921601353
 20
633.2597836212837
 30
0.0
 40
3.257356042041348
100
AcDbArc
 50
52.121120508281
 51
127.878879491719
1001
Sigma
1000

  0
LINE
  5
16E
330
70
100
AcDbEntity
  8
Line
100
AcDbLine
 10
590.9622901518587
 20
610.517165770921
 30
0.0
 11
591.7622893485481
 21
609.7171665742316
 31
0.0
1001
Sigma
1000

  0
LINE
  5
16F
330
70
100
AcDbEntity
  8
Line
100
AcDbLine
 10
591.7622893485481
 20
609.7171665742316
 30
0.0
 11
598.1622829220627
 21
609.7171665742316
 31
0.0
1001
Sigma
1000

  0
LINE
  5
170
330
70
100
AcDbEntity
  8
Line
100
AcDbLine
 10
590.9622901518587
 20
610.517165770921
 30
0.0
 11
598.9622821187522
 21
610.517165770921
 31
0.0
1001
Sigma
1000

  0
LINE
  5
171
330
70
100
AcDbEntity
  8
Line
100
AcDbLine
 10
598.1622829220627
 20
609.7171665742316
 30
0.0
 11
598.9622821187522
 21
610.517165770921
 31
0.0
1001
Sigma
1000

  0
LINE
  5
172
330
70
100
AcDbEntity
  8
Line
 62
     4
370
     9
100
AcDbLine
 10
591.7622893485481
 20
627.5171487005693
 30
0.0
 11
590.9622901518587
 21
628.9027879552445
 31
0.0
1001
Sigma
1000

  0
LINE
  5
173
330
70
100
AcDbEntity
  8
Line
 62
     4
370
     9
100
AcDbLine
 10
598.1622829220627
 20
627.5171487005693
 30
0.0
 11
598.9622821187522
 21
628.9027879552445
 31
0.0
1001
Sigma
1000

  0
LINE
  5
174
330
70
100
AcDbEntity
  8
Line
100
AcDbLine
 10
590.9622901518587
 20
627.5171487005693
 30
0.0
 11
598.9622821187522
 21
627.5171487005693
 31
0.0
1001
Sigma
1000

  0
LINE
  5
175
330
70
100
AcDbEntity
  8
Line
100
AcDbLine
 10
611.9622690649537
 20
627.3171489013971
 30
0.0
 11
611.9622690649537
 21
630.5171456881544
 31
0.0
1001
Sigma
1000

  0
LINE
  5
176
330
70
100
AcDbEntity
  8
Line
100
AcDbLine
 10
505.3295183885967
 20
380.5173967227377
 30
0.0
 11
505.3295183885967
 21
394.2475461949145
 31
0.0
1001
Sigma
1000

  0
LINE
  5
177
330
70
100
AcDbEntity
  8
Line
100
AcDbLine
 10
505.3295183885958
 20
627.3171489013971
 30
0.0
 11
505.3295183885958
 21
630.5171456881544
 31
0.0
1001
Sigma
1000

  0
CIRCLE
  5
178
330
70
100
AcDbEntity
  8
Line
100
AcDbCircle
 10
498.6123828840377
 20
621.8671543739508
 30
0.0
 40
6.349993623721584
1001
Sigma
1000

  0
ARC
  5
179
330
70
100
AcDbEntity
  8
Line
100
AcDbCircle
 10
498.6123828840377
 20
389.1673880369411
 30
0.0
 40
8.649991314203418
100
AcDbArc
 50
180.0
 51
320.9456127001018
1001
Sigma
1000

  0
CIRCLE
  5
17A
330
70
100
AcDbEntity
  8
Line
100
AcDbCircle
 10
498.6123828840377
 20
621.8671543739508
 30
0.0
 40
8.649991314203418
1001
Sigma
1000

  0
LINE
  5
17B
330
70
100
AcDbEntity
  8
Center
100
AcDbLine
 10
478.323058995053
 20
389.1673880369411
 30
0.0
 11
517.1754789982036
 21
389.1673880369411
 31
0.0
1001
Sigma
1000

  0
LINE
  5
17C
330
70
100
AcDbEntity
  8
Center
100
AcDbLine
 10
517.1754789982036
 20
621.8671543739508
 30
0.0
 11
478.3230589950541
 21
621.8671543739508
 31
0.0
1001
Sigma
1000

  0
LINE
  5
17D
330
70
100
AcDbEntity
  8
Center
100
AcDbLine
 10
498.6123828840377
 20
643.8156397973032
 30
0.0
 11
498.6123828840387
 21
366.0248739618198
 31
0.0
1001
Sigma
1000

  0
LINE
  5
17E
330
70
100
AcDbEntity
  8
Line
100
AcDbLine
 10
507.262374198241
 20
621.8671543739508
 30
0.0
 11
507.262374198241
 21
394.2475461949145
 31
0.0
1001
Sigma
1000

  0
LINE
  5
17F
330
70
100
AcDbEntity
  8
Line
100
AcDbLine
 10
489.9623915698342
 20
621.8671543739508
 30
0.0
 11
489.9623915698342
 21
389.1673880369411
 31
0.0
1001
Sigma
1000

  0
LINE
  5
180
330
70
100
AcDbEntity
  8
Hidden
 62
     3
100
AcDbLine
 10
570.4623107366947
 20
627.3171489013971
 30
0.0
 11
570.4623107366947
 21
623.3171529179505
 31
0.0
1001
Sigma
1000

  0
LINE
  5
181
330
70
100
AcDbEntity
  8
Hidden
 62
     3
100
AcDbLine
 10
579.4623016994497
 20
627.3171489013971
 30
0.0
 11
579.4623016994497
 21
623.3171529179505
 31
0.0
1001
Sigma
1000

  0
LINE
  5
182
330
70
100
AcDbEntity
  8
Center
100
AcDbLine
 10
574.9874400721282
 20
636.6919679352395
 30
0.0
 11
574.9623062180721
 21
616.7869962160075
 31
0.0
1001
Sigma
1000

  0
LINE
  5
183
330
70
100
AcDbEntity
  8
Line
100
AcDbLine
 10
614.9622660525388
 20
623.3171529179505
 30
0.0
 11
561.9623192718703
 21
623.3171529179505
 31
0.0
1001
Sigma
1000

  0
LINE
  5
184
330
70
100
AcDbEntity
  8
Line
100
AcDbLine
 10
505.3295183885958
 20
627.3171489013971
 30
0.0
 11
590.4622906539279
 21
627.3171489013971
 31
0.0
1001
Sigma
1000

  0
LINE
  5
185
330
70
100
AcDbEntity
  8
Line
100
AcDbLine
 10
498.6123828840377
 20
380.5173967227377
 30
0.0
 11
611.9622690649537
 21
380.5173967227377
 31
0.0
1001
Sigma
1000

  0
LINE
  5
186
330
70
100
AcDbEntity
  8
Line
100
AcDbLine
 10
505.3295183885958
 20
630.5171456881544
 30
0.0
 11
611.9622690649537
 21
630.5171456881544
 31
0.0
1001
Sigma
1000

  0
LINE
  5
187
330
70
100
AcDbEntity
  8
Line
100
AcDbLine
 10
590.9622901518587
 20
630.5171456881544
 30
0.0
 11
590.9622901518587
 21
623.3171529179505
 31
0.0
1001
Sigma
1000

  0
LINE
  5
188
330
70
100
AcDbEntity
  8
Line
100
AcDbLine
 10
598.9622821187522
 20
610.517165770921
 30
0.0
 11
598.9622821187522
 21
612.3171639634721
 31
0.0
1001
Sigma
1000

  0
LINE
  5
189
330
70
100
AcDbEntity
  8
Line
 62
     4
370
     9
100
AcDbLine
 10
591.7622893485481
 20
627.5171487005693
 30
0.0
 11
591.7622893485481
 21
623.3171529179505
 31
0.0
1001
Sigma
1000

  0
LINE
  5
18A
330
70
100
AcDbEntity
  8
Line
 62
     4
370
     9
100
AcDbLine
 10
598.1622829220627
 20
609.7171665742316
 30
0.0
 11
598.1622829220627
 21
612.3171639634721
 31
0.0
1001
Sigma
1000

  0
LINE
  5
18B
330
70
100
AcDbEntity
  8
Line
100
AcDbLine
 10
614.9622660525388
 20
627.3171489013971
 30
0.0
 11
599.4622816166829
 21
627.3171489013971
 31
0.0
1001
Sigma
1000

  0
LINE
  5
18C
330
70
100
AcDbEntity
  8
Line
100
AcDbLine
 10
602.9622781021989
 20
620.3171559303655
 30
0.0
 11
586.9622941684122
 21
620.3171559303655
 31
0.0
1001
Sigma
1000

  0
LINE
  5
18D
330
70
100
AcDbEntity
  8
Line
100
AcDbLine
 10
602.9622781021989
 20
613.0034547753503
 30
0.0
 11
602.9622781021989
 21
623.3171529179505
 31
0.0
1001
Sigma
1000

  0
LINE
  5
18E
330
70
100
AcDbEntity
  8
Line
100
AcDbLine
 10
602.9622781021989
 20
620.3171559303655
 30
0.0
 11
586.9622941684122
 21
620.3171559303655
 31
0.0
1001
Sigma
1000

  0
LINE
  5
18F
330
70
100
AcDbEntity
  8
Line
100
AcDbLine
 10
586.9622941684122
 20
613.0034547753503
 30
0.0
 11
586.9622941684122
 21
623.3171529179505
 31
0.0
1001
Sigma
1000

  0
LINE
  5
190
330
70
100
AcDbEntity
  8
Line
100
AcDbLine
 10
598.9622821187522
 20
620.3171559303655
 30
0.0
 11
598.9622821187522
 21
613.0034547753503
 31
0.0
1001
Sigma
1000

  0
LINE
  5
191
330
70
100
AcDbEntity
  8
Line
100
AcDbLine
 10
590.9622901518587
 20
620.3171559303655
 30
0.0
 11
590.9622901518587
 21
613.0034547753503
 31
0.0
1001
Sigma
1000

  0
ARC
  5
192
330
70
100
AcDbEntity
  8
Line
100
AcDbCircle
 10
594.9622861353055
 20
624.3171519138122
 30
0.0
 40
11.99998795034
100
AcDbArc
 50
250.5287793655059
 51
289.4712206344942
1001
Sigma
1000

  0
ARC
  5
193
330
70
100
AcDbEntity
  8
Line
100
AcDbCircle
 10
588.9622921601353
 20
615.5745200055128
 30
0.0
 40
3.257356042041348
100
AcDbArc
 50
232.1211205082779
 51
307.8788794917134
1001
Sigma
1000

  0
ARC
  5
194
330
70
100
AcDbEntity
  8
Line
100
AcDbCircle
 10
600.9622801104755
 20
615.5745200055128
 30
0.0
 40
3.257356042041348
100
AcDbArc
 50
232.1211205082779
 51
307.8788794917134
1001
Sigma
1000

  0
LINE
  5
195
330
70
100
AcDbEntity
  8
Line
100
AcDbLine
 10
588.9622921601353
 20
612.3171639634721
 30
0.0
 11
600.9622801104755
 21
612.3171639634721
 31
0.0
1001
Sigma
1000

  0
LINE
  5
196
330
70
100
AcDbEntity
  8
Line
 62
     4
370
     9
100
AcDbLine
 10
598.1622829220627
 20
627.5171487005693
 30
0.0
 11
598.1622829220627
 21
623.3171529179505
 31
0.0
1001
Sigma
1000

  0
LINE
  5
197
330
70
100
AcDbEntity
  8
Line
 62
     4
370
     9
100
AcDbLine
 10
591.7622893485481
 20
612.3171639634721
 30
0.0
 11
591.7622893485481
 21
609.7171665742316
 31
0.0
1001
Sigma
1000

  0
LINE
  5
198
330
70
100
AcDbEntity
  8
Line
100
AcDbLine
 10
598.9622821187522
 20
630.5171456881544
 30
0.0
 11
598.9622821187522
 21
623.3171529179505
 31
0.0
1001
Sigma
1000

  0
LINE
  5
199
330
70
100
AcDbEntity
  8
Line
100
AcDbLine
 10
590.9622901518587
 20
612.3171639634721
 30
0.0
 11
590.9622901518587
 21
610.517165770921
 31
0.0
1001
Sigma
1000

  0
LINE
  5
19A
330
70
100
AcDbEntity
  8
Line
100
AcDbLine
 10
561.9623192718703
 20
627.3171489013971
 30
0.0
 11
561.9623192718703
 21
623.3171529179505
 31
0.0
1001
Sigma
1000

  0
LINE
  5
19B
330
70
100
AcDbEntity
  8
Line
100
AcDbLine
 10
611.9622690649537
 20
380.5173967227377
 30
0.0
 11
611.9622690650539
 21
394.2475461949145
 31
0.0
1001
Sigma
1000

  0
LINE
  5
19C
330
70
100
AcDbEntity
  8
Line
100
AcDbLine
 10
505.3295183885967
 20
394.2475461949145
 30
0.0
 11
611.9622690650539
 21
394.2475461949145
 31
0.0
1001
Sigma
1000

  0
LINE
  5
19D
330
70
100
AcDbEntity
  8
Line
100
AcDbLine
 10
599.4622816166829
 20
630.5171456881544
 30
0.0
 11
599.4622816166829
 21
623.3171529179505
 31
0.0
1001
Sigma
1000

  0
LINE
  5
19E
330
70
100
AcDbEntity
  8
Line
100
AcDbLine
 10
590.4622906539279
 20
630.5171456881544
 30
0.0
 11
590.4622906539279
 21
623.3171529179505
 31
0.0
1001
Sigma
1000

  0
LINE
  5
19F
330
70
100
AcDbEntity
  8
Line
100
AcDbLine
 10
507.262374198241
 20
616.7869962160075
 30
0.0
 11
584.9417311402087
 21
616.7869962160075
 31
0.0
1001
Sigma
1000

  0
LINE
  5
1A0
330
70
100
AcDbEntity
  8
Line
100
AcDbLine
 10
505.3295183885967
 20
391.3242036658776
 30
0.0
 11
611.9622690650539
 21
391.3242036658776
 31
0.0
1001
Sigma
1000

  0
LINE
  5
1A1
330
70
100
AcDbEntity
  8
Center
100
AcDbLine
 10
594.9622861353055
 20
603.2048413298135
 30
0.0
 11
594.9622861353055
 21
644.1280882505012
 31
0.0
1001
Sigma
1000

  0
LINE
  5
1A2
330
70
100
AcDbEntity
  8
Line
100
AcDbLine
 10
669.2626129027543
 20
653.1171229946282
 30
0.0
 11
688.1625939245396
 21
634.2171419728523
 31
0.0
1001
Sigma
1000

  0
LINE
  5
1A3
330
70
100
AcDbEntity
  8
Center
100
AcDbLine
 10
677.3126048194407
 20
513.1172635739947
 30
0.0
 11
677.3126048194407
 21
658.9522767612204
 31
0.0
1001
Sigma
1000

  0
ARC
  5
1A4
330
70
100
AcDbEntity
  8
Center
100
AcDbCircle
 10
627.3126550263572
 20
513.1172635739947
 30
0.0
 40
49.99994979308334
100
AcDbArc
 50
270.0
 51
0.0
1001
Sigma
1000

  0
LINE
  5
1A5
330
70
100
AcDbEntity
  8
Hidden
 62
     3
100
AcDbLine
 10
627.3126550263572
 20
473.9673028860105
 30
0.0
 11
625.6626566831855
 21
473.9673028860105
 31
0.0
1001
Sigma
1000

  0
LINE
  5
1A6
330
70
100
AcDbEntity
  8
Hidden
 62
     3
100
AcDbLine
 10
627.3126550263572
 20
452.2673246758122
 30
0.0
 11
625.6626566831855
 21
452.2673246758122
 31
0.0
1001
Sigma
1000

  0
LINE
  5
1A7
330
70
100
AcDbEntity
  8
Line
100
AcDbLine
 10
669.2626129027543
 20
653.1171229946282
 30
0.0
 11
666.4626157143413
 21
653.1171229946282
 31
0.0
1001
Sigma
1000

  0
LINE
  5
1A8
330
70
100
AcDbEntity
  8
Line
100
AcDbLine
 10
666.4626157143413
 20
513.1172635739947
 30
0.0
 11
666.4626157143413
 21
653.1171229946282
 31
0.0
1001
Sigma
1000

  0
LINE
  5
1A9
330
70
100
AcDbEntity
  8
Line
100
AcDbLine
 10
688.1625939245396
 20
513.1172635739947
 30
0.0
 11
688.1625939245396
 21
634.2171419728523
 31
0.0
1001
Sigma
1000

  0
ARC
  5
1AA
330
70
100
AcDbEntity
  8
Hidden
 62
     3
100
AcDbCircle
 10
627.3126550263572
 20
513.1172635739947
 30
0.0
 40
39.14996068798425
100
AcDbArc
 50
270.0
 51
348.8063776081767
1001
Sigma
1000

  0
ARC
  5
1AB
330
70
100
AcDbEntity
  8
Hidden
 62
     3
100
AcDbCircle
 10
627.3126550263572
 20
513.1172635739947
 30
0.0
 40
60.84993889818242
100
AcDbArc
 50
270.0
 51
352.8251756422418
1001
Sigma
1000

  0
ARC
  5
1AC
330
70
100
AcDbEntity
  8
Line
100
AcDbCircle
 10
627.3126550263572
 20
513.1172635739947
 30
0.0
 40
39.14996068798425
100
AcDbArc
 50
348.8063776081767
 51
0.0
1001
Sigma
1000

  0
ARC
  5
1AD
330
70
100
AcDbEntity
  8
Line
100
AcDbCircle
 10
627.3126550263572
 20
513.1172635739947
 30
0.0
 40
60.84993889818242
100
AcDbArc
 50
352.8251756422418
 51
0.0
1001
Sigma
1000

  0
LINE
  5
1AE
330
70
100
AcDbEntity
  8
Center
100
AcDbLine
 10
1159.096547271249
 20
505.517271205446
 30
0.0
 11
467.7900602776413
 21
505.517271205446
 31
0.0
1001
Sigma
1000

  0
LINE
  5
1B0
330
70
100
AcDbEntity
  8
0
  6
Continuous
 62
     4
370
     9
390
83
100
AcDbLine
 10
1207.5
 20
445.5
 30
0.0
 11
1237.5
 21
445.5
 31
0.0
  0
LINE
  5
1B1
330
70
100
AcDbEntity
  8
0
  6
Continuous
 62
     4
370
     9
390
83
100
AcDbLine
 10
630.0
 20
36.74999999999992
 30
0.0
 11
630.0
 21
6.749999999999913
 31
0.0
  0
LINE
  5
1B2
330
70
100
AcDbEntity
  8
0
  6
Continuous
 62
     4
370
     9
390
83
100
AcDbLine
 10
630.0
 20
854.25
 30
0.0
 11
630.0
 21
884.2499999999999
 31
0.0
  0
LINE
  5
1B3
330
70
100
AcDbEntity
  8
0
  6
Continuous
 62
     4
370
    40
390
83
100
AcDbLine
 10
52.5
 20
854.25
 30
0.0
 11
1207.5
 21
854.25
 31
0.0
  0
LINE
  5
1B4
330
70
100
AcDbEntity
  8
0
  6
Continuous
 62
     4
370
     9
390
83
100
AcDbLine
 10
52.5
 20
445.5
 30
0.0
 11
22.5
 21
445.5
 31
0.0
  0
LINE
  5
1B5
330
70
100
AcDbEntity
  8
0
  6
Continuous
 62
     4
370
    40
390
83
100
AcDbLine
 10
52.5
 20
36.74999999999992
 30
0.0
 11
52.5
 21
854.25
 31
0.0
  0
LINE
  5
1B6
330
70
100
AcDbEntity
  8
0
  6
Continuous
 62
     4
370
    40
390
83
100
AcDbLine
 10
52.5
 20
36.74999999999992
 30
0.0
 11
1207.5
 21
36.74999999999992
 31
0.0
  0
LINE
  5
1B7
330
70
100
AcDbEntity
  8
0
  6
Continuous
 62
     4
370
    40
390
83
100
AcDbLine
 10
1207.5
 20
36.74999999999992
 30
0.0
 11
1207.5
 21
854.25
 31
0.0
  0
TEXT
  5
1B8
330
70
100
AcDbEntity
  8
0
 62
     7
370
    30
390
83
100
AcDbText
 10
915.8146430725404
 20
15.61587299999992
 30
0.0
 40
12.0
  1
中国工業株式会社
 41
1.258928571428566
 72
     5
 11
1056.81464307254
 21
15.61587299999992
 31
0.0
100
AcDbText
1001
AcDbBlockRepETag
1070
     1
1071
       26
1005
1B8
  0
TEXT
  5
1B9
330
70
100
AcDbEntity
  8
0
 62
     7
370
    30
390
83
100
AcDbText
 10
916.1146430725404
 20
15.61587299999992
 30
0.0
 40
12.0
  1
中国工業株式会社
 41
1.258928571428568
 72
     5
 11
1057.11464307254
 21
15.61587299999992
 31
0.0
100
AcDbText
1001
AcDbBlockRepETag
1070
     1
1071
       27
1005
1B9
  0
TEXT
  5
1BA
330
70
100
AcDbEntity
  8
0
 62
     7
370
    30
390
83
100
AcDbText
 10
916.41464307254
 20
15.61587299999992
 30
0.0
 40
12.0
  1
中国工業株式会社
 41
1.25892857142857
 72
     5
 11
1057.41464307254
 21
15.61587299999992
 31
0.0
100
AcDbText
1001
AcDbBlockRepETag
1070
     1
1071
       28
1005
1BA
  0
LINE
  5
1BB
330
70
100
AcDbEntity
  8
0
 62
     7
390
83
100
AcDbLine
 10
885.7540550725401
 20
25.34999999999991
 30
0.0
 11
889.0381100725402
 21
25.34999999999991
 31
0.0
1001
AcDbBlockRepETag
1070
     1
1071
       29
1005
1BB
  0
LINE
  5
1BC
330
70
100
AcDbEntity
  8
0
 62
     7
390
83
100
AcDbLine
 10
889.0381100725402
 20
18.14999999999991
 30
0.0
 11
885.7540550725401
 21
18.14999999999991
 31
0.0
1001
AcDbBlockRepETag
1070
     1
1071
       30
1005
1BC
  0
LINE
  5
1BD
330
70
100
AcDbEntity
  8
0
 62
     7
390
83
100
AcDbLine
 10
902.1971360725402
 20
18.14999999999991
 30
0.0
 11
905.4811940725404
 21
18.14999999999991
 31
0.0
1001
AcDbBlockRepETag
1070
     1
1071
       31
1005
1BD
  0
LINE
  5
1BE
330
70
100
AcDbEntity
  8
0
 62
     7
390
83
100
AcDbLine
 10
905.4811940725404
 20
25.34999999999991
 30
0.0
 11
902.1971360725402
 21
25.34999999999991
 31
0.0
1001
AcDbBlockRepETag
1070
     1
1071
       32
1005
1BE
  0
ARC
  5
1BF
330
70
100
AcDbEntity
  8
0
 62
     7
390
83
100
AcDbCircle
 10
895.6176237393725
 20
21.74999904548508
 30
0.0
 40
10.49999904632406
100
AcDbArc
 50
200.0510389212319
 51
339.9489606452732
1001
AcDbBlockRepETag
1070
     1
1071
       33
1005
1BF
  0
ARC
  5
1C0
330
70
100
AcDbEntity
  8
0
 62
     7
390
83
100
AcDbCircle
 10
895.6176230725402
 20
21.74999999999991
 30
0.0
 40
7.5
100
AcDbArc
 50
208.6854020000004
 51
331.3145979999994
1001
AcDbBlockRepETag
1070
     1
1071
       36
1005
1C0
  0
TEXT
  5
1C1
330
70
100
AcDbEntity
  8
0
 62
     7
370
    30
390
83
100
AcDbText
 10
883.4185060902816
 20
18.91587299999991
 30
0.0
 40
5.4
  1
ＣＫＫ
 41
1.475694444444464
 72
     5
 11
908.9185060902819
 21
18.91587299999991
 31
0.0
100
AcDbText
1001
AcDbBlockRepETag
1070
     1
1071
       38
1005
1C1
  0
TEXT
  5
1C2
330
70
100
AcDbEntity
  8
0
 62
     7
370
    30
390
83
100
AcDbText
 10
882.968506090282
 20
18.91587299999991
 30
0.0
 40
5.4
  1
ＣＫＫ
 41
1.475694444444444
 72
     5
 11
908.4685060902819
 21
18.91587299999991
 31
0.0
100
AcDbText
1001
AcDbBlockRepETag
1070
     1
1071
       39
1005
1C2
  0
TEXT
  5
1C3
330
70
100
AcDbEntity
  8
0
 62
     7
370
    30
390
83
100
AcDbText
 10
882.5185060902818
 20
18.91587299999991
 30
0.0
 40
5.4
  1
ＣＫＫ
 41
1.475694444444457
 72
     5
 11
908.018506090282
 21
18.91587299999991
 31
0.0
100
AcDbText
1001
AcDbBlockRepETag
1070
     1
1071
       40
1005
1C3
  0
TEXT
  5
1C4
330
70
100
AcDbEntity
  8
0
 62
     7
370
    30
390
83
100
AcDbText
 10
882.0685060902821
 20
18.91587299999991
 30
0.0
 40
5.4
  1
ＣＫＫ
 41
1.475694444444437
 72
     5
 11
907.568506090282
 21
18.91587299999991
 31
0.0
100
AcDbText
1001
AcDbBlockRepETag
1070
     1
1071
       41
1005
1C4
  0
ARC
  5
1C5
330
70
100
AcDbEntity
  8
0
 62
     7
390
83
100
AcDbCircle
 10
895.6176230725402
 20
21.74999999999991
 30
0.0
 40
10.5
100
AcDbArc
 50
20.05104300000026
 51
159.9489569999996
1001
AcDbBlockRepETag
1070
     1
1071
       42
1005
1C5
  0
ARC
  5
1C6
330
70
100
AcDbEntity
  8
0
 62
     7
390
83
100
AcDbCircle
 10
895.6176230725402
 20
21.74999999999991
 30
0.0
 40
7.5
100
AcDbArc
 50
28.68540200000056
 51
151.3145979999994
1001
AcDbBlockRepETag
1070
     1
1071
       43
1005
1C6
  0
TEXT
  5
1C7
330
70
100
AcDbEntity
  8
0
 62
     7
370
    30
390
83
100
AcDbText
 10
916.7146430725402
 20
15.61587299999992
 30
0.0
 40
12.0
  1
中国工業株式会社
 41
1.258928571428568
 72
     5
 11
1057.71464307254
 21
15.61587299999992
 31
0.0
100
AcDbText
1001
AcDbBlockRepETag
1070
     1
1071
       45
1005
1C7
  0
TEXT
  5
1C8
330
70
100
AcDbEntity
  8
0
 62
     7
370
    30
390
83
100
AcDbText
 10
917.0146430725402
 20
15.61587299999992
 30
0.0
 40
12.0
  1
中国工業株式会社
 41
1.258928571428568
 72
     5
 11
1058.01464307254
 21
15.61587299999992
 31
0.0
100
AcDbText
1001
AcDbBlockRepETag
1070
     1
1071
       46
1005
1C8
  0
TEXT
  5
1C9
330
70
100
AcDbEntity
  8
0
 62
     7
370
    30
390
83
100
AcDbText
 10
917.3146430725402
 20
15.61587299999992
 30
0.0
 40
12.0
  1
中国工業株式会社
 41
1.258928571428567
 72
     5
 11
1058.31464307254
 21
15.61587299999992
 31
0.0
100
AcDbText
1001
AcDbBlockRepETag
1070
     1
1071
       47
1005
1C9
  0
TEXT
  5
1CA
330
70
100
AcDbEntity
  8
0
 62
     7
370
    30
390
83
100
AcDbText
 10
917.6146430725404
 20
15.61587299999992
 30
0.0
 40
12.0
  1
中国工業株式会社
 41
1.258928571428568
 72
     5
 11
1058.61464307254
 21
15.61587299999992
 31
0.0
100
AcDbText
1001
AcDbBlockRepETag
1070
     1
1071
       48
1005
1CA
  0
TEXT
  5
1CB
330
70
100
AcDbEntity
  8
0
 62
     7
370
    30
390
83
100
AcDbText
 10
917.9146430725399
 20
15.61587299999992
 30
0.0
 40
12.0
  1
中国工業株式会社
 41
1.25892857142857
 72
     5
 11
1058.91464307254
 21
15.61587299999992
 31
0.0
100
AcDbText
1001
AcDbBlockRepETag
1070
     1
1071
       49
1005
1CB
  0
TEXT
  5
1CC
330
70
100
AcDbEntity
  8
0
 62
     7
370
    30
390
83
100
AcDbText
 10
918.2146430725399
 20
15.61587299999992
 30
0.0
 40
12.0
  1
中国工業株式会社
 41
1.258928571428571
 72
     5
 11
1059.21464307254
 21
15.61587299999992
 31
0.0
100
AcDbText
1001
AcDbBlockRepETag
1070
     1
1071
       50
1005
1CC
  0
TEXT
  5
1CD
330
70
100
AcDbEntity
  8
0
 62
     7
370
    30
390
83
100
AcDbText
 10
915.5146430725402
 20
15.61587299999992
 30
0.0
 40
12.0
  1
中国工業株式会社
 41
1.258928571428568
 72
     5
 11
1056.51464307254
 21
15.61587299999992
 31
0.0
100
AcDbText
1001
AcDbBlockRepETag
1070
     1
1071
       51
1005
1CD
  0
HATCH
  5
1CE
330
70
100
AcDbEntity
  8
0
 62
     7
390
83
100
AcDbHatch
 10
0.0
 20
0.0
 30
0.0
210
0.0
220
0.0
230
1.0
  2
SOLID
 70
     1
 71
     0
 91
        1
 92
        1
 93
        4
 72
     2
 10
895.6176230725402
 20
21.74999999999991
 40
7.5
 50
28.68540200000056
 51
151.3145979999994
 73
     1
 72
     1
 10
889.0381100725402
 20
25.34999999999991
 11
885.7540550725401
 21
25.34999999999991
 72
     2
 10
895.6176230725402
 20
21.74999999999991
 40
10.5
 50
200.0510430000003
 51
339.9489569999997
 73
     0
 72
     1
 10
905.4811940725404
 20
25.34999999999991
 11
902.1971360725402
 21
25.34999999999991
 97
        0
 75
     0
 76
     1
 98
        1
 10
657.7661330725402
 20
-3.750000000000085
450
        0
451
        0
460
0.0
461
0.0
452
        0
462
0.0
453
        0
470

1001
ACAD
1010
0.0
1020
0.0
1030
0.0
1001
AcDbBlockRepETag
1070
     1
1071
      139
1005
1CE
  0
HATCH
  5
1CF
330
70
100
AcDbEntity
  8
0
 62
     7
390
83
100
AcDbHatch
 10
0.0
 20
0.0
 30
0.0
210
0.0
220
0.0
230
1.0
  2
SOLID
 70
     1
 71
     0
 91
        1
 92
        1
 93
        4
 72
     2
 10
895.6176230725402
 20
21.74999999999991
 40
7.5
 50
208.6854020000005
 51
331.3145979999994
 73
     1
 72
     1
 10
902.1971360725402
 20
18.14999999999991
 11
905.4811940725404
 21
18.14999999999991
 72
     2
 10
895.6176237393725
 20
21.74999904548508
 40
10.49999904632406
 50
20.05103935472679
 51
159.948961078768
 73
     0
 72
     1
 10
885.7540550725401
 20
18.14999999999991
 11
889.0381100725402
 21
18.14999999999991
 97
        0
 75
     0
 76
     1
 98
        1
 10
657.7661330725402
 20
-3.750000000000085
450
        0
451
        0
460
0.0
461
0.0
452
        0
462
0.0
453
        0
470

1001
ACAD
1010
0.0
1020
0.0
1030
0.0
1001
AcDbBlockRepETag
1070
     1
1071
      140
1005
1CF
  0
LINE
  5
1D0
330
70
100
AcDbEntity
  8
Line
 62
     7
370
     9
100
AcDbLine
 10
70.5
 20
75.74999999999983
 30
0.0
 11
320.5819672500001
 21
75.74999999999983
 31
0.0
  0
LINE
  5
1D1
330
70
100
AcDbEntity
  8
Line
 62
     7
370
     9
100
AcDbLine
 10
70.5
 20
96.74999999999982
 30
0.0
 11
320.5819672500001
 21
96.74999999999982
 31
0.0
  0
LINE
  5
1D2
330
70
100
AcDbEntity
  8
Line
 62
     7
370
     9
100
AcDbLine
 10
70.5
 20
117.7499999999998
 30
0.0
 11
320.5819672500001
 21
117.7499999999998
 31
0.0
  0
LINE
  5
1D3
330
70
100
AcDbEntity
  8
Line
 62
     7
370
     9
100
AcDbLine
 10
70.50000000000034
 20
138.7499999999995
 30
0.0
 11
320.5819672500004
 21
138.7499999999995
 31
0.0
  0
LINE
  5
1D4
330
70
100
AcDbEntity
  8
Line
 62
     7
370
     9
100
AcDbLine
 10
70.50000000000034
 20
159.7499999999999
 30
0.0
 11
320.5819672500004
 21
159.7499999999999
 31
0.0
  0
LINE
  5
1D5
330
70
100
AcDbEntity
  8
Line
 62
     7
370
     9
100
AcDbLine
 10
136.1557372500004
 20
182.4472717499994
 30
0.0
 11
254.9262292500005
 21
182.4472717499994
 31
0.0
  0
LINE
  5
1D6
330
70
100
AcDbEntity
  8
Line
 62
     7
370
     9
100
AcDbLine
 10
136.1557372500004
 20
185.4472717499994
 30
0.0
 11
254.9262292500005
 21
185.4472717499994
 31
0.0
  0
LINE
  5
1EB
330
70
100
AcDbEntity
  8
Line
 62
     7
370
     9
100
AcDbLine
 10
70.5
 20
54.7499999999999
 30
0.0
 11
320.5819672500001
 21
54.7499999999999
 31
0.0
  0
LINE
  5
27D
330
70
100
AcDbEntity
  8
0
  6
Continuous
 62
     4
370
    40
390
83
100
AcDbLine
 10
895.5
 20
84.74999999999992
 30
0.0
 11
1207.5
 21
84.74999999999992
 31
0.0
  0
LINE
  5
27E
330
70
100
AcDbEntity
  8
0
  6
Continuous
 62
     4
370
    40
390
83
100
AcDbLine
 10
895.5
 20
36.74999999999992
 30
0.0
 11
895.5
 21
84.74999999999992
 31
0.0
  0
TEXT
  5
27F
330
70
100
AcDbEntity
  8
0
 62
     4
370
    30
390
83
100
AcDbText
 10
899.6999999999998
 20
67.94999999999991
 30
0.0
 40
9.599999999999999
  1
名
 41
1.08372288357531
 72
     5
 11
908.7165743913464
 21
67.94999999999991
 31
0.0
100
AcDbText
1001
AcDbBlockRepETag
1070
     1
1071
       22
1005
27F
  0
TEXT
  5
280
330
70
100
AcDbEntity
  8
0
 62
     4
370
    30
390
83
100
AcDbText
 10
899.6999999999998
 20
43.9499999999999
 30
0.0
 40
9.599999999999999
  1
称
 41
1.071428571428586
 72
     5
 11
909.2999999999999
 21
43.9499999999999
 31
0.0
100
AcDbText
1001
AcDbBlockRepETag
1070
     1
1071
       23
1005
280
  0
LINE
  5
282
330
70
100
AcDbEntity
  8
0
  6
Continuous
 62
     4
370
     9
390
83
100
AcDbLine
 10
913.4999999999999
 20
36.74999999999992
 30
0.0
 11
913.4999999999999
 21
84.74999999999992
 31
0.0
  0
TEXT
  5
283
330
70
100
AcDbEntity
  8
Text
100
AcDbText
 10
1144.5
 20
18.74999999999992
 30
0.0
 40
12.0
  1
2022年6月
 72
     2
 11
1204.5
 21
18.74999999999992
 31
0.0
100
AcDbText
  0
TEXT
  5
2A1
330
70
100
AcDbEntity
  8
Text
100
AcDbText
 10
76.51734403677742
 20
325.3061834869905
 30
0.0
 40
12.0
  1
(E.F.V付)
100
AcDbText
  0
TEXT
  5
68D
330
70
100
AcDbEntity
  8
Text
 62
     7
100
AcDbText
 10
73.50000000000034
 20
78.74999999999983
 30
0.0
 40
12.0
  1
充填ガス
100
AcDbText
1001
ACAD
1000
ACAD_MTEXT_DEFINED_HEIGHT_BEGIN
1070
    46
1040
3.999999999999996
1000
ACAD_MTEXT_DEFINED_HEIGHT_END
  0
TEXT
  5
68E
330
70
100
AcDbEntity
  8
Text
 62
     7
100
AcDbText
 10
71.50000000000034
 20
99.74999999999985
 30
0.0
 40
12.0
  1
計算刻印質量
100
AcDbText
1001
ACAD
1000
ACAD_MTEXT_DEFINED_HEIGHT_BEGIN
1070
    46
1040
0.0
1000
ACAD_MTEXT_DEFINED_HEIGHT_END
  0
TEXT
  5
68F
330
70
100
AcDbEntity
  8
Text
 62
     7
100
AcDbText
 10
70.70000000000034
 20
120.7499999999998
 30
0.0
 40
12.0
  1
内容積
100
AcDbText
1001
ACAD
1000
ACAD_MTEXT_DEFINED_HEIGHT_BEGIN
1070
    46
1040
0.0
1000
ACAD_MTEXT_DEFINED_HEIGHT_END
  0
TEXT
  5
690
330
70
100
AcDbEntity
  8
Text
 62
     7
100
AcDbText
 10
71.50000000000068
 20
141.7499999999996
 30
0.0
 40
12.0
  1
耐圧試験圧力
100
AcDbText
1001
ACAD
1000
ACAD_MTEXT_DEFINED_HEIGHT_BEGIN
1070
    46
1040
3.644643982134056
1000
ACAD_MTEXT_DEFINED_HEIGHT_END
  0
TEXT
  5
691
330
70
100
AcDbEntity
  8
Text
 62
     7
100
AcDbText
 10
73.50000000000068
 20
162.7499999999999
 30
0.0
 40
12.0
  1
最高充填圧力
100
AcDbText
1001
ACAD
1000
ACAD_MTEXT_DEFINED_HEIGHT_BEGIN
1070
    46
1040
0.0
1000
ACAD_MTEXT_DEFINED_HEIGHT_END
  0
TEXT
  5
692
330
70
100
AcDbEntity
  8
Text
 62
     7
100
AcDbText
 10
154.7409832500005
 20
188.4472717499994
 30
0.0
 40
12.0
  1
要　　　　目
100
AcDbText
1001
ACAD
1000
ACAD_MTEXT_DEFINED_HEIGHT_BEGIN
1070
    46
1040
0.0
1000
ACAD_MTEXT_DEFINED_HEIGHT_END
  0
TEXT
  5
693
330
70
100
AcDbEntity
  8
Text
 62
     7
100
AcDbText
 10
266.6406454462684
 20
141.7499999999995
 30
0.0
 40
12.0
  1
MPa
100
AcDbText
  0
TEXT
  5
694
330
70
100
AcDbEntity
  8
Text
 62
     7
100
AcDbText
 10
266.6406454462684
 20
162.7499999999997
 30
0.0
 40
12.0
  1
MPa
100
AcDbText
  0
TEXT
  5
695
330
70
100
AcDbEntity
  8
Text
 62
     7
100
AcDbText
 10
266.640645446268
 20
99.74999999999972
 30
0.0
 40
12.0
  1
kg
100
AcDbText
1001
ACAD
1000
ACAD_MTEXT_DEFINED_HEIGHT_BEGIN
1070
    46
1040
0.0
1000
ACAD_MTEXT_DEFINED_HEIGHT_END
  0
TEXT
  5
696
330
70
100
AcDbEntity
  8
Text
 62
     7
100
AcDbText
 10
266.640645446268
 20
120.7499999999998
 30
0.0
 40
12.0
  1

100
AcDbText
1001
ACAD
1000
ACAD_MTEXT_DEFINED_HEIGHT_BEGIN
1070
    46
1040
0.0
1000
ACAD_MTEXT_DEFINED_HEIGHT_END
  0
TEXT
  5
697
330
70
100
AcDbEntity
  8
Text
 62
     7
100
AcDbText
 10
189.6432681769032
 20
162.7499999999997
 30
0.0
 40
12.0
  1
  1.74
100
AcDbText
1001
ACAD
1000
ACAD_MTEXT_DEFINED_HEIGHT_BEGIN
1070
    46
1040
0.0
1000
ACAD_MTEXT_DEFINED_HEIGHT_END
  0
TEXT
  5
698
330
70
100
AcDbEntity
  8
Text
 62
     7
100
AcDbText
 10
189.6432681769032
 20
141.7499999999995
 30
0.0
 40
12.0
  1
  2.9
100
AcDbText
1001
ACAD
1000
ACAD_MTEXT_DEFINED_HEIGHT_BEGIN
1070
    46
1040
3.999999999999991
1000
ACAD_MTEXT_DEFINED_HEIGHT_END
  0
TEXT
  5
699
330
70
100
AcDbEntity
  8
Text
 62
     7
100
AcDbText
 10
189.6432681769028
 20
120.7499999999998
 30
0.0
 40
12.0
  1
 35.5
100
AcDbText
1001
ACAD
1000
ACAD_MTEXT_DEFINED_HEIGHT_BEGIN
1070
    46
1040
0.0
1000
ACAD_MTEXT_DEFINED_HEIGHT_END
  0
TEXT
  5
69A
330
70
100
AcDbEntity
  8
Text
 62
     7
100
AcDbText
 10
175.0444845922338
 20
99.74999999999964
 30
0.0
 40
12.0
  1
約 14.5
100
AcDbText
1001
ACAD
1000
ACAD_MTEXT_DEFINED_HEIGHT_BEGIN
1070
    46
1040
0.0
1000
ACAD_MTEXT_DEFINED_HEIGHT_END
  0
TEXT
  5
69B
330
70
100
AcDbEntity
  8
Text
 62
     7
100
AcDbText
 10
234.1661922937657
 20
127.825769672623
 30
0.0
 40
9.0
  1
+1
100
AcDbText
1001
ACAD
1000
ACAD_MTEXT_DEFINED_HEIGHT_BEGIN
1070
    46
1040
0.0
1000
ACAD_MTEXT_DEFINED_HEIGHT_END
  0
TEXT
  5
69C
330
70
100
AcDbEntity
  8
Text
 62
     7
100
AcDbText
 10
234.1661922937657
 20
117.6955350737104
 30
0.0
 40
9.0
  1
-0
100
AcDbText
1001
ACAD
1000
ACAD_MTEXT_DEFINED_HEIGHT_BEGIN
1070
    46
1040
0.0
1000
ACAD_MTEXT_DEFINED_HEIGHT_END
  0
TEXT
  5
69D
330
70
100
AcDbEntity
  8
Text
 62
     7
100
AcDbText
 10
173.4417625480829
 20
78.98091426584612
 30
0.0
 40
12.0
  1
ＬＰガス
100
AcDbText
1001
ACAD
1000
ACAD_MTEXT_DEFINED_HEIGHT_BEGIN
1070
    46
1040
4.000000000000028
1000
ACAD_MTEXT_DEFINED_HEIGHT_END
  0
TEXT
  5
69E
330
70
100
AcDbEntity
  8
Text
 62
     7
100
AcDbText
 10
71.50000000000034
 20
57.74999999999983
 30
0.0
 40
12.0
  1
総質量
100
AcDbText
1001
ACAD
1000
ACAD_MTEXT_DEFINED_HEIGHT_BEGIN
1070
    46
1040
0.0
1000
ACAD_MTEXT_DEFINED_HEIGHT_END
  0
TEXT
  5
69F
330
70
100
AcDbEntity
  8
Text
 62
     7
100
AcDbText
 10
266.640645446268
 20
57.74999999999974
 30
0.0
 40
12.0
  1
kg
100
AcDbText
1001
ACAD
1000
ACAD_MTEXT_DEFINED_HEIGHT_BEGIN
1070
    46
1040
0.0
1000
ACAD_MTEXT_DEFINED_HEIGHT_END
  0
TEXT
  5
6A0
330
70
100
AcDbEntity
  8
Text
 62
     7
100
AcDbText
 10
175.0444845922338
 20
57.74999999999966
 30
0.0
 40
12.0
  1
約 17
100
AcDbText
1001
ACAD
1000
ACAD_MTEXT_DEFINED_HEIGHT_BEGIN
1070
    46
1040
0.0
1000
ACAD_MTEXT_DEFINED_HEIGHT_END
  0
LINE
  5
6A1
330
70
100
AcDbEntity
  8
Size
370
     9
100
AcDbLine
 10
289.9364380329684
 20
524.8432948412961
 30
0.0
 11
289.9391367195591
 21
524.8419844632267
 31
0.0
  0
LINE
  5
6A2
330
70
100
AcDbEntity
  8
Size
370
     9
100
AcDbLine
 10
252.149466170618
 20
543.1911902239196
 30
0.0
 11
224.7935944345345
 21
556.4741459088188
 31
0.0
  0
LINE
  5
6A3
330
70
100
AcDbEntity
  8
Size
370
     9
100
AcDbLine
 10
289.9337393463775
 20
524.8446052193656
 30
0.0
 11
252.1521648572087
 21
543.1898798458503
 31
0.0
  0
INSERT
  5
6A4
330
70
100
AcDbEntity
  8
Size
370
     9
100
AcDbBlockReference
  2
30a
 10
289.9337393463775
 20
524.8446052193656
 30
0.0
 41
0.003
 42
0.003
 43
0.003
 50
154.1005795158671
  0
INSERT
  5
6A5
330
70
100
AcDbEntity
  8
Size
370
     9
100
AcDbBlockReference
  2
30a
 10
252.1521648572087
 20
543.1898798458503
 30
0.0
 41
0.003
 42
0.003
 43
0.003
 50
334.1005795158671
  0
MTEXT
  5
6A6
102
{ACAD_XDICTIONARY
360
751
102
}
330
70
100
AcDbEntity
  8
Size
100
AcDbMText
 10
238.9156379552077
 20
558.3712850181651
 30
0.0
 40
12.0
 41
0.0
 71
     5
 72
     1
  1
φ42
 11
0.8995621969233607
 21
-0.436792689804233
 31
0.0
 73
     1
 44
1.0
  0
LINE
  5
6A7
330
70
100
AcDbEntity
  8
Size
370
     9
100
AcDbLine
 10
206.7899757514559
 20
452.1191959978773
 30
0.0
 11
206.7876006405096
 21
452.117363281862
 31
0.0
  0
LINE
  5
6A8
330
70
100
AcDbEntity
  8
Size
370
     9
100
AcDbLine
 10
235.296028709611
 20
474.1154315300727
 30
0.0
 11
259.3860216036308
 21
492.7040856114921
 31
0.0
  0
LINE
  5
6A9
330
70
100
AcDbEntity
  8
Size
370
     9
100
AcDbLine
 10
206.7923508624022
 20
452.1210287138926
 30
0.0
 11
235.2936535986648
 21
474.1135988140574
 31
0.0
  0
INSERT
  5
6AA
330
70
100
AcDbEntity
  8
Size
370
     9
100
AcDbBlockReference
  2
30a
 10
206.7923508624022
 20
452.1210287138926
 30
0.0
 41
0.003
 42
0.003
 43
0.003
 50
37.65499365372754
  0
INSERT
  5
6AB
330
70
100
AcDbEntity
  8
Size
370
     9
100
AcDbBlockReference
  2
30a
 10
235.2936535986648
 20
474.1135988140574
 30
0.0
 41
0.003
 42
0.003
 43
0.003
 50
217.6549936537276
  0
MTEXT
  5
6AC
330
70
100
AcDbEntity
  8
Size
100
AcDbMText
 10
245.1736612343462
 20
491.6842509515651
 30
0.0
 40
12.0
 41
0.0
 71
     5
 72
     1
  1
φ36
 11
0.7917036487650538
 21
0.6109053384380437
 31
0.0
 73
     1
 44
1.0
  0
LINE
  5
6AD
330
70
100
AcDbEntity
  8
Size
370
     9
100
AcDbLine
 10
293.902313934054
 20
450.9805072054931
 30
0.0
 11
293.8997654905728
 21
450.9789243486383
 31
0.0
  0
LINE
  5
6AE
330
70
100
AcDbEntity
  8
Size
370
     9
100
AcDbLine
 10
332.9835049622499
 20
475.2541203224576
 30
0.0
 11
359.0528721730259
 21
491.4459946545861
 31
0.0
  0
LINE
  5
6AF
330
70
100
AcDbEntity
  8
Size
370
     9
100
AcDbLine
 10
293.9048623775353
 20
450.9820900623481
 30
0.0
 11
332.9809565187686
 21
475.2525374656028
 31
0.0
  0
INSERT
  5
6B0
330
70
100
AcDbEntity
  8
Size
370
     9
100
AcDbBlockReference
  2
30a
 10
293.9048623775353
 20
450.9820900623481
 30
0.0
 41
0.003
 42
0.003
 43
0.003
 50
31.84471769949717
  0
INSERT
  5
6B1
330
70
100
AcDbEntity
  8
Size
370
     9
100
AcDbBlockReference
  2
30a
 10
332.9809565187686
 20
475.2525374656028
 30
0.0
 41
0.003
 42
0.003
 43
0.003
 50
211.8447176994972
  0
MTEXT
  5
6B2
330
70
100
AcDbEntity
  8
Size
100
AcDbMText
 10
344.8102841491541
 20
491.870183742456
 30
0.0
 40
12.0
 41
0.0
 71
     5
 72
     1
  1
φ46
 11
0.8494811604147175
 21
0.5276189516123026
 31
0.0
 73
     1
 44
1.0
  0
LINE
  5
6B3
330
70
100
AcDbEntity
  8
Size
370
     9
100
AcDbLine
 10
186.5450841688888
 20
463.1173137639753
 30
0.0
 11
93.66160635417932
 21
463.1173137639753
 31
0.0
  0
LINE
  5
6B4
330
70
100
AcDbEntity
  8
Size
370
     9
100
AcDbLine
 10
97.41160635417932
 20
463.1203137639753
 30
0.0
 11
97.41160635417932
 21
505.5142713639753
 31
0.0
  0
INSERT
  5
6B5
330
70
100
AcDbEntity
  8
Size
370
     9
100
AcDbBlockReference
  2
30a
 10
97.41160635417932
 20
463.1173137639753
 30
0.0
 41
0.003
 42
0.003
 43
0.003
 50
270.0
  0
INSERT
  5
6B6
330
70
100
AcDbEntity
  8
Size
370
     9
100
AcDbBlockReference
  2
30a
 10
97.41160635417932
 20
505.5172713639754
 30
0.0
 41
0.003
 42
0.003
 43
0.003
 50
90.0
  0
MTEXT
  5
6B7
330
70
100
AcDbEntity
  8
Size
100
AcDbMText
 10
89.53660635417939
 20
484.3172925639752
 30
0.0
 40
12.0
 41
0.0
 71
     5
 72
     1
  1
42.4
 11
0.0000000000000001
 21
1.0
 31
0.0
 73
     1
 44
1.0
  0
LINE
  5
6B8
330
70
100
AcDbEntity
  8
Size
370
     9
100
AcDbLine
 10
221.0430022305332
 20
431.312898850208
 30
0.0
 11
221.0430022305332
 21
303.4577899369676
 31
0.0
  0
LINE
  5
6B9
330
70
100
AcDbEntity
  8
Size
370
     9
100
AcDbLine
 10
271.0429522305332
 20
320.8066334281331
 30
0.0
 11
271.0429522305332
 21
303.4577899369676
 31
0.0
  0
LINE
  5
6BA
330
70
100
AcDbEntity
  8
Size
370
     9
100
AcDbLine
 10
221.0460022305332
 20
307.2077899369676
 30
0.0
 11
271.0399522305332
 21
307.2077899369676
 31
0.0
  0
INSERT
  5
6BB
330
70
100
AcDbEntity
  8
Size
370
     9
100
AcDbBlockReference
  2
30a
 10
221.0430022305332
 20
307.2077899369676
 30
0.0
 41
0.003
 42
0.003
 43
0.003
 50
180.0
  0
INSERT
  5
6BC
330
70
100
AcDbEntity
  8
Size
370
     9
100
AcDbBlockReference
  2
30a
 10
271.0429522305332
 20
307.2077899369676
 30
0.0
 41
0.003
 42
0.003
 43
0.003
  0
MTEXT
  5
6BD
330
70
100
AcDbEntity
  8
Size
100
AcDbMText
 10
246.0429772305332
 20
315.0827899369676
 30
0.0
 40
12.0
 41
0.0
 71
     5
 72
     1
  1
50
 73
     1
 44
1.0
  0
LINE
  5
6BE
330
70
100
AcDbEntity
  8
Size
370
     9
100
AcDbLine
 10
271.0429520236165
 20
320.8066338854453
 30
0.0
 11
271.0429520236165
 21
303.457789936968
 31
0.0
  0
LINE
  5
6BF
330
70
100
AcDbEntity
  8
Size
370
     9
100
AcDbLine
 10
313.4429096236165
 20
428.4152857579668
 30
0.0
 11
313.4429096236165
 21
303.457789936968
 31
0.0
  0
LINE
  5
6C0
330
70
100
AcDbEntity
  8
Size
370
     9
100
AcDbLine
 10
271.0459520236165
 20
307.207789936968
 30
0.0
 11
313.4399096236165
 21
307.207789936968
 31
0.0
  0
INSERT
  5
6C1
330
70
100
AcDbEntity
  8
Size
370
     9
100
AcDbBlockReference
  2
30a
 10
271.0429520236165
 20
307.207789936968
 30
0.0
 41
0.003
 42
0.003
 43
0.003
 50
180.0
  0
INSERT
  5
6C2
330
70
100
AcDbEntity
  8
Size
370
     9
100
AcDbBlockReference
  2
30a
 10
313.4429096236165
 20
307.207789936968
 30
0.0
 41
0.003
 42
0.003
 43
0.003
  0
MTEXT
  5
6C3
330
70
100
AcDbEntity
  8
Size
100
AcDbMText
 10
292.2429308236165
 20
315.082789936968
 30
0.0
 40
12.0
 41
0.0
 71
     5
 72
     1
  1
42.4
 73
     1
 44
1.0
  0
LINE
  5
6C4
330
70
100
AcDbEntity
  8
Size
370
     9
100
AcDbLine
 10
811.9900840748114
 20
345.5204318506432
 30
0.0
 11
811.9900840748114
 21
665.5141118506431
 31
0.0
  0
INSERT
  5
6C5
330
70
100
AcDbEntity
  8
Size
370
     9
100
AcDbBlockReference
  2
30a
 10
811.9900840748114
 20
345.5174318506433
 30
0.0
 41
0.003
 42
0.003
 43
0.003
 50
270.0
  0
INSERT
  5
6C6
330
70
100
AcDbEntity
  8
Size
370
     9
100
AcDbBlockReference
  2
30a
 10
811.9900840748114
 20
665.5171118506432
 30
0.0
 41
0.003
 42
0.003
 43
0.003
 50
90.0
  0
MTEXT
  5
6C7
330
70
100
AcDbEntity
  8
Size
100
AcDbMText
 10
804.1150840748112
 20
462.2150107303281
 30
0.0
 40
12.0
 41
0.0
 71
     5
 72
     1
  1
φ320
 11
0.0000000000000001
 21
1.0
 31
0.0
 73
     1
 44
1.0
  0
LINE
  5
6C8
330
70
100
AcDbEntity
  8
Size
370
     9
100
AcDbLine
 10
1123.537162053516
 20
360.5174151012775
 30
0.0
 11
1179.47215813364
 21
360.5174151012775
 31
0.0
  0
LINE
  5
6C9
330
70
100
AcDbEntity
  8
Size
370
     9
100
AcDbLine
 10
1123.537162053516
 20
650.5171251012774
 30
0.0
 11
1179.47215813364
 21
650.5171251012774
 31
0.0
  0
LINE
  5
6CA
330
70
100
AcDbEntity
  8
Size
370
     9
100
AcDbLine
 10
1175.72215813364
 20
360.5204151012775
 30
0.0
 11
1175.72215813364
 21
650.5141251012775
 31
0.0
  0
INSERT
  5
6CB
330
70
100
AcDbEntity
  8
Size
370
     9
100
AcDbBlockReference
  2
30a
 10
1175.72215813364
 20
360.5174151012775
 30
0.0
 41
0.003
 42
0.003
 43
0.003
 50
270.0
  0
INSERT
  5
6CC
330
70
100
AcDbEntity
  8
Size
370
     9
100
AcDbBlockReference
  2
30a
 10
1175.72215813364
 20
650.5171251012774
 30
0.0
 41
0.003
 42
0.003
 43
0.003
 50
90.0
  0
MTEXT
  5
6CD
330
70
100
AcDbEntity
  8
Size
100
AcDbMText
 10
1167.84715813364
 20
505.5172701012772
 30
0.0
 40
12.0
 41
0.0
 71
     5
 72
     1
  1
φ290
 11
0.0000000000000001
 21
1.0
 31
0.0
 73
     1
 44
1.0
  0
LINE
  5
6CE
330
70
100
AcDbEntity
  8
Size
370
     9
100
AcDbLine
 10
589.6626928326756
 20
507.3922711885098
 30
0.0
 11
589.6626928326756
 21
703.1148594122988
 31
0.0
  0
LINE
  5
6CF
330
70
100
AcDbEntity
  8
Size
370
     9
100
AcDbLine
 10
1132.662149832675
 20
641.3921371885098
 30
0.0
 11
1132.662149832675
 21
703.1148594122988
 31
0.0
  0
LINE
  5
6D0
330
70
100
AcDbEntity
  8
Size
370
     9
100
AcDbLine
 10
589.6656928326756
 20
699.3648594122991
 30
0.0
 11
1132.659149832675
 21
699.3648594122991
 31
0.0
  0
INSERT
  5
6D1
330
70
100
AcDbEntity
  8
Size
370
     9
100
AcDbBlockReference
  2
30a
 10
589.6626928326756
 20
699.3648594122991
 30
0.0
 41
0.003
 42
0.003
 43
0.003
 50
180.0
  0
INSERT
  5
6D2
330
70
100
AcDbEntity
  8
Size
370
     9
100
AcDbBlockReference
  2
30a
 10
1132.662149832675
 20
699.3648594122991
 30
0.0
 41
0.003
 42
0.003
 43
0.003
  0
MTEXT
  5
6D3
330
70
100
AcDbEntity
  8
Size
100
AcDbMText
 10
861.1624213326756
 20
707.2398594122988
 30
0.0
 40
12.0
 41
0.0
 71
     5
 72
     1
  1
543
 73
     1
 44
1.0
  0
LINE
  5
6D4
330
70
100
AcDbEntity
  8
Size
370
     9
100
AcDbLine
 10
489.9623915698343
 20
623.7421543570146
 30
0.0
 11
489.9623915698343
 21
721.1148589294857
 31
0.0
  0
LINE
  5
6D5
330
70
100
AcDbEntity
  8
Size
370
     9
100
AcDbLine
 10
1132.662150245269
 20
641.3921367070147
 30
0.0
 11
1132.662150245269
 21
721.1148589294857
 31
0.0
  0
LINE
  5
6D6
330
70
100
AcDbEntity
  8
Size
370
     9
100
AcDbLine
 10
489.9653915698343
 20
717.3648589294857
 30
0.0
 11
1132.659150245268
 21
717.3648589294857
 31
0.0
  0
INSERT
  5
6D7
330
70
100
AcDbEntity
  8
Size
370
     9
100
AcDbBlockReference
  2
30a
 10
489.9623915698343
 20
717.3648589294857
 30
0.0
 41
0.003
 42
0.003
 43
0.003
 50
180.0
  0
INSERT
  5
6D8
330
70
100
AcDbEntity
  8
Size
370
     9
100
AcDbBlockReference
  2
30a
 10
1132.662150245269
 20
717.3648589294857
 30
0.0
 41
0.003
 42
0.003
 43
0.003
  0
MTEXT
  5
6D9
330
70
100
AcDbEntity
  8
Size
100
AcDbMText
 10
811.3122709075517
 20
725.2398589294857
 30
0.0
 40
12.0
 41
0.0
 71
     5
 72
     1
  1
約643
 73
     1
 44
1.0
  0
TEXT
  5
6DA
330
70
100
AcDbEntity
  8
Text
 62
     2
100
AcDbText
 10
977.2999999999999
 20
66.7499999999999
 30
0.0
 40
12.0
  1
１５ｋｇ型 ＬＰガス容器
100
AcDbText
1001
ACAD
1000
ACAD_MTEXT_DEFINED_HEIGHT_BEGIN
1070
    46
1040
8.0
1000
ACAD_MTEXT_DEFINED_HEIGHT_END
  0
LINE
  5
6DB
330
70
100
AcDbEntity
  8
Size
370
     9
100
AcDbLine
 10
589.2043964902183
 20
534.017242587506
 30
0.0
 11
541.4640537388224
 21
534.017242587506
 31
0.0
  0
LINE
  5
6DC
330
70
100
AcDbEntity
  8
Size
370
     9
100
AcDbLine
 10
545.2140537388223
 20
505.5202711885099
 30
0.0
 11
545.2140537388223
 21
534.014242587506
 31
0.0
  0
MTEXT
  5
6DD
330
70
100
AcDbEntity
  8
Size
100
AcDbMText
 10
537.3390537388197
 20
527.8055855050454
 30
0.0
 40
12.0
 41
0.0
 71
     5
 72
     1
  1
28.5
 11
0.0000000000000001
 21
1.0
 31
0.0
 73
     1
 44
1.0
  0
INSERT
  5
6DE
330
70
100
AcDbEntity
  8
Size
370
     9
100
AcDbBlockReference
  2
30a
 10
545.2140537388223
 20
505.5172711885099
 30
0.0
 41
0.003
 42
0.003
 43
0.003
 50
270.0
  0
INSERT
  5
6DF
330
70
100
AcDbEntity
  8
Size
370
     9
100
AcDbBlockReference
  2
30a
 10
545.2140537388223
 20
534.017242587506
 30
0.0
 41
0.003
 42
0.003
 43
0.003
 50
90.0
  0
LINE
  5
6E0
330
70
100
AcDbEntity
  8
Size
370
     9
100
AcDbLine
 10
496.7373828840388
 20
380.5173967227378
 30
0.0
 11
460.7514175610503
 21
380.5173967227378
 31
0.0
  0
LINE
  5
6E1
330
70
100
AcDbEntity
  8
Size
370
     9
100
AcDbLine
 10
496.737382884038
 20
630.5171456881545
 30
0.0
 11
460.7514175610503
 21
630.5171456881545
 31
0.0
  0
LINE
  5
6E2
330
70
100
AcDbEntity
  8
Size
370
     9
100
AcDbLine
 10
464.5014175610503
 20
380.5203967227378
 30
0.0
 11
464.5014175610501
 21
630.5141456881544
 31
0.0
  0
INSERT
  5
6E3
330
70
100
AcDbEntity
  8
Size
370
     9
100
AcDbBlockReference
  2
30a
 10
464.5014175610503
 20
380.5173967227378
 30
0.0
 41
0.003
 42
0.003
 43
0.003
 50
270.0
  0
INSERT
  5
6E4
330
70
100
AcDbEntity
  8
Size
370
     9
100
AcDbBlockReference
  2
30a
 10
464.5014175610501
 20
630.5171456881545
 30
0.0
 41
0.003
 42
0.003
 43
0.003
 50
90.0
  0
MTEXT
  5
6E5
330
70
100
AcDbEntity
  8
Size
100
AcDbMText
 10
456.6264175610503
 20
503.1900390275176
 30
0.0
 40
12.0
 41
0.0
 71
     5
 72
     1
  1
φ250
 11
0.0000000000000001
 21
1.0
 31
0.0
 73
     1
 44
1.0
  0
TEXT
  5
6E6
330
70
100
AcDbEntity
  8
Text
 62
     2
100
AcDbText
 10
982.0999999999999
 20
42.74999999999992
 30
0.0
 40
12.0
  1
(構内フォークリフト用)
100
AcDbText
1001
ACAD
1000
ACAD_MTEXT_DEFINED_HEIGHT_BEGIN
1070
    46
1040
8.0
1000
ACAD_MTEXT_DEFINED_HEIGHT_END
  0
INSERT
  5
6E7
330
70
100
AcDbEntity
  8
Size
100
AcDbBlockReference
  2
30a
 10
284.3222804502375
 20
550.2855722601323
 30
0.0
 41
0.001
 42
0.001
 43
0.001
 50
229.689336760322
1001
ACAD
1000
DSTYLE
1002
{
1070
    40
1040
1.0
1070
   147
1040
0.625
1070
    77
1070
     1
1002
}
  0
LWPOLYLINE
  5
6E8
330
70
100
AcDbEntity
  8
Size
100
AcDbPolyline
 90
        3
 70
     0
 43
0.0
 10
284.322927381945
 20
550.2863348080754
 10
388.0050252321964
 20
672.49795245088
 10
443.0310252321963
 20
672.49795245088
1001
ACAD
1000
DSTYLE
1002
{
1070
    40
1040
1.0
1070
   147
1040
0.625
1070
    77
1070
     1
1002
}
  0
TEXT
  5
6E9
330
70
100
AcDbEntity
  8
Size
100
AcDbText
 10
388.6310252321964
 20
673.1229524508798
 30
0.0
 40
12.0
  1
プラグ付
100
AcDbText
  0
INSERT
  5
6EA
330
70
100
AcDbEntity
  8
Size
100
AcDbBlockReference
  2
30a
 10
328.509104397682
 20
445.7389160425247
 30
0.0
 41
0.001
 42
0.001
 43
0.001
 50
119.2151435714194
1001
ACAD
1000
DSTYLE
1002
{
1070
    40
1040
1.0
1070
   147
1040
0.625
1070
    77
1070
     1
1002
}
  0
LWPOLYLINE
  5
6EB
330
70
100
AcDbEntity
  8
Size
100
AcDbPolyline
 90
        3
 70
     0
 43
0.0
 10
328.5095924880419
 20
445.7380432494217
 10
389.0665855708141
 20
337.4512786716931
 10
458.5311682479793
 20
337.4512786716931
1001
ACAD
1000
DSTYLE
1002
{
1070
    40
1040
1.0
1070
   147
1040
0.625
1070
    77
1070
     1
1002
}
  0
TEXT
  5
6EC
330
70
100
AcDbEntity
  8
Size
100
AcDbText
 10
389.6925855708141
 20
338.0762786716931
 30
0.0
 40
12.0
  1
充填バルブ
100
AcDbText
  0
INSERT
  5
6ED
330
70
100
AcDbEntity
  8
Size
100
AcDbBlockReference
  2
30a
 10
213.4141920957194
 20
446.8139213180566
 30
0.0
 41
0.001
 42
0.001
 43
0.001
 50
63.07162779103417
1001
ACAD
1000
DSTYLE
1002
{
1070
    40
1040
1.0
1070
   147
1040
0.625
1070
    77
1070
     1
1002
}
  0
LWPOLYLINE
  5
6EE
330
70
100
AcDbEntity
  8
Size
100
AcDbPolyline
 90
        3
 70
     0
 43
0.0
 10
213.4137392194577
 20
446.8130297446768
 10
160.507389049812
 20
342.6567790701815
 10
76.64280637264667
 20
342.6567790701815
1001
ACAD
1000
DSTYLE
1002
{
1070
    40
1040
1.0
1070
   147
1040
0.625
1070
    77
1070
     1
1002
}
  0
TEXT
  5
6EF
330
70
100
AcDbEntity
  8
Size
100
AcDbText
 10
76.64280637264667
 20
343.2817790701815
 30
0.0
 40
12.0
  1
液取出バルブ
100
AcDbText
  0
VIEWPORT
  5
666
102
{ACAD_XDICTIONARY
360
667
102
}
330
6C
100
AcDbEntity
 67
     1
  8
0
100
AcDbViewport
 10
148.5
 20
105.0
 30
0.0
 40
361.8936435868331
 41
222.18
 68
     1
 69
     1
 12
148.5
 22
105.0
 13
0.0
 23
0.0
 14
10.0
 24
10.0
 15
10.0
 25
10.0
 16
0.0
 26
0.0
 36
1.0
 17
0.0
 27
0.0
 37
0.0
 42
50.0
 43
0.0
 44
0.0
 45
222.18
 50
0.0
 51
0.0
 72
  1000
 90
   819232
  1

281
     0
 71
     1
 74
     0
110
0.0
120
0.0
130
0.0
111
1.0
121
0.0
131
0.0
112
0.0
122
1.0
132
0.0
 79
     0
146
0.0
170
     0
  0
ENDSEC
  0
SECTION
  2
OBJECTS
  0
DICTIONARY
  5
C
330
0
100
AcDbDictionary
281
     1
  3
ACAD_2007HEADERVARS_RT
350
75E
  3
ACAD_CIP_PREVIOUS_PRODUCT_INFO
350
4E5
  3
ACAD_COLOR
350
63
  3
ACAD_DETAILVIEWSTYLE
350
6A
  3
ACAD_GROUP
350
D
  3
ACAD_LAST_SAVED_VERSION_INFO
350
4D1
  3
ACAD_LAYOUT
350
62
  3
ACAD_MATERIAL
350
10
  3
ACAD_MLEADERSTYLE
350
66
  3
ACAD_MLINESTYLE
350
5F
  3
ACAD_PLOTSETTINGS
350
61
  3
ACAD_PLOTSTYLENAME
350
E
  3
ACAD_SCALELIST
350
42
  3
ACAD_SECTIONVIEWSTYLE
350
68
  3
ACAD_TABLESTYLE
350
64
  3
ACAD_VISUALSTYLE
350
29
  3
ACDB_RECOMPOSE_DATA
350
75D
  3
AcDbVariableDictionary
350
4D2
  0
DICTIONARY
  5
653
330
2
100
AcDbDictionary
280
     1
281
     1
  3
ACAD_LAYERSTATES
360
654
  0
DICTIONARY
  5
6F3
330
54
100
AcDbDictionary
280
     1
281
     1
  3
ADSK_XREC_LAYER_RECONCILED
360
6F4
  0
DICTIONARY
  5
97
330
96
100
AcDbDictionary
280
     1
281
     1
  3
ADSK_XREC_LAYER_RECONCILED
360
98
  0
DICTIONARY
  5
9E
330
9D
100
AcDbDictionary
280
     1
281
     1
  3
ADSK_XREC_LAYER_RECONCILED
360
9F
  0
DICTIONARY
  5
D1
330
D0
100
AcDbDictionary
280
     1
281
     1
  3
ADSK_XREC_LAYER_RECONCILED
360
D2
  0
DICTIONARY
  5
E1
330
E0
100
AcDbDictionary
280
     1
281
     1
  3
ADSK_XREC_LAYER_RECONCILED
360
E2
  0
DICTIONARY
  5
1D9
330
1D8
100
AcDbDictionary
280
     1
281
     1
  3
ADSK_XREC_LAYER_RECONCILED
360
1DA
  0
DICTIONARY
  5
1F3
330
1F2
100
AcDbDictionary
280
     1
281
     1
  3
ADSK_XREC_LAYER_RECONCILED
360
1F4
  0
DICTIONARY
  5
ED
330
70
100
AcDbDictionary
280
     1
281
     1
  3
ACAD_SORTENTS
360
46B
  0
DICTIONARY
  5
80
330
7F
100
AcDbDictionary
280
     1
281
     1
  3
ACAD_SORTENTS
360
46A
  0
DICTIONARY
  5
74D
330
5D7
100
AcDbDictionary
280
     1
281
     1
  3
ACAD_MTEXT_2008_RT
360
79E
  0
DICTIONARY
  5
74F
330
5DF
100
AcDbDictionary
280
     1
281
     1
  3
ACAD_MTEXT_2008_RT
360
79F
  0
DICTIONARY
  5
74B
330
5CF
100
AcDbDictionary
280
     1
281
     1
  3
ACAD_MTEXT_2008_RT
360
79D
  0
DICTIONARY
  5
751
330
6A6
100
AcDbDictionary
280
     1
281
     1
  0
DICTIONARY
  5
667
330
666
100
AcDbDictionary
280
     1
281
     1
  3
ASDK_XREC_ANNOTATION_SCALE_INFO
360
668
  0
DICTIONARY
  5
75E
102
{ACAD_REACTORS
330
C
102
}
330
C
100
AcDbDictionary
281
     1
  3
DIMARCSYM
350
760
  3
DIMFXL
350
75F
  3
DIMJOGANG
350
761
  0
XRECORD
  5
4E5
102
{ACAD_REACTORS
330
C
102
}
330
C
100
AcDbXrecord
280
     1
300
ACD
300
2026
300

  0
DICTIONARY
  5
63
102
{ACAD_REACTORS
330
C
102
}
330
C
100
AcDbDictionary
281
     1
  0
DICTIONARY
  5
6A
102
{ACAD_REACTORS
330
C
102
}
330
C
100
AcDbDictionary
281
     1
  3
Imperial24
350
6B
  3
Metric50
350
4DF
  0
DICTIONARY
  5
D
102
{ACAD_REACTORS
330
C
102
}
330
C
100
AcDbDictionary
281
     1
  0
XRECORD
  5
4D1
102
{ACAD_REACTORS
330
C
102
}
330
C
100
AcDbXrecord
280
     1
300
{82607816-F31C-2941-881A-DA900EBEAAB4}
301
{42A4A2DE-818C-3649-9F08-09CC6C03EC4C}
302
{82607816-F31C-2941-881A-DA900EBEAAB4}
303
C:\Users\CKK004820\Desktop\HP掲載図_15ｋフォーク用容器_HP用.dxf
  0
DICTIONARY
  5
62
102
{ACAD_REACTORS
330
C
102
}
330
C
100
AcDbDictionary
281
     1
  3
Model
350
73
  3
レイアウト1
350
6F
  0
DICTIONARY
  5
10
102
{ACAD_REACTORS
330
C
102
}
330
C
100
AcDbDictionary
281
     1
  3
ByBlock
350
19
  3
ByLayer
350
11
  3
Global
350
21
  0
DICTIONARY
  5
66
102
{ACAD_REACTORS
330
C
102
}
330
C
100
AcDbDictionary
281
     1
  3
Standard
350
67
  0
DICTIONARY
  5
5F
102
{ACAD_REACTORS
330
C
102
}
330
C
100
AcDbDictionary
281
     1
  3
Standard
350
60
  0
DICTIONARY
  5
61
102
{ACAD_REACTORS
330
C
102
}
330
C
100
AcDbDictionary
281
     1
  0
ACDBDICTIONARYWDFLT
  5
E
102
{ACAD_REACTORS
330
C
102
}
330
C
100
AcDbDictionary
281
     1
  3
Normal
350
F
  3
Style_1
350
83
100
AcDbDictionaryWithDefault
340
F
  0
DICTIONARY
  5
42
102
{ACAD_REACTORS
330
C
102
}
330
C
100
AcDbDictionary
281
     1
  3
A0
350
43
  3
A1
350
44
  3
A2
350
45
  3
A3
350
46
  3
A4
350
47
  3
A5
350
48
  3
A6
350
49
  3
A7
350
4A
  3
A8
350
4B
  3
A9
350
4C
  3
B0
350
4D
  3
B1
350
4E
  3
B2
350
4F
  3
B3
350
50
  3
B4
350
51
  3
B5
350
52
  3
B6
350
53
  0
DICTIONARY
  5
68
102
{ACAD_REACTORS
330
C
102
}
330
C
100
AcDbDictionary
281
     1
  3
Imperial24
350
69
  3
Metric50
350
4DE
  0
DICTIONARY
  5
64
102
{ACAD_REACTORS
330
C
102
}
330
C
100
AcDbDictionary
281
     1
  3
Standard
350
65
  0
DICTIONARY
  5
29
102
{ACAD_REACTORS
330
C
102
}
330
C
100
AcDbDictionary
281
     1
  3
2dWireframe
350
2F
  3
Basic
350
2E
  3
Brighten
350
35
  3
ColorChange
350
39
  3
Conceptual
350
32
  3
Dim
350
34
  3
EdgeColorOff
350
41
  3
Facepattern
350
38
  3
Flat
350
2A
  3
FlatWithEdges
350
2B
  3
Gouraud
350
2C
  3
GouraudWithEdges
350
2D
  3
Hidden
350
31
  3
JitterOff
350
3F
  3
Linepattern
350
37
  3
OverhangOff
350
40
  3
Realistic
350
33
  3
Shaded
350
3E
  3
Shaded with edges
350
3D
  3
Shades of Gray
350
3A
  3
Sketchy
350
3B
  3
Thicken
350
36
  3
Wireframe
350
30
  3
X-Ray
350
3C
  0
XRECORD
  5
75D
102
{ACAD_REACTORS
330
C
102
}
330
C
100
AcDbXrecord
280
     1
 90
        1
330
65
  0
DICTIONARY
  5
4D2
102
{ACAD_REACTORS
330
C
102
}
330
C
100
AcDbDictionary
281
     1
  3
ANNOALLVISIBLE
350
4D8
  3
CANNOSCALE
350
4D9
  3
CMLEADERSTYLE
350
4D4
  3
CTABLESTYLE
350
4D3
  3
CVIEWDETAILSTYLE
350
4D5
  3
CVIEWSECTIONSTYLE
350
4D6
  3
LAYEREVAL
350
4DB
  3
LAYERNOTIFY
350
4DC
  3
LIGHTINGUNITS
350
4DA
  3
MSLTSCALE
350
4D7
  0
DICTIONARY
  5
654
102
{ACAD_REACTORS
330
653
102
}
330
653
100
AcDbDictionary
281
     1
  0
XRECORD
  5
6F4
102
{ACAD_REACTORS
330
6F3
102
}
330
6F3
100
AcDbXrecord
280
     1
290
     1
  0
XRECORD
  5
98
102
{ACAD_REACTORS
330
97
102
}
330
97
100
AcDbXrecord
280
     1
290
     1
  0
XRECORD
  5
9F
102
{ACAD_REACTORS
330
9E
102
}
330
9E
100
AcDbXrecord
280
     1
290
     1
  0
XRECORD
  5
D2
102
{ACAD_REACTORS
330
D1
102
}
330
D1
100
AcDbXrecord
280
     1
290
     1
  0
XRECORD
  5
E2
102
{ACAD_REACTORS
330
E1
102
}
330
E1
100
AcDbXrecord
280
     1
290
     1
  0
XRECORD
  5
1DA
102
{ACAD_REACTORS
330
1D9
102
}
330
1D9
100
AcDbXrecord
280
     1
290
     1
  0
XRECORD
  5
1F4
102
{ACAD_REACTORS
330
1F3
102
}
330
1F3
100
AcDbXrecord
280
     1
290
     1
  0
SORTENTSTABLE
  5
46B
102
{ACAD_REACTORS
330
ED
102
}
330
ED
100
AcDbSortentsTable
330
70
331
9B
  5
A0
331
9C
  5
A1
331
A0
  5
A2
331
A1
  5
A3
331
A2
  5
A4
331
A3
  5
A5
331
A4
  5
A6
331
A5
  5
A7
331
A6
  5
A8
331
A7
  5
A9
331
A8
  5
AA
331
A9
  5
AB
331
AA
  5
AC
331
AB
  5
AD
331
AC
  5
AE
331
AD
  5
AF
331
AE
  5
B0
331
AF
  5
B1
331
B0
  5
B2
331
B1
  5
B3
331
B2
  5
B4
331
B3
  5
B5
331
B4
  5
B6
331
B5
  5
B7
331
B6
  5
B8
331
B7
  5
B9
331
B8
  5
BA
331
B9
  5
BB
331
BA
  5
BC
331
BB
  5
BD
331
BC
  5
BE
331
BD
  5
BF
331
BE
  5
C0
331
BF
  5
C1
331
C0
  5
C2
331
C1
  5
C3
331
C2
  5
C4
331
C3
  5
C5
331
C4
  5
C6
331
C5
  5
C7
331
C6
  5
C8
331
C7
  5
C9
331
C8
  5
CA
331
C9
  5
CB
331
CA
  5
CC
331
CB
  5
CD
331
CC
  5
CE
331
CD
  5
CF
331
CE
  5
D3
331
CF
  5
D4
331
D3
  5
D5
331
D4
  5
D6
331
D5
  5
D7
331
D6
  5
D8
331
D7
  5
D9
331
D8
  5
DA
331
D9
  5
DB
331
DA
  5
DC
331
DB
  5
DD
331
DC
  5
DE
331
DD
  5
DF
331
DE
  5
E3
331
DF
  5
E4
331
E3
  5
E5
331
E4
  5
E6
331
E5
  5
E7
331
E6
  5
E8
331
E7
  5
E9
331
E8
  5
EA
331
1B0
  5
6D2
331
1B1
  5
6D3
331
1B2
  5
6D4
331
1B3
  5
6D5
331
1B4
  5
6D6
331
1B5
  5
6D7
331
1B6
  5
6D8
331
1B7
  5
6D9
331
1B8
  5
6DA
331
1B9
  5
6DB
331
1BA
  5
6DC
331
1BB
  5
6DD
331
1BC
  5
6DE
331
1BD
  5
6DF
331
1BE
  5
6E0
331
1BF
  5
6E1
331
1C0
  5
6E2
331
1C1
  5
6E3
331
1C2
  5
6E4
331
1C3
  5
6E5
331
1C4
  5
6E6
331
1C5
  5
6E7
331
1C6
  5
6E8
331
1C7
  5
6E9
331
1C8
  5
6EA
331
1C9
  5
6EB
331
1CA
  5
6EC
331
1CB
  5
6ED
331
1CC
  5
6EE
331
1CD
  5
6EF
331
1CE
  5
2AE
331
1CF
  5
2AF
331
1D0
  5
1B0
331
1D1
  5
1B1
331
1D2
  5
1B2
331
1D3
  5
1B3
331
1D4
  5
1B4
331
1D5
  5
1B5
331
1D6
  5
1B6
331
1EB
  5
256
331
27D
  5
6B5
331
27E
  5
6B6
331
27F
  5
6B7
331
280
  5
6B8
331
282
  5
6BA
331
283
  5
6BB
331
2A1
  5
6C8
331
68D
  5
1C8
331
68E
  5
1D6
331
68F
  5
1D7
331
690
  5
1DB
331
691
  5
1DC
331
692
  5
1DE
331
693
  5
1DF
331
694
  5
1E4
331
695
  5
1ED
331
696
  5
1EE
331
697
  5
1EF
331
698
  5
203
331
699
  5
211
331
69A
  5
21F
331
69B
  5
22D
331
69C
  5
23C
331
69D
  5
24B
331
69E
  5
263
331
69F
  5
270
331
6A0
  5
27D
331
6A1
  5
27E
331
6A2
  5
27F
331
6A3
  5
280
331
6A4
  5
281
331
6A5
  5
282
331
6A6
  5
283
331
6A7
  5
284
331
6A8
  5
290
331
6A9
  5
29F
331
6AA
  5
2A0
331
6AB
  5
2A1
331
6AC
  5
2A2
331
6AD
  5
2A5
331
6AE
  5
2A6
331
6AF
  5
2A9
331
6B0
  5
2AA
331
6B1
  5
2AD
331
6B2
  5
68D
331
6B3
  5
68E
331
6B4
  5
68F
331
6B5
  5
690
331
6B6
  5
691
331
6B7
  5
692
331
6B8
  5
693
331
6B9
  5
694
331
6BA
  5
695
331
6BB
  5
696
331
6BC
  5
697
331
6BD
  5
698
331
6BE
  5
699
331
6BF
  5
69A
331
6C0
  5
69B
331
6C1
  5
69C
331
6C2
  5
69D
331
6C3
  5
69E
331
6C4
  5
69F
331
6C5
  5
6A0
331
6C6
  5
6A1
331
6C7
  5
6A2
331
6C8
  5
6A3
331
6C9
  5
6A4
331
6CA
  5
6A5
331
6CB
  5
6A6
331
6CC
  5
6A7
331
6CD
  5
6A8
331
6CE
  5
6A9
331
6CF
  5
6AA
331
6D0
  5
6AB
331
6D1
  5
6AC
331
6D2
  5
6AD
331
6D3
  5
6AE
331
6D4
  5
6AF
331
6D5
  5
6B0
331
6D6
  5
6B1
331
6D7
  5
6B2
331
6D8
  5
6B3
331
6D9
  5
6B4
331
6DA
  5
6B9
331
6DB
  5
6BC
331
6DC
  5
6BD
331
6DD
  5
6BE
331
6DE
  5
6BF
331
6DF
  5
6C0
331
6E0
  5
6C1
331
6E1
  5
6C2
331
6E2
  5
6C3
331
6E3
  5
6C4
331
6E4
  5
6C5
331
6E5
  5
6C6
331
6E6
  5
6C7
331
6E7
  5
6C9
331
6E8
  5
6CA
331
6E9
  5
6CB
331
6EA
  5
6CC
331
6EB
  5
6CD
331
6EC
  5
6CE
331
6ED
  5
6CF
331
6EE
  5
6D0
331
6EF
  5
6D1
  0
SORTENTSTABLE
  5
46A
102
{ACAD_REACTORS
330
80
102
}
330
80
100
AcDbSortentsTable
330
7F
  0
XRECORD
  5
79E
102
{ACAD_REACTORS
330
74D
102
}
330
74D
100
AcDbXrecord
280
     1
 40
2366.0
  1
\U+220542
  0
XRECORD
  5
79F
102
{ACAD_REACTORS
330
74F
102
}
330
74F
100
AcDbXrecord
280
     1
 40
2394.0
  1
\U+220536
  0
XRECORD
  5
79D
102
{ACAD_REACTORS
330
74B
102
}
330
74B
100
AcDbXrecord
280
     1
 40
2402.0
  1
\U+220546
  0
XRECORD
  5
668
102
{ACAD_REACTORS
330
667
102
}
330
667
100
AcDbXrecord
280
     1
 90
        1
340
43
  0
XRECORD
  5
760
102
{ACAD_REACTORS
330
75E
102
}
330
75E
100
AcDbXrecord
280
     1
 70
     1
  0
XRECORD
  5
75F
102
{ACAD_REACTORS
330
75E
102
}
330
75E
100
AcDbXrecord
280
     1
 40
1.25
  0
XRECORD
  5
761
102
{ACAD_REACTORS
330
75E
102
}
330
75E
100
AcDbXrecord
280
     1
 40
1.570796326794896
  0
ACDBDETAILVIEWSTYLE
  5
6B
102
{ACAD_XDICTIONARY
360
797
102
}
102
{ACAD_REACTORS
330
6A
102
}
330
6A
100
AcDbModelDocViewStyle
 70
     0
  3
Imperial24
290
     0
100
AcDbDetailViewStyle
 70
     0
 71
     0
 90
        3
 71
     1
340
55
 62
   256
 40
0.24
340
0
 62
   256
 40
0.24
300

 40
0.36
280
     3
 71
     2
340
5D
 90
       25
 62
   256
 71
     3
340
55
 62
   256
 40
0.24
 90
        1
 40
0.75
 90
        1
300
%<\AcVar ViewType \f "%tc1">% %<\AcVar ViewDetailId>%\PSCALE %<\AcVar ViewScale \f "%sn">%
 71
     4
340
5D
 90
       25
 62
   256
340
5D
 90
       25
 62
   256
280
     0
  0
ACDBDETAILVIEWSTYLE
  5
4DF
102
{ACAD_XDICTIONARY
360
79B
102
}
102
{ACAD_REACTORS
330
6A
102
}
330
6A
100
AcDbModelDocViewStyle
 70
     0
  3
Metric50
290
     0
100
AcDbDetailViewStyle
 70
     0
 71
     0
 90
        3
 71
     1
340
55
 62
   256
 40
5.0
340
0
 62
   256
 40
5.0
300

 40
0.0
280
     1
 71
     2
340
5D
 90
       25
 62
   256
 71
     3
340
55
 62
   256
 40
5.0
 90
        0
 40
15.0
 90
        1
300
%<\AcVar ViewDetailId>% (%<\AcVar ViewScale \f "%sn">%)
 71
     4
340
5D
 90
       25
 62
   256
340
5D
 90
       25
 62
   256
280
     0
  0
LAYOUT
  5
73
102
{ACAD_REACTORS
330
62
102
}
330
62
100
AcDbPlotSettings
  1

  2
FF W001 for DocuWide 3037
  4
psk:ISOA3
  6

 40
0.0
 41
0.0
 42
0.0
 43
0.0
 44
297.0
 45
420.0
 46
0.0
 47
0.0
 48
0.0
 49
0.0
140
0.0
141
0.0
142
1.0
143
1.15965160160353
 70
 11952
 72
     1
 73
     1
 74
     0
  7
印刷_1.stb
 75
     0
147
0.8623279600676882
 76
     0
 77
     2
 78
   300
148
33.5268365116315
149
1.010204252596849
100
AcDbLayout
  1
Model
 70
     1
 71
     0
 10
0.0
 20
0.0
 11
12.0
 21
9.0
 12
0.0
 22
0.0
 32
0.0
 14
0.0
 24
0.0
 34
0.0
 15
0.0
 25
0.0
 35
0.0
146
0.0
 13
0.0
 23
0.0
 33
0.0
 16
1.0
 26
0.0
 36
0.0
 17
0.0
 27
1.0
 37
0.0
 76
     0
330
70
331
57
1001
ACAD_PSEXT
1000
FF W001 for DocuWide 3037
1000
FF W001 for DocuWide 3037
1000
192.168.5.100:plt00t
1000

1070
     0
  0
LAYOUT
  5
6F
102
{ACAD_REACTORS
330
62
102
}
330
62
100
AcDbPlotSettings
  1

  2
FF W001 for DocuWide 3037
  4
psk:ISOA4
  6

 40
0.0
 41
0.0
 42
0.0
 43
0.0
 44
210.0
 45
297.0
 46
0.0
 47
0.0
 48
0.0
 49
0.0
140
0.0
141
0.0
142
1.0
143
1.0
 70
   688
 72
     1
 73
     1
 74
     5
  7

 75
    16
147
1.0
 76
     0
 77
     2
 78
   300
148
0.0
149
0.0
100
AcDbLayout
  1
レイアウト1
 70
     1
 71
     1
 10
0.0
 20
0.0
 11
297.0
 21
210.0
 12
0.0
 22
0.0
 32
0.0
 14
29.69999999999999
 24
21.0
 34
0.0
 15
267.3
 25
189.0
 35
0.0
146
0.0
 13
0.0
 23
0.0
 33
0.0
 16
1.0
 26
0.0
 36
0.0
 17
0.0
 27
1.0
 37
0.0
 76
     0
330
6C
331
666
1001
ACAD_PSEXT
1000
FF W001 for DocuWide 3037
1000
FF W001 for DocuWide 3037
1000
192.168.5.100:plt00t
1000

1070
     0
  0
MATERIAL
  5
19
102
{ACAD_XDICTIONARY
360
1A
102
}
102
{ACAD_REACTORS
330
10
102
}
330
10
100
AcDbMaterial
  1
ByBlock
 72
     0
 43
0.0208333333333333
 43
0.0
 43
0.0
 43
0.0
 43
0.0
 43
0.0208333333333333
 43
0.0
 43
0.0
 43
0.0
 43
0.0
 43
1.0
 43
0.0
 43
0.0
 43
0.0
 43
0.0
 43
1.0
 77
     0
 47
0.0208333333333333
 47
0.0
 47
0.0
 47
0.0
 47
0.0
 47
0.0208333333333333
 47
0.0
 47
0.0
 47
0.0
 47
0.0
 47
1.0
 47
0.0
 47
0.0
 47
0.0
 47
0.0
 47
1.0
171
     0
 49
0.0208333333333333
 49
0.0
 49
0.0
 49
0.0
 49
0.0
 49
0.0208333333333333
 49
0.0
 49
0.0
 49
0.0
 49
0.0
 49
1.0
 49
0.0
 49
0.0
 49
0.0
 49
0.0
 49
1.0
175
     0
142
0.0208333333333333
142
0.0
142
0.0
142
0.0
142
0.0
142
0.0208333333333333
142
0.0
142
0.0
142
0.0
142
0.0
142
1.0
142
0.0
142
0.0
142
0.0
142
0.0
142
1.0
179
     0
144
0.0208333333333333
144
0.0
144
0.0
144
0.0
144
0.0
144
0.0208333333333333
144
0.0
144
0.0
144
0.0
144
0.0
144
1.0
144
0.0
144
0.0
144
0.0
144
0.0
144
1.0
147
0.0208333333333333
147
0.0
147
0.0
147
0.0
147
0.0
147
0.0208333333333333
147
0.0
147
0.0
147
0.0
147
0.0
147
1.0
147
0.0
147
0.0
147
0.0
147
0.0
147
1.0
  0
MATERIAL
  5
11
102
{ACAD_XDICTIONARY
360
12
102
}
102
{ACAD_REACTORS
330
10
102
}
330
10
100
AcDbMaterial
  1
ByLayer
 72
     0
 43
0.0208333333333333
 43
0.0
 43
0.0
 43
0.0
 43
0.0
 43
0.0208333333333333
 43
0.0
 43
0.0
 43
0.0
 43
0.0
 43
1.0
 43
0.0
 43
0.0
 43
0.0
 43
0.0
 43
1.0
 77
     0
 47
0.0208333333333333
 47
0.0
 47
0.0
 47
0.0
 47
0.0
 47
0.0208333333333333
 47
0.0
 47
0.0
 47
0.0
 47
0.0
 47
1.0
 47
0.0
 47
0.0
 47
0.0
 47
0.0
 47
1.0
171
     0
 49
0.0208333333333333
 49
0.0
 49
0.0
 49
0.0
 49
0.0
 49
0.0208333333333333
 49
0.0
 49
0.0
 49
0.0
 49
0.0
 49
1.0
 49
0.0
 49
0.0
 49
0.0
 49
0.0
 49
1.0
175
     0
142
0.0208333333333333
142
0.0
142
0.0
142
0.0
142
0.0
142
0.0208333333333333
142
0.0
142
0.0
142
0.0
142
0.0
142
1.0
142
0.0
142
0.0
142
0.0
142
0.0
142
1.0
179
     0
144
0.0208333333333333
144
0.0
144
0.0
144
0.0
144
0.0
144
0.0208333333333333
144
0.0
144
0.0
144
0.0
144
0.0
144
1.0
144
0.0
144
0.0
144
0.0
144
0.0
144
1.0
147
0.0208333333333333
147
0.0
147
0.0
147
0.0
147
0.0
147
0.0208333333333333
147
0.0
147
0.0
147
0.0
147
0.0
147
1.0
147
0.0
147
0.0
147
0.0
147
0.0
147
1.0
  0
MATERIAL
  5
21
102
{ACAD_XDICTIONARY
360
22
102
}
102
{ACAD_REACTORS
330
10
102
}
330
10
100
AcDbMaterial
  1
Global
 72
     0
 43
0.0208333333333333
 43
0.0
 43
0.0
 43
0.0
 43
0.0
 43
0.0208333333333333
 43
0.0
 43
0.0
 43
0.0
 43
0.0
 43
1.0
 43
0.0
 43
0.0
 43
0.0
 43
0.0
 43
1.0
 77
     0
 47
0.0208333333333333
 47
0.0
 47
0.0
 47
0.0
 47
0.0
 47
0.0208333333333333
 47
0.0
 47
0.0
 47
0.0
 47
0.0
 47
1.0
 47
0.0
 47
0.0
 47
0.0
 47
0.0
 47
1.0
171
     0
 49
0.0208333333333333
 49
0.0
 49
0.0
 49
0.0
 49
0.0
 49
0.0208333333333333
 49
0.0
 49
0.0
 49
0.0
 49
0.0
 49
1.0
 49
0.0
 49
0.0
 49
0.0
 49
0.0
 49
1.0
175
     0
142
0.0208333333333333
142
0.0
142
0.0
142
0.0
142
0.0
142
0.0208333333333333
142
0.0
142
0.0
142
0.0
142
0.0
142
1.0
142
0.0
142
0.0
142
0.0
142
0.0
142
1.0
179
     0
144
0.0208333333333333
144
0.0
144
0.0
144
0.0
144
0.0
144
0.0208333333333333
144
0.0
144
0.0
144
0.0
144
0.0
144
1.0
144
0.0
144
0.0
144
0.0
144
0.0
144
1.0
147
0.0208333333333333
147
0.0
147
0.0
147
0.0
147
0.0
147
0.0208333333333333
147
0.0
147
0.0
147
0.0
147
0.0
147
1.0
147
0.0
147
0.0
147
0.0
147
0.0
147
1.0
  0
MLEADERSTYLE
  5
67
102
{ACAD_XDICTIONARY
360
793
102
}
102
{ACAD_REACTORS
330
66
102
}
330
66
100
AcDbMLeaderStyle
170
     2
171
     1
172
     0
 90
        2
 40
0.0
 41
0.0
173
     1
 91
-1056964608
340
5B
 92
       -2
290
     1
 42
0.09
291
     1
 43
0.36
  3
Standard
 44
0.18
300

342
55
174
     1
178
     6
175
     1
176
     0
 93
-1056964608
 45
0.18
292
     0
297
     0
 46
0.18
 94
-1056964608
 47
1.0
 49
1.0
140
1.0
293
     1
141
0.0
294
     1
177
     0
142
1.0
295
     0
296
     0
143
0.125
1001
ACAD_MLEADERVER
1070
     2
  0
MLINESTYLE
  5
60
102
{ACAD_REACTORS
330
5F
102
}
330
5F
100
AcDbMlineStyle
  2
STANDARD
 70
     0
  3

 62
   256
 51
90.0
 52
90.0
 71
     2
 49
0.5
 62
   256
  6
BYLAYER
 49
-0.5
 62
   256
  6
BYLAYER
  0
ACDBPLACEHOLDER
  5
F
102
{ACAD_REACTORS
330
E
102
}
330
E
  0
ACDBPLACEHOLDER
  5
83
102
{ACAD_REACTORS
330
E
102
}
330
E
  0
SCALE
  5
43
102
{ACAD_REACTORS
330
42
102
}
330
42
100
AcDbScale
 70
     0
300
1:1
140
1.0
141
1.0
290
     1
  0
SCALE
  5
44
102
{ACAD_REACTORS
330
42
102
}
330
42
100
AcDbScale
 70
     0
300
1:2
140
1.0
141
2.0
290
     0
  0
SCALE
  5
45
102
{ACAD_REACTORS
330
42
102
}
330
42
100
AcDbScale
 70
     0
300
1:4
140
1.0
141
4.0
290
     0
  0
SCALE
  5
46
102
{ACAD_REACTORS
330
42
102
}
330
42
100
AcDbScale
 70
     0
300
1:5
140
1.0
141
5.0
290
     0
  0
SCALE
  5
47
102
{ACAD_REACTORS
330
42
102
}
330
42
100
AcDbScale
 70
     0
300
1:8
140
1.0
141
8.0
290
     0
  0
SCALE
  5
48
102
{ACAD_REACTORS
330
42
102
}
330
42
100
AcDbScale
 70
     0
300
1:10
140
1.0
141
10.0
290
     0
  0
SCALE
  5
49
102
{ACAD_REACTORS
330
42
102
}
330
42
100
AcDbScale
 70
     0
300
1:16
140
1.0
141
16.0
290
     0
  0
SCALE
  5
4A
102
{ACAD_REACTORS
330
42
102
}
330
42
100
AcDbScale
 70
     0
300
1:20
140
1.0
141
20.0
290
     0
  0
SCALE
  5
4B
102
{ACAD_REACTORS
330
42
102
}
330
42
100
AcDbScale
 70
     0
300
1:30
140
1.0
141
30.0
290
     0
  0
SCALE
  5
4C
102
{ACAD_REACTORS
330
42
102
}
330
42
100
AcDbScale
 70
     0
300
1:40
140
1.0
141
40.0
290
     0
  0
SCALE
  5
4D
102
{ACAD_REACTORS
330
42
102
}
330
42
100
AcDbScale
 70
     0
300
1:50
140
1.0
141
50.0
290
     0
  0
SCALE
  5
4E
102
{ACAD_REACTORS
330
42
102
}
330
42
100
AcDbScale
 70
     0
300
1:100
140
1.0
141
100.0
290
     0
  0
SCALE
  5
4F
102
{ACAD_REACTORS
330
42
102
}
330
42
100
AcDbScale
 70
     0
300
2:1
140
2.0
141
1.0
290
     0
  0
SCALE
  5
50
102
{ACAD_REACTORS
330
42
102
}
330
42
100
AcDbScale
 70
     0
300
4:1
140
4.0
141
1.0
290
     0
  0
SCALE
  5
51
102
{ACAD_REACTORS
330
42
102
}
330
42
100
AcDbScale
 70
     0
300
8:1
140
8.0
141
1.0
290
     0
  0
SCALE
  5
52
102
{ACAD_REACTORS
330
42
102
}
330
42
100
AcDbScale
 70
     0
300
10:1
140
10.0
141
1.0
290
     0
  0
SCALE
  5
53
102
{ACAD_REACTORS
330
42
102
}
330
42
100
AcDbScale
 70
     0
300
100:1
140
100.0
141
1.0
290
     0
  0
ACDBSECTIONVIEWSTYLE
  5
69
102
{ACAD_XDICTIONARY
360
795
102
}
102
{ACAD_REACTORS
330
68
102
}
330
68
100
AcDbModelDocViewStyle
 70
     0
  3
Imperial24
290
     0
100
AcDbSectionViewStyle
 70
     0
 71
     0
 90
       78
 71
     1
340
55
 62
   256
 40
0.24
340
0
340
0
 62
   256
 40
0.24
300
I, O, Q, S, X, Z
 40
0.48
 90
        3
 40
0.18
 90
        1
 71
     2
340
5D
 90
       25
 62
   256
340
5D
 90
       50
 62
   256
 40
0.24
 40
0.0
 40
0.24
 71
     3
340
55
 62
   256
 40
0.24
 90
        1
 40
0.75
 90
        1
300
%<\AcVar ViewType \f "%tc1">% %<\AcVar ViewSectionStartId>%-%<\AcVar ViewSectionEndId>%\PSCALE %<\AcVar ViewScale \f "%sn">%
 71
     4
 62
   256
 62
   257
300
ANSI31
 40
1.0
 90
        0
290
     0
290
     0
 90
        6
 40
0.0
 40
1.570796326794896
 40
0.2617993877991494
 40
1.308996938995747
 40
-0.2617993877991494
 40
1.832595714594045
  0
ACDBSECTIONVIEWSTYLE
  5
4DE
102
{ACAD_XDICTIONARY
360
799
102
}
102
{ACAD_REACTORS
330
68
102
}
330
68
100
AcDbModelDocViewStyle
 70
     0
  3
Metric50
290
     0
100
AcDbSectionViewStyle
 70
     0
 71
     0
 90
      102
 71
     1
340
55
 62
   256
 40
5.0
340
0
340
0
 62
   256
 40
5.0
300
I, O, Q, S, X, Z
 40
10.0
 90
        0
 40
2.5
 90
        0
 71
     2
340
5D
 90
       25
 62
   256
340
5D
 90
       50
 62
   256
 40
5.0
 40
2.5
 40
5.0
 71
     3
340
55
 62
   256
 40
5.0
 90
        0
 40
15.0
 90
        1
300
%<\AcVar ViewSectionStartId>%-%<\AcVar ViewSectionEndId>% (%<\AcVar ViewScale \f "%sn">%)
 71
     4
 62
   256
 62
   257
300
ANSI31
 40
1.0
 90
        0
290
     0
290
     0
 90
        6
 40
0.0
 40
1.570796326794896
 40
0.2617993877991494
 40
1.308996938995747
 40
-0.2617993877991494
 40
1.832595714594045
  0
TABLESTYLE
  5
65
102
{ACAD_XDICTIONARY
360
6F5
102
}
102
{ACAD_REACTORS
330
64
102
}
330
64
100
AcDbTableStyle
  3
Standard
 70
     0
 71
     3
 40
1.5
 41
1.5
280
     0
281
     0
  7
Standard
140
4.5
170
     2
 62
     0
 63
     7
283
     0
274
    -2
284
     1
 64
     0
275
    -2
285
     1
 65
     0
276
    -2
286
     1
 66
     0
277
    -2
287
     1
 67
     0
278
    -2
288
     1
 68
     0
279
    -2
289
     1
 69
     0
  7
Standard
140
6.0
170
     5
 62
     0
 63
     7
283
     0
274
    -2
284
     1
 64
     0
275
    -2
285
     1
 65
     0
276
    -2
286
     1
 66
     0
277
    -2
287
     1
 67
     0
278
    -2
288
     1
 68
     0
279
    -2
289
     1
 69
     0
  7
Standard
140
4.5
170
     5
 62
     0
 63
     7
283
     0
274
    -2
284
     1
 64
     0
275
    -2
285
     1
 65
     0
276
    -2
286
     1
 66
     0
277
    -2
287
     1
 67
     0
278
    -2
288
     1
 68
     0
279
    -2
289
     1
 69
     0
  0
VISUALSTYLE
  5
2F
102
{ACAD_XDICTIONARY
360
76C
102
}
102
{ACAD_REACTORS
330
29
102
}
330
29
100
AcDbVisualStyle
  2

 70
     4
 71
     0
 72
     2
 73
     0
 90
        0
 40
-0.6
 41
-30.0
 62
     5
 63
     7
421
 16777215
 74
     1
 91
        4
 64
     7
 65
   257
 75
     1
175
     1
 42
1.0
 92
        0
 66
   257
 43
1.0
 76
     1
 77
     6
 78
     2
 67
     7
 79
     5
170
     0
171
     0
290
     0
174
     0
 93
        1
 44
0.0
173
     0
291
     0
 45
0.0
1001
ACAD
1000
AcDbSavedByObjectVersion
1070
     0
  0
VISUALSTYLE
  5
2E
102
{ACAD_XDICTIONARY
360
76A
102
}
102
{ACAD_REACTORS
330
29
102
}
330
29
100
AcDbVisualStyle
  2

 70
     7
 71
     1
 72
     0
 73
     1
 90
        0
 40
-0.6
 41
-30.0
 62
     5
 63
     7
421
 16777215
 74
     0
 91
        4
 64
     7
 65
   257
 75
     1
175
     1
 42
1.0
 92
        8
 66
     7
 43
1.0
 76
     1
 77
     6
 78
     2
 67
     7
 79
     5
170
     0
171
     0
290
     0
174
     0
 93
        1
 44
0.0
173
     0
291
     1
 45
0.0
1001
ACAD
1000
AcDbSavedByObjectVersion
1070
     0
  0
VISUALSTYLE
  5
35
102
{ACAD_XDICTIONARY
360
778
102
}
102
{ACAD_REACTORS
330
29
102
}
330
29
100
AcDbVisualStyle
  2

 70
    12
 71
     2
 72
     2
 73
     0
 90
        0
 40
-0.6
 41
-30.0
 62
     5
 63
     7
421
 16777215
 74
     1
 91
        4
 64
     7
 65
   257
 75
     1
175
     1
 42
1.0
 92
        8
 66
     7
 43
1.0
 76
     1
 77
     6
 78
     2
 67
     7
 79
     5
170
     0
171
     0
290
     0
174
     0
 93
        1
 44
50.0
173
     0
291
     1
 45
0.0
1001
ACAD
1000
AcDbSavedByObjectVersion
1070
     0
  0
VISUALSTYLE
  5
39
102
{ACAD_XDICTIONARY
360
780
102
}
102
{ACAD_REACTORS
330
29
102
}
330
29
100
AcDbVisualStyle
  2

 70
    16
 71
     2
 72
     2
 73
     3
 90
        0
 40
-0.6
 41
-30.0
 62
     5
 63
     8
421
  8421504
 74
     1
 91
        4
 64
     7
 65
   257
 75
     1
175
     1
 42
1.0
 92
        8
 66
     8
424
  8421504
 43
1.0
 76
     1
 77
     6
 78
     2
 67
     7
 79
     5
170
     0
171
     0
290
     0
174
     0
 93
        1
 44
0.0
173
     0
291
     1
 45
0.0
1001
ACAD
1000
AcDbSavedByObjectVersion
1070
     0
  0
VISUALSTYLE
  5
32
102
{ACAD_XDICTIONARY
360
772
102
}
102
{ACAD_REACTORS
330
29
102
}
330
29
100
AcDbVisualStyle
  2

 70
     9
 71
     3
 72
     2
 73
     0
 90
        0
 40
-0.6
 41
-30.0
 62
     5
 63
     7
421
 16777215
 74
     2
 91
        2
 64
     7
 65
   257
 75
     1
175
     1
 42
179.0
 92
        8
 66
     7
 43
1.0
 76
     1
 77
     6
 78
     2
 67
     7
 79
     3
170
     0
171
     0
290
     0
174
     0
 93
        1
 44
0.0
173
     0
291
     0
 45
0.0
1001
ACAD
1000
AcDbSavedByObjectVersion
1070
     0
  0
VISUALSTYLE
  5
34
102
{ACAD_XDICTIONARY
360
776
102
}
102
{ACAD_REACTORS
330
29
102
}
330
29
100
AcDbVisualStyle
  2

 70
    11
 71
     2
 72
     2
 73
     0
 90
        0
 40
-0.6
 41
-30.0
 62
     5
 63
     7
421
 16777215
 74
     1
 91
        4
 64
     7
 65
   257
 75
     1
175
     1
 42
1.0
 92
        8
 66
     7
 43
1.0
 76
     1
 77
     6
 78
     2
 67
     7
 79
     5
170
     0
171
     0
290
     0
174
     0
 93
        1
 44
-50.0
173
     0
291
     1
 45
0.0
1001
ACAD
1000
AcDbSavedByObjectVersion
1070
     0
  0
VISUALSTYLE
  5
41
102
{ACAD_XDICTIONARY
360
790
102
}
102
{ACAD_REACTORS
330
29
102
}
330
29
100
AcDbVisualStyle
  2

 70
    22
 71
     2
 72
     2
 73
     0
 90
        0
 40
-0.6
 41
-30.0
 62
     5
 63
     7
421
 16777215
 74
     1
 91
        4
 64
     7
 65
   257
 75
     1
175
     1
 42
1.0
 92
        8
 66
     7
 43
1.0
 76
     1
 77
     6
 78
     2
 67
     7
 79
     5
170
     0
171
     0
290
     0
174
     0
 93
        1
 44
0.0
173
     0
291
     1
 45
0.0
1001
ACAD
1000
AcDbSavedByObjectVersion
1070
     0
  0
VISUALSTYLE
  5
38
102
{ACAD_XDICTIONARY
360
77E
102
}
102
{ACAD_REACTORS
330
29
102
}
330
29
100
AcDbVisualStyle
  2

 70
    15
 71
     2
 72
     2
 73
     0
 90
        0
 40
-0.6
 41
-30.0
 62
     5
 63
     7
421
 16777215
 74
     1
 91
        4
 64
     7
 65
   257
 75
     1
175
     1
 42
1.0
 92
        8
 66
     7
 43
1.0
 76
     1
 77
     6
 78
     2
 67
     7
 79
     5
170
     0
171
     0
290
     0
174
     0
 93
        1
 44
0.0
173
     0
291
     1
 45
0.0
1001
ACAD
1000
AcDbSavedByObjectVersion
1070
     0
  0
VISUALSTYLE
  5
2A
102
{ACAD_XDICTIONARY
360
762
102
}
102
{ACAD_REACTORS
330
29
102
}
330
29
100
AcDbVisualStyle
  2

 70
     0
 71
     2
 72
     1
 73
     1
 90
        2
 40
-0.6
 41
30.0
 62
     5
 63
     7
421
 16777215
 74
     0
 91
        0
 64
     7
 65
   257
 75
     1
175
     1
 42
1.0
 92
        8
 66
     7
 43
1.0
 76
     1
 77
     6
 78
     2
 67
     7
 79
     5
170
     0
171
     0
290
     0
174
     0
 93
       13
 44
0.0
173
     0
291
     1
 45
0.0
1001
ACAD
1000
AcDbSavedByObjectVersion
1070
     0
  0
VISUALSTYLE
  5
2B
102
{ACAD_XDICTIONARY
360
764
102
}
102
{ACAD_REACTORS
330
29
102
}
330
29
100
AcDbVisualStyle
  2

 70
     1
 71
     2
 72
     1
 73
     1
 90
        2
 40
-0.6
 41
30.0
 62
     5
 63
     7
421
 16777215
 74
     1
 91
        0
 64
     7
 65
   257
 75
     1
175
     1
 42
1.0
 92
        0
 66
   257
 43
1.0
 76
     1
 77
     6
 78
     2
 67
     7
 79
     5
170
     0
171
     0
290
     0
174
     0
 93
       13
 44
0.0
173
     0
291
     1
 45
0.0
1001
ACAD
1000
AcDbSavedByObjectVersion
1070
     0
  0
VISUALSTYLE
  5
2C
102
{ACAD_XDICTIONARY
360
766
102
}
102
{ACAD_REACTORS
330
29
102
}
330
29
100
AcDbVisualStyle
  2

 70
     2
 71
     2
 72
     2
 73
     1
 90
        2
 40
-0.6
 41
30.0
 62
     5
 63
     7
421
 16777215
 74
     0
 91
        0
 64
     7
 65
   257
 75
     1
175
     1
 42
1.0
 92
        0
 66
     7
 43
1.0
 76
     1
 77
     6
 78
     2
 67
     7
 79
     5
170
     0
171
     0
290
     0
174
     0
 93
       13
 44
0.0
173
     0
291
     1
 45
0.0
1001
ACAD
1000
AcDbSavedByObjectVersion
1070
     0
  0
VISUALSTYLE
  5
2D
102
{ACAD_XDICTIONARY
360
768
102
}
102
{ACAD_REACTORS
330
29
102
}
330
29
100
AcDbVisualStyle
  2

 70
     3
 71
     2
 72
     2
 73
     1
 90
        2
 40
-0.6
 41
30.0
 62
     5
 63
     7
421
 16777215
 74
     1
 91
        0
 64
     7
 65
   257
 75
     1
175
     1
 42
1.0
 92
        0
 66
   257
 43
1.0
 76
     1
 77
     6
 78
     2
 67
     7
 79
     5
170
     0
171
     0
290
     0
174
     0
 93
       13
 44
0.0
173
     0
291
     1
 45
0.0
1001
ACAD
1000
AcDbSavedByObjectVersion
1070
     0
  0
VISUALSTYLE
  5
31
102
{ACAD_XDICTIONARY
360
770
102
}
102
{ACAD_REACTORS
330
29
102
}
330
29
100
AcDbVisualStyle
  2

 70
     6
 71
     1
 72
     2
 73
     2
 90
        0
 40
-0.6
 41
-30.0
 62
     5
 63
     7
421
 16777215
 74
     2
 91
        2
 64
     7
 65
   257
 75
     2
175
     1
 42
40.0
 92
        0
 66
   257
 43
1.0
 76
     1
 77
     6
 78
     2
 67
     7
 79
     3
170
     0
171
     0
290
     0
174
     0
 93
        1
 44
0.0
173
     0
291
     0
 45
0.0
1001
ACAD
1000
AcDbSavedByObjectVersion
1070
     0
  0
VISUALSTYLE
  5
3F
102
{ACAD_XDICTIONARY
360
78C
102
}
102
{ACAD_REACTORS
330
29
102
}
330
29
100
AcDbVisualStyle
  2

 70
    20
 71
     2
 72
     2
 73
     0
 90
        0
 40
-0.6
 41
-30.0
 62
     5
 63
     7
421
 16777215
 74
     1
 91
        4
 64
     7
 65
   257
 75
     1
175
     1
 42
1.0
 92
       10
 66
     7
 43
1.0
 76
     1
 77
     6
 78
     2
 67
     7
 79
     5
170
     0
171
     0
290
     0
174
     0
 93
        1
 44
0.0
173
     0
291
     1
 45
0.0
1001
ACAD
1000
AcDbSavedByObjectVersion
1070
     0
  0
VISUALSTYLE
  5
37
102
{ACAD_XDICTIONARY
360
77C
102
}
102
{ACAD_REACTORS
330
29
102
}
330
29
100
AcDbVisualStyle
  2

 70
    14
 71
     2
 72
     2
 73
     0
 90
        0
 40
-0.6
 41
-30.0
 62
     5
 63
     7
421
 16777215
 74
     1
 91
        4
 64
     7
 65
   257
 75
     7
175
     7
 42
1.0
 92
        8
 66
     7
 43
1.0
 76
     1
 77
     6
 78
     2
 67
     7
 79
     5
170
     0
171
     0
290
     0
174
     0
 93
        1
 44
0.0
173
     0
291
     1
 45
0.0
1001
ACAD
1000
AcDbSavedByObjectVersion
1070
     0
  0
VISUALSTYLE
  5
40
102
{ACAD_XDICTIONARY
360
78E
102
}
102
{ACAD_REACTORS
330
29
102
}
330
29
100
AcDbVisualStyle
  2

 70
    21
 71
     2
 72
     2
 73
     0
 90
        0
 40
-0.6
 41
-30.0
 62
     5
 63
     7
421
 16777215
 74
     1
 91
        4
 64
     7
 65
   257
 75
     1
175
     1
 42
1.0
 92
        9
 66
     7
 43
1.0
 76
     1
 77
     6
 78
     2
 67
     7
 79
     5
170
     0
171
     0
290
     0
174
     0
 93
        1
 44
0.0
173
     0
291
     1
 45
0.0
1001
ACAD
1000
AcDbSavedByObjectVersion
1070
     0
  0
VISUALSTYLE
  5
33
102
{ACAD_XDICTIONARY
360
774
102
}
102
{ACAD_REACTORS
330
29
102
}
330
29
100
AcDbVisualStyle
  2

 70
     8
 71
     2
 72
     3
 73
     0
 90
        2
 40
-0.6
 41
30.0
 62
     5
 63
     7
421
 16777215
 74
     0
 91
        0
 64
     7
 65
   257
 75
     1
175
     1
 42
1.0
 92
        8
 66
   257
 43
1.0
 76
     1
 77
     6
 78
     2
 67
     7
 79
     3
170
     0
171
     0
290
     0
174
     0
 93
       13
 44
0.0
173
     0
291
     0
 45
0.0
1001
ACAD
1000
AcDbSavedByObjectVersion
1070
     0
  0
VISUALSTYLE
  5
3E
102
{ACAD_XDICTIONARY
360
78A
102
}
102
{ACAD_REACTORS
330
29
102
}
330
29
100
AcDbVisualStyle
  2

 70
    27
 71
     2
 72
     2
 73
     1
 90
        2
 40
-0.6
 41
30.0
 62
     5
 63
     7
421
 16777215
 74
     0
 91
        4
 64
     7
 65
   257
 75
     1
175
     1
 42
1.0
 92
        8
 66
   257
 43
1.0
 76
     1
 77
     6
 78
     2
 67
     8
425
  7895160
 79
     3
170
     0
171
     0
290
     0
174
     0
 93
        5
 44
0.0
173
     0
291
     0
 45
0.0
1001
ACAD
1000
AcDbSavedByObjectVersion
1070
     0
  0
VISUALSTYLE
  5
3D
102
{ACAD_XDICTIONARY
360
788
102
}
102
{ACAD_REACTORS
330
29
102
}
330
29
100
AcDbVisualStyle
  2

 70
    26
 71
     2
 72
     2
 73
     1
 90
        2
 40
-0.6
 41
30.0
 62
     5
 63
     7
421
 16777215
 74
     1
 91
        2
 64
     7
 65
   257
 75
     2
175
     1
 42
1.0
 92
        8
 66
   257
 43
1.0
 76
     1
 77
     6
 78
     2
 67
     7
 79
     3
170
     0
171
     0
290
     0
174
     0
 93
        5
 44
0.0
173
     0
291
     0
 45
0.0
1001
ACAD
1000
AcDbSavedByObjectVersion
1070
     0
  0
VISUALSTYLE
  5
3A
102
{ACAD_XDICTIONARY
360
782
102
}
102
{ACAD_REACTORS
330
29
102
}
330
29
100
AcDbVisualStyle
  2

 70
    23
 71
     2
 72
     2
 73
     3
 90
        0
 40
-0.6
 41
-30.0
 62
     5
 63
     7
421
 16777215
 74
     2
 91
        2
 64
     7
 65
     7
 75
     1
175
     1
 42
40.0
 92
        8
 66
     7
 43
1.0
 76
     1
 77
     6
 78
     2
 67
     7
 79
     3
170
     0
171
     0
290
     0
174
     0
 93
        1
 44
0.0
173
     0
291
     0
 45
0.0
1001
ACAD
1000
AcDbSavedByObjectVersion
1070
     0
  0
VISUALSTYLE
  5
3B
102
{ACAD_XDICTIONARY
360
784
102
}
102
{ACAD_REACTORS
330
29
102
}
330
29
100
AcDbVisualStyle
  2

 70
    24
 71
     1
 72
     2
 73
     2
 90
        0
 40
-0.6
 41
-30.0
 62
     5
 63
     7
421
 16777215
 74
     2
 91
        2
 64
     7
 65
     7
 75
     1
175
     1
 42
40.0
 92
       11
 66
     7
 43
1.0
 76
     1
 77
     6
 78
     2
 67
     7
 79
     6
170
     0
171
     0
290
     0
174
     0
 93
        1
 44
0.0
173
     0
291
     0
 45
0.0
1001
ACAD
1000
AcDbSavedByObjectVersion
1070
     0
  0
VISUALSTYLE
  5
36
102
{ACAD_XDICTIONARY
360
77A
102
}
102
{ACAD_REACTORS
330
29
102
}
330
29
100
AcDbVisualStyle
  2

 70
    13
 71
     2
 72
     2
 73
     0
 90
        0
 40
-0.6
 41
-30.0
 62
     5
 63
     7
421
 16777215
 74
     1
 91
        4
 64
     7
 65
   257
 75
     1
175
     1
 42
1.0
 92
       12
 66
     7
 43
1.0
 76
     1
 77
     6
 78
     2
 67
     7
 79
     5
170
     0
171
     0
290
     0
174
     0
 93
        1
 44
0.0
173
     0
291
     1
 45
0.0
1001
ACAD
1000
AcDbSavedByObjectVersion
1070
     0
  0
VISUALSTYLE
  5
30
102
{ACAD_XDICTIONARY
360
76E
102
}
102
{ACAD_REACTORS
330
29
102
}
330
29
100
AcDbVisualStyle
  2

 70
     5
 71
     0
 72
     2
 73
     0
 90
        0
 40
-0.6
 41
-30.0
 62
     5
 63
     7
421
 16777215
 74
     1
 91
        4
 64
     7
 65
   257
 75
     1
175
     1
 42
1.0
 92
        0
 66
   257
 43
1.0
 76
     1
 77
     6
 78
     2
 67
     7
 79
     3
170
     0
171
     0
290
     0
174
     0
 93
        1
 44
0.0
173
     0
291
     0
 45
0.0
1001
ACAD
1000
AcDbSavedByObjectVersion
1070
     0
  0
VISUALSTYLE
  5
3C
102
{ACAD_XDICTIONARY
360
786
102
}
102
{ACAD_REACTORS
330
29
102
}
330
29
100
AcDbVisualStyle
  2

 70
    25
 71
     2
 72
     2
 73
     1
 90
        1
 40
0.5
 41
-30.0
 62
     5
 63
     7
421
 16777215
 74
     1
 91
        0
 64
     7
 65
   257
 75
     1
175
     1
 42
1.0
 92
        8
 66
     7
 43
1.0
 76
     1
 77
     6
 78
     2
 67
     7
 79
     3
170
     0
171
     0
290
     0
174
     0
 93
       13
 44
0.0
173
     0
291
     0
 45
0.0
1001
ACAD
1000
AcDbSavedByObjectVersion
1070
     0
  0
DICTIONARYVAR
  5
4D8
102
{ACAD_REACTORS
330
4D2
102
}
330
4D2
100
DictionaryVariables
280
     0
  1
0
  0
DICTIONARYVAR
  5
4D9
102
{ACAD_REACTORS
330
4D2
102
}
330
4D2
100
DictionaryVariables
280
     0
  1
1:1
  0
DICTIONARYVAR
  5
4D4
102
{ACAD_REACTORS
330
4D2
102
}
330
4D2
100
DictionaryVariables
280
     0
  1
STANDARD
  0
DICTIONARYVAR
  5
4D3
102
{ACAD_REACTORS
330
4D2
102
}
330
4D2
100
DictionaryVariables
280
     0
  1
STANDARD
  0
DICTIONARYVAR
  5
4D5
102
{ACAD_REACTORS
330
4D2
102
}
330
4D2
100
DictionaryVariables
280
     0
  1
Imperial24
  0
DICTIONARYVAR
  5
4D6
102
{ACAD_REACTORS
330
4D2
102
}
330
4D2
100
DictionaryVariables
280
     0
  1
Imperial24
  0
DICTIONARYVAR
  5
4DB
102
{ACAD_REACTORS
330
4D2
102
}
330
4D2
100
DictionaryVariables
280
     0
  1
1
  0
DICTIONARYVAR
  5
4DC
102
{ACAD_REACTORS
330
4D2
102
}
330
4D2
100
DictionaryVariables
280
     0
  1
15
  0
DICTIONARYVAR
  5
4DA
102
{ACAD_REACTORS
330
4D2
102
}
330
4D2
100
DictionaryVariables
280
     0
  1
0
  0
DICTIONARYVAR
  5
4D7
102
{ACAD_REACTORS
330
4D2
102
}
330
4D2
100
DictionaryVariables
280
     0
  1
0
  0
DICTIONARY
  5
797
330
6B
100
AcDbDictionary
280
     1
281
     1
  3
ACAD_XREC_ROUNDTRIP
360
798
  0
DICTIONARY
  5
79B
330
4DF
100
AcDbDictionary
280
     1
281
     1
  3
ACAD_XREC_ROUNDTRIP
360
79C
  0
DICTIONARY
  5
1A
330
19
100
AcDbDictionary
280
     1
281
     1
  3
ACAD_XREC_ROUNDTRIP
360
705
  3
BUMPTILE
360
1C
  3
DIFFUSETILE
360
1B
  3
OPACITYTILE
360
1F
  3
REFLECTIONTILE
360
1E
  3
REFRACTIONTILE
360
20
  3
SPECULARTILE
360
1D
  0
DICTIONARY
  5
12
330
11
100
AcDbDictionary
280
     1
281
     1
  3
ACAD_XREC_ROUNDTRIP
360
704
  3
BUMPTILE
360
14
  3
DIFFUSETILE
360
13
  3
OPACITYTILE
360
17
  3
REFLECTIONTILE
360
16
  3
REFRACTIONTILE
360
18
  3
SPECULARTILE
360
15
  0
DICTIONARY
  5
22
330
21
100
AcDbDictionary
280
     1
281
     1
  3
ACAD_XREC_ROUNDTRIP
360
706
  3
BUMPTILE
360
24
  3
DIFFUSETILE
360
23
  3
OPACITYTILE
360
27
  3
REFLECTIONTILE
360
26
  3
REFRACTIONTILE
360
28
  3
SPECULARTILE
360
25
  0
DICTIONARY
  5
793
330
67
100
AcDbDictionary
280
     1
281
     1
  3
ACAD_XREC_ROUNDTRIP
360
794
  0
DICTIONARY
  5
795
330
69
100
AcDbDictionary
280
     1
281
     1
  3
ACAD_XREC_ROUNDTRIP
360
796
  0
DICTIONARY
  5
799
330
4DE
100
AcDbDictionary
280
     1
281
     1
  3
ACAD_XREC_ROUNDTRIP
360
79A
  0
DICTIONARY
  5
6F5
330
65
100
AcDbDictionary
280
     1
281
     1
  3
ACAD_ROUNDTRIP_2008_TABLESTYLE_CELLSTYLEMAP
360
75C
  3
ACAD_XREC_ROUNDTRIP
360
792
  0
DICTIONARY
  5
76C
330
2F
100
AcDbDictionary
280
     1
281
     1
  3
ACAD_XREC_ROUNDTRIP
360
76D
  0
DICTIONARY
  5
76A
330
2E
100
AcDbDictionary
280
     1
281
     1
  3
ACAD_XREC_ROUNDTRIP
360
76B
  0
DICTIONARY
  5
778
330
35
100
AcDbDictionary
280
     1
281
     1
  3
ACAD_XREC_ROUNDTRIP
360
779
  0
DICTIONARY
  5
780
330
39
100
AcDbDictionary
280
     1
281
     1
  3
ACAD_XREC_ROUNDTRIP
360
781
  0
DICTIONARY
  5
772
330
32
100
AcDbDictionary
280
     1
281
     1
  3
ACAD_XREC_ROUNDTRIP
360
773
  0
DICTIONARY
  5
776
330
34
100
AcDbDictionary
280
     1
281
     1
  3
ACAD_XREC_ROUNDTRIP
360
777
  0
DICTIONARY
  5
790
330
41
100
AcDbDictionary
280
     1
281
     1
  3
ACAD_XREC_ROUNDTRIP
360
791
  0
DICTIONARY
  5
77E
330
38
100
AcDbDictionary
280
     1
281
     1
  3
ACAD_XREC_ROUNDTRIP
360
77F
  0
DICTIONARY
  5
762
330
2A
100
AcDbDictionary
280
     1
281
     1
  3
ACAD_XREC_ROUNDTRIP
360
763
  0
DICTIONARY
  5
764
330
2B
100
AcDbDictionary
280
     1
281
     1
  3
ACAD_XREC_ROUNDTRIP
360
765
  0
DICTIONARY
  5
766
330
2C
100
AcDbDictionary
280
     1
281
     1
  3
ACAD_XREC_ROUNDTRIP
360
767
  0
DICTIONARY
  5
768
330
2D
100
AcDbDictionary
280
     1
281
     1
  3
ACAD_XREC_ROUNDTRIP
360
769
  0
DICTIONARY
  5
770
330
31
100
AcDbDictionary
280
     1
281
     1
  3
ACAD_XREC_ROUNDTRIP
360
771
  0
DICTIONARY
  5
78C
330
3F
100
AcDbDictionary
280
     1
281
     1
  3
ACAD_XREC_ROUNDTRIP
360
78D
  0
DICTIONARY
  5
77C
330
37
100
AcDbDictionary
280
     1
281
     1
  3
ACAD_XREC_ROUNDTRIP
360
77D
  0
DICTIONARY
  5
78E
330
40
100
AcDbDictionary
280
     1
281
     1
  3
ACAD_XREC_ROUNDTRIP
360
78F
  0
DICTIONARY
  5
774
330
33
100
AcDbDictionary
280
     1
281
     1
  3
ACAD_XREC_ROUNDTRIP
360
775
  0
DICTIONARY
  5
78A
330
3E
100
AcDbDictionary
280
     1
281
     1
  3
ACAD_XREC_ROUNDTRIP
360
78B
  0
DICTIONARY
  5
788
330
3D
100
AcDbDictionary
280
     1
281
     1
  3
ACAD_XREC_ROUNDTRIP
360
789
  0
DICTIONARY
  5
782
330
3A
100
AcDbDictionary
280
     1
281
     1
  3
ACAD_XREC_ROUNDTRIP
360
783
  0
DICTIONARY
  5
784
330
3B
100
AcDbDictionary
280
     1
281
     1
  3
ACAD_XREC_ROUNDTRIP
360
785
  0
DICTIONARY
  5
77A
330
36
100
AcDbDictionary
280
     1
281
     1
  3
ACAD_XREC_ROUNDTRIP
360
77B
  0
DICTIONARY
  5
76E
330
30
100
AcDbDictionary
280
     1
281
     1
  3
ACAD_XREC_ROUNDTRIP
360
76F
  0
DICTIONARY
  5
786
330
3C
100
AcDbDictionary
280
     1
281
     1
  3
ACAD_XREC_ROUNDTRIP
360
787
  0
XRECORD
  5
798
102
{ACAD_REACTORS
330
797
102
}
330
797
100
AcDbXrecord
280
     1
102
DISPLAYNAME
  1
Imperial24
102
FLAGS
 90
        0
  0
XRECORD
  5
79C
102
{ACAD_REACTORS
330
79B
102
}
330
79B
100
AcDbXrecord
280
     1
102
DISPLAYNAME
  1
Metric50
102
FLAGS
 90
        0
  0
XRECORD
  5
705
102
{ACAD_REACTORS
330
1A
102
}
330
1A
100
AcDbXrecord
280
     1
102
MATERIAL
148
0.0
149
0.0
149
0.0
 93
        0
 94
      127
282
     0
 72
     0
 77
     0
171
     0
175
     0
179
     0
273
     0
  0
XRECORD
  5
1C
102
{ACAD_REACTORS
330
1A
102
}
330
1A
100
AcDbXrecord
280
     1
270
     1
271
     1
  0
XRECORD
  5
1B
102
{ACAD_REACTORS
330
1A
102
}
330
1A
100
AcDbXrecord
280
     1
270
     1
271
     1
  0
XRECORD
  5
1F
102
{ACAD_REACTORS
330
1A
102
}
330
1A
100
AcDbXrecord
280
     1
270
     1
271
     1
  0
XRECORD
  5
1E
102
{ACAD_REACTORS
330
1A
102
}
330
1A
100
AcDbXrecord
280
     1
270
     1
271
     1
  0
XRECORD
  5
20
102
{ACAD_REACTORS
330
1A
102
}
330
1A
100
AcDbXrecord
280
     1
270
     1
271
     1
  0
XRECORD
  5
1D
102
{ACAD_REACTORS
330
1A
102
}
330
1A
100
AcDbXrecord
280
     1
270
     1
271
     1
  0
XRECORD
  5
704
102
{ACAD_REACTORS
330
12
102
}
330
12
100
AcDbXrecord
280
     1
102
MATERIAL
148
0.0
149
0.0
149
0.0
 93
        0
 94
      127
282
     0
 72
     0
 77
     0
171
     0
175
     0
179
     0
273
     0
  0
XRECORD
  5
14
102
{ACAD_REACTORS
330
12
102
}
330
12
100
AcDbXrecord
280
     1
270
     1
271
     1
  0
XRECORD
  5
13
102
{ACAD_REACTORS
330
12
102
}
330
12
100
AcDbXrecord
280
     1
270
     1
271
     1
  0
XRECORD
  5
17
102
{ACAD_REACTORS
330
12
102
}
330
12
100
AcDbXrecord
280
     1
270
     1
271
     1
  0
XRECORD
  5
16
102
{ACAD_REACTORS
330
12
102
}
330
12
100
AcDbXrecord
280
     1
270
     1
271
     1
  0
XRECORD
  5
18
102
{ACAD_REACTORS
330
12
102
}
330
12
100
AcDbXrecord
280
     1
270
     1
271
     1
  0
XRECORD
  5
15
102
{ACAD_REACTORS
330
12
102
}
330
12
100
AcDbXrecord
280
     1
270
     1
271
     1
  0
XRECORD
  5
706
102
{ACAD_REACTORS
330
22
102
}
330
22
100
AcDbXrecord
280
     1
102
MATERIAL
148
0.0
149
0.0
149
0.0
 93
        0
 94
      127
282
     0
 72
     0
 77
     0
171
     0
175
     0
179
     0
273
     0
  0
XRECORD
  5
24
102
{ACAD_REACTORS
330
22
102
}
330
22
100
AcDbXrecord
280
     1
270
     1
271
     1
  0
XRECORD
  5
23
102
{ACAD_REACTORS
330
22
102
}
330
22
100
AcDbXrecord
280
     1
270
     1
271
     1
  0
XRECORD
  5
27
102
{ACAD_REACTORS
330
22
102
}
330
22
100
AcDbXrecord
280
     1
270
     1
271
     1
  0
XRECORD
  5
26
102
{ACAD_REACTORS
330
22
102
}
330
22
100
AcDbXrecord
280
     1
270
     1
271
     1
  0
XRECORD
  5
28
102
{ACAD_REACTORS
330
22
102
}
330
22
100
AcDbXrecord
280
     1
270
     1
271
     1
  0
XRECORD
  5
25
102
{ACAD_REACTORS
330
22
102
}
330
22
100
AcDbXrecord
280
     1
270
     1
271
     1
  0
XRECORD
  5
794
102
{ACAD_REACTORS
330
793
102
}
330
793
100
AcDbXrecord
280
     1
102
ACAD_ROUNDTRIP_2012_MLEADER_STYLE
298
     1
  0
XRECORD
  5
796
102
{ACAD_REACTORS
330
795
102
}
330
795
100
AcDbXrecord
280
     1
102
DISPLAYNAME
  1
Imperial24
102
FLAGS
 90
        0
  0
XRECORD
  5
79A
102
{ACAD_REACTORS
330
799
102
}
330
799
100
AcDbXrecord
280
     1
102
DISPLAYNAME
  1
Metric50
102
FLAGS
 90
        0
  0
CELLSTYLEMAP
  5
75C
102
{ACAD_REACTORS
330
6F5
102
}
330
6F5
100
AcDbCellStyleMap
 90
        3
300
CELLSTYLE
  1
TABLEFORMAT_BEGIN
 90
        5
170
     1
 91
        0
 92
    32768
 62
   257
 93
        1
300
CONTENTFORMAT
  1
CONTENTFORMAT_BEGIN
 90
        0
 91
        0
 92
        4
 93
        0
300

 40
0.0
140
1.0
 94
        5
 62
     0
340
55
144
6.0
309
CONTENTFORMAT_END
171
     1
301
MARGIN
  1
CELLMARGIN_BEGIN
 40
1.5
 40
1.5
 40
1.5
 40
1.5
 40
0.18
 40
0.18
309
CELLMARGIN_END
 94
        6
 95
        1
302
GRIDFORMAT
  1
GRIDFORMAT_BEGIN
 90
        0
 91
        1
 62
     0
 92
       -2
340
0
 93
        0
 40
0.045
309
GRIDFORMAT_END
 95
        2
302
GRIDFORMAT
  1
GRIDFORMAT_BEGIN
 90
        0
 91
        1
 62
     0
 92
       -2
340
0
 93
        0
 40
0.045
309
GRIDFORMAT_END
 95
        4
302
GRIDFORMAT
  1
GRIDFORMAT_BEGIN
 90
        0
 91
        1
 62
     0
 92
       -2
340
0
 93
        0
 40
0.045
309
GRIDFORMAT_END
 95
        8
302
GRIDFORMAT
  1
GRIDFORMAT_BEGIN
 90
        0
 91
        1
 62
     0
 92
       -2
340
0
 93
        0
 40
0.045
309
GRIDFORMAT_END
 95
       16
302
GRIDFORMAT
  1
GRIDFORMAT_BEGIN
 90
        0
 91
        1
 62
     0
 92
       -2
340
0
 93
        0
 40
0.045
309
GRIDFORMAT_END
 95
       32
302
GRIDFORMAT
  1
GRIDFORMAT_BEGIN
 90
        0
 91
        1
 62
     0
 92
       -2
340
0
 93
        0
 40
0.045
309
GRIDFORMAT_END
309
TABLEFORMAT_END
  1
CELLSTYLE_BEGIN
 90
        1
 91
        1
300
_TITLE
309
CELLSTYLE_END
300
CELLSTYLE
  1
TABLEFORMAT_BEGIN
 90
        5
170
     1
 91
        0
 92
        0
 62
   257
 93
        1
300
CONTENTFORMAT
  1
CONTENTFORMAT_BEGIN
 90
        0
 91
        0
 92
        4
 93
        0
300

 40
0.0
140
1.0
 94
        5
 62
     0
340
55
144
4.5
309
CONTENTFORMAT_END
171
     1
301
MARGIN
  1
CELLMARGIN_BEGIN
 40
1.5
 40
1.5
 40
1.5
 40
1.5
 40
0.18
 40
0.18
309
CELLMARGIN_END
 94
        6
 95
        1
302
GRIDFORMAT
  1
GRIDFORMAT_BEGIN
 90
        0
 91
        1
 62
     0
 92
       -2
340
0
 93
        0
 40
0.045
309
GRIDFORMAT_END
 95
        2
302
GRIDFORMAT
  1
GRIDFORMAT_BEGIN
 90
        0
 91
        1
 62
     0
 92
       -2
340
0
 93
        0
 40
0.045
309
GRIDFORMAT_END
 95
        4
302
GRIDFORMAT
  1
GRIDFORMAT_BEGIN
 90
        0
 91
        1
 62
     0
 92
       -2
340
0
 93
        0
 40
0.045
309
GRIDFORMAT_END
 95
        8
302
GRIDFORMAT
  1
GRIDFORMAT_BEGIN
 90
        0
 91
        1
 62
     0
 92
       -2
340
0
 93
        0
 40
0.045
309
GRIDFORMAT_END
 95
       16
302
GRIDFORMAT
  1
GRIDFORMAT_BEGIN
 90
        0
 91
        1
 62
     0
 92
       -2
340
0
 93
        0
 40
0.045
309
GRIDFORMAT_END
 95
       32
302
GRIDFORMAT
  1
GRIDFORMAT_BEGIN
 90
        0
 91
        1
 62
     0
 92
       -2
340
0
 93
        0
 40
0.045
309
GRIDFORMAT_END
309
TABLEFORMAT_END
  1
CELLSTYLE_BEGIN
 90
        2
 91
        1
300
_HEADER
309
CELLSTYLE_END
300
CELLSTYLE
  1
TABLEFORMAT_BEGIN
 90
        5
170
     1
 91
        0
 92
        0
 62
   257
 93
        1
300
CONTENTFORMAT
  1
CONTENTFORMAT_BEGIN
 90
        0
 91
        0
 92
        4
 93
        0
300

 40
0.0
140
1.0
 94
        2
 62
     0
340
55
144
4.5
309
CONTENTFORMAT_END
171
     1
301
MARGIN
  1
CELLMARGIN_BEGIN
 40
1.5
 40
1.5
 40
1.5
 40
1.5
 40
0.18
 40
0.18
309
CELLMARGIN_END
 94
        6
 95
        1
302
GRIDFORMAT
  1
GRIDFORMAT_BEGIN
 90
        0
 91
        1
 62
     0
 92
       -2
340
0
 93
        0
 40
0.045
309
GRIDFORMAT_END
 95
        2
302
GRIDFORMAT
  1
GRIDFORMAT_BEGIN
 90
        0
 91
        1
 62
     0
 92
       -2
340
0
 93
        0
 40
0.045
309
GRIDFORMAT_END
 95
        4
302
GRIDFORMAT
  1
GRIDFORMAT_BEGIN
 90
        0
 91
        1
 62
     0
 92
       -2
340
0
 93
        0
 40
0.045
309
GRIDFORMAT_END
 95
        8
302
GRIDFORMAT
  1
GRIDFORMAT_BEGIN
 90
        0
 91
        1
 62
     0
 92
       -2
340
0
 93
        0
 40
0.045
309
GRIDFORMAT_END
 95
       16
302
GRIDFORMAT
  1
GRIDFORMAT_BEGIN
 90
        0
 91
        1
 62
     0
 92
       -2
340
0
 93
        0
 40
0.045
309
GRIDFORMAT_END
 95
       32
302
GRIDFORMAT
  1
GRIDFORMAT_BEGIN
 90
        0
 91
        1
 62
     0
 92
       -2
340
0
 93
        0
 40
0.045
309
GRIDFORMAT_END
309
TABLEFORMAT_END
  1
CELLSTYLE_BEGIN
 90
        3
 91
        2
300
_DATA
309
CELLSTYLE_END
  0
XRECORD
  5
792
102
{ACAD_REACTORS
330
6F5
102
}
330
6F5
100
AcDbXrecord
280
     1
102
ACAD_ROUNDTRIP_PRE2007_TABLESTYLE
 90
        4
 91
        0
  1

 92
        4
 93
        0
  2

 94
        4
 95
        0
  3

  0
XRECORD
  5
76D
102
{ACAD_REACTORS
330
76C
102
}
330
76C
100
AcDbXrecord
280
     1
102
RTVSPost2010Prop28
280
     1
102
RTVSPost2010PropOp28
 70
     1
102
RTVSPost2010Prop29
280
     1
102
RTVSPost2010PropOp29
 70
     1
102
RTVSPost2010Prop30
280
     0
102
RTVSPost2010PropOp30
 70
     1
102
RTVSPost2010Prop31
280
     0
102
RTVSPost2010PropOp31
 70
     1
102
RTVSPost2010Prop32
280
     0
102
RTVSPost2010PropOp32
 70
     1
102
RTVSPost2010Prop33
280
     0
102
RTVSPost2010PropOp33
 70
     1
102
RTVSPost2010Prop34
280
     0
102
RTVSPost2010PropOp34
 70
     1
102
RTVSPost2010Prop35
280
     0
102
RTVSPost2010PropOp35
 70
     1
102
RTVSPost2010Prop36
280
     0
102
RTVSPost2010PropOp36
 70
     1
102
RTVSPost2010Prop37
 90
       50
102
RTVSPost2010PropOp37
 70
     1
102
RTVSPost2010Prop38
140
0.0
102
RTVSPost2010PropOp38
 70
     1
102
RTVSPost2010Prop39
140
1.0
102
RTVSPost2010PropOp39
 70
     1
102
RTVSPost2010Prop40
 90
        0
102
RTVSPost2010PropOp40
 70
     1
102
RTVSPost2010Prop41ColorIndex
 90
       18
102
RTVSPost2010Prop41ColorRGB
 90
        0
102
RTVSPost2010PropOp41
 70
     1
102
RTVSPost2010Prop42
 90
       50
102
RTVSPost2010PropOp42
 70
     1
102
RTVSPost2010Prop43
 90
        3
102
RTVSPost2010PropOp43
 70
     1
102
RTVSPost2010Prop44ColorIndex
 90
        5
102
RTVSPost2010Prop44ColorRGB
 90
      255
102
RTVSPost2010PropOp44
 70
     1
102
RTVSPost2010Prop45
280
     0
102
RTVSPost2010PropOp45
 70
     1
102
RTVSPost2010Prop46
 90
       50
102
RTVSPost2010PropOp46
 70
     1
102
RTVSPost2010Prop47
 90
       50
102
RTVSPost2010PropOp47
 70
     1
102
RTVSPost2010Prop48
 90
       50
102
RTVSPost2010PropOp48
 70
     1
102
RTVSPost2010Prop49
280
     0
102
RTVSPost2010PropOp49
 70
     1
102
RTVSPost2010Prop50
 90
       50
102
RTVSPost2010PropOp50
 70
     1
102
RTVSPost2010Prop51ColorIndex
 90
      256
102
RTVSPost2010Prop51ColorRGB
 90
-16777216
102
RTVSPost2010PropOp51
 70
     0
102
RTVSPost2010Prop52
140
1.0
102
RTVSPost2010PropOp52
 70
     0
102
RTVSPost2010Prop53
 90
        2
102
RTVSPost2010PropOp53
 70
     1
102
RTVSPost2010Prop54
  1
strokes_ogs.tif
102
RTVSPost2010PropOp54
 70
     1
102
RTVSPost2010Prop55
280
     0
102
RTVSPost2010PropOp55
 70
     1
102
RTVSPost2010Prop56
140
1.0
102
RTVSPost2010PropOp56
 70
     1
102
RTVSPost2010Prop57
140
1.0
102
RTVSPost2010PropOp57
 70
     1
102
RTVSPropertyOp0
 70
     1
102
RTVSPropertyOp1
 70
     1
102
RTVSPropertyOp2
 70
     1
102
RTVSPropertyOp3
 70
     1
102
RTVSPropertyOp4
 70
     1
102
RTVSPropertyOp5
 70
     1
102
RTVSPropertyOp6
 70
     1
102
RTVSPropertyOp7
 70
     1
102
RTVSPropertyOp8
 70
     1
102
RTVSPropertyOp9
 70
     1
102
RTVSPropertyOp10
 70
     1
102
RTVSPropertyOp11
 70
     1
102
RTVSPropertyOp12
 70
     1
102
RTVSPropertyOp13
 70
     1
102
RTVSPropertyOp14
 70
     1
102
RTVSPropertyOp15
 70
     1
102
RTVSPropertyOp16
 70
     1
102
RTVSPropertyOp17
 70
     1
102
RTVSPropertyOp18
 70
     1
102
RTVSPropertyOp19
 70
     1
102
RTVSPropertyOp20
 70
     1
102
RTVSPropertyOp21
 70
     1
102
RTVSPropertyOp22
 70
     1
102
RTVSPropertyOp23
 70
     1
102
RTVSPropertyOp24
 70
     1
102
RTVSPropertyOp25
 70
     1
102
RTVSPropertyOp26
 70
     1
102
RTVSPropertyOp27
 70
     1
102
RTVSPropertyOp28
 70
     1
102
RTVSPropertyOp29
 70
     1
102
RTVSPropertyOp30
 70
     1
102
RTVSPropertyOp31
 70
     1
102
RTVSPropertyOp32
 70
     1
102
RTVSPropertyOp33
 70
     1
102
RTVSPropertyOp34
 70
     1
102
RTVSPropertyOp35
 70
     1
102
RTVSPropertyOp36
 70
     1
102
RTVSPropertyOp37
 70
     1
102
RTVSPropertyOp38
 70
     1
102
RTVSPropertyOp39
 70
     1
102
RTVSPropertyOp40
 70
     1
102
RTVSPropertyOp41
 70
     1
102
RTVSPropertyOp42
 70
     1
102
RTVSPropertyOp43
 70
     1
102
RTVSPropertyOp44
 70
     1
102
RTVSPropertyOp45
 70
     1
102
RTVSPropertyOp46
 70
     1
102
RTVSPropertyOp47
 70
     1
102
RTVSPropertyOp48
 70
     1
102
RTVSPropertyOp49
 70
     1
102
RTVSPropertyOp50
 70
     1
102
RTVSPropertyOp51
 70
     0
102
RTVSPropertyOp52
 70
     0
102
RTVSPropertyOp53
 70
     1
102
RTVSPropertyOp54
 70
     1
102
RTVSPropertyOp55
 70
     1
102
RTVSPropertyOp56
 70
     1
102
RTVSPropertyOp57
 70
     1
102
RTVSPropertyOp58
 70
     1
102
RTVSPropertyOp59
 70
     1
102
RTVSPropertyOp60
 70
     1
102
RTVSPropertyOp61
 70
     1
102
RTVSPropertyOp62
 70
     1
  0
XRECORD
  5
76B
102
{ACAD_REACTORS
330
76A
102
}
330
76A
100
AcDbXrecord
280
     1
102
RTVSPost2010Prop28
280
     0
102
RTVSPost2010PropOp28
 70
     1
102
RTVSPost2010Prop29
280
     1
102
RTVSPost2010PropOp29
 70
     1
102
RTVSPost2010Prop30
280
     1
102
RTVSPost2010PropOp30
 70
     1
102
RTVSPost2010Prop31
280
     0
102
RTVSPost2010PropOp31
 70
     1
102
RTVSPost2010Prop32
280
     0
102
RTVSPost2010PropOp32
 70
     1
102
RTVSPost2010Prop33
280
     0
102
RTVSPost2010PropOp33
 70
     1
102
RTVSPost2010Prop34
280
     0
102
RTVSPost2010PropOp34
 70
     1
102
RTVSPost2010Prop35
280
     0
102
RTVSPost2010PropOp35
 70
     1
102
RTVSPost2010Prop36
280
     0
102
RTVSPost2010PropOp36
 70
     1
102
RTVSPost2010Prop37
 90
       50
102
RTVSPost2010PropOp37
 70
     1
102
RTVSPost2010Prop38
140
0.0
102
RTVSPost2010PropOp38
 70
     1
102
RTVSPost2010Prop39
140
1.0
102
RTVSPost2010PropOp39
 70
     1
102
RTVSPost2010Prop40
 90
        0
102
RTVSPost2010PropOp40
 70
     1
102
RTVSPost2010Prop41ColorIndex
 90
       18
102
RTVSPost2010Prop41ColorRGB
 90
        0
102
RTVSPost2010PropOp41
 70
     1
102
RTVSPost2010Prop42
 90
       50
102
RTVSPost2010PropOp42
 70
     1
102
RTVSPost2010Prop43
 90
        3
102
RTVSPost2010PropOp43
 70
     1
102
RTVSPost2010Prop44ColorIndex
 90
        5
102
RTVSPost2010Prop44ColorRGB
 90
      255
102
RTVSPost2010PropOp44
 70
     1
102
RTVSPost2010Prop45
280
     0
102
RTVSPost2010PropOp45
 70
     1
102
RTVSPost2010Prop46
 90
       50
102
RTVSPost2010PropOp46
 70
     1
102
RTVSPost2010Prop47
 90
       50
102
RTVSPost2010PropOp47
 70
     1
102
RTVSPost2010Prop48
 90
       50
102
RTVSPost2010PropOp48
 70
     1
102
RTVSPost2010Prop49
280
     0
102
RTVSPost2010PropOp49
 70
     1
102
RTVSPost2010Prop50
 90
       50
102
RTVSPost2010PropOp50
 70
     1
102
RTVSPost2010Prop51ColorIndex
 90
      256
102
RTVSPost2010Prop51ColorRGB
 90
-16777216
102
RTVSPost2010PropOp51
 70
     0
102
RTVSPost2010Prop52
140
1.0
102
RTVSPost2010PropOp52
 70
     0
102
RTVSPost2010Prop53
 90
        2
102
RTVSPost2010PropOp53
 70
     1
102
RTVSPost2010Prop54
  1
strokes_ogs.tif
102
RTVSPost2010PropOp54
 70
     1
102
RTVSPost2010Prop55
280
     0
102
RTVSPost2010PropOp55
 70
     1
102
RTVSPost2010Prop56
140
1.0
102
RTVSPost2010PropOp56
 70
     1
102
RTVSPost2010Prop57
140
1.0
102
RTVSPost2010PropOp57
 70
     1
102
RTVSPropertyOp0
 70
     1
102
RTVSPropertyOp1
 70
     1
102
RTVSPropertyOp2
 70
     1
102
RTVSPropertyOp3
 70
     1
102
RTVSPropertyOp4
 70
     1
102
RTVSPropertyOp5
 70
     1
102
RTVSPropertyOp6
 70
     1
102
RTVSPropertyOp7
 70
     1
102
RTVSPropertyOp8
 70
     1
102
RTVSPropertyOp9
 70
     1
102
RTVSPropertyOp10
 70
     1
102
RTVSPropertyOp11
 70
     1
102
RTVSPropertyOp12
 70
     1
102
RTVSPropertyOp13
 70
     1
102
RTVSPropertyOp14
 70
     1
102
RTVSPropertyOp15
 70
     1
102
RTVSPropertyOp16
 70
     1
102
RTVSPropertyOp17
 70
     1
102
RTVSPropertyOp18
 70
     1
102
RTVSPropertyOp19
 70
     1
102
RTVSPropertyOp20
 70
     1
102
RTVSPropertyOp21
 70
     1
102
RTVSPropertyOp22
 70
     1
102
RTVSPropertyOp23
 70
     1
102
RTVSPropertyOp24
 70
     1
102
RTVSPropertyOp25
 70
     1
102
RTVSPropertyOp26
 70
     1
102
RTVSPropertyOp27
 70
     1
102
RTVSPropertyOp28
 70
     1
102
RTVSPropertyOp29
 70
     1
102
RTVSPropertyOp30
 70
     1
102
RTVSPropertyOp31
 70
     1
102
RTVSPropertyOp32
 70
     1
102
RTVSPropertyOp33
 70
     1
102
RTVSPropertyOp34
 70
     1
102
RTVSPropertyOp35
 70
     1
102
RTVSPropertyOp36
 70
     1
102
RTVSPropertyOp37
 70
     1
102
RTVSPropertyOp38
 70
     1
102
RTVSPropertyOp39
 70
     1
102
RTVSPropertyOp40
 70
     1
102
RTVSPropertyOp41
 70
     1
102
RTVSPropertyOp42
 70
     1
102
RTVSPropertyOp43
 70
     1
102
RTVSPropertyOp44
 70
     1
102
RTVSPropertyOp45
 70
     1
102
RTVSPropertyOp46
 70
     1
102
RTVSPropertyOp47
 70
     1
102
RTVSPropertyOp48
 70
     1
102
RTVSPropertyOp49
 70
     1
102
RTVSPropertyOp50
 70
     1
102
RTVSPropertyOp51
 70
     0
102
RTVSPropertyOp52
 70
     0
102
RTVSPropertyOp53
 70
     1
102
RTVSPropertyOp54
 70
     1
102
RTVSPropertyOp55
 70
     1
102
RTVSPropertyOp56
 70
     1
102
RTVSPropertyOp57
 70
     1
102
RTVSPropertyOp58
 70
     1
102
RTVSPropertyOp59
 70
     1
102
RTVSPropertyOp60
 70
     1
102
RTVSPropertyOp61
 70
     1
102
RTVSPropertyOp62
 70
     1
  0
XRECORD
  5
779
102
{ACAD_REACTORS
330
778
102
}
330
778
100
AcDbXrecord
280
     1
102
RTVSPost2010Prop28
280
     0
102
RTVSPost2010PropOp28
 70
     1
102
RTVSPost2010Prop29
280
     1
102
RTVSPost2010PropOp29
 70
     1
102
RTVSPost2010Prop30
280
     1
102
RTVSPost2010PropOp30
 70
     1
102
RTVSPost2010Prop31
280
     0
102
RTVSPost2010PropOp31
 70
     1
102
RTVSPost2010Prop32
280
     0
102
RTVSPost2010PropOp32
 70
     1
102
RTVSPost2010Prop33
280
     0
102
RTVSPost2010PropOp33
 70
     1
102
RTVSPost2010Prop34
280
     0
102
RTVSPost2010PropOp34
 70
     1
102
RTVSPost2010Prop35
280
     0
102
RTVSPost2010PropOp35
 70
     1
102
RTVSPost2010Prop36
280
     0
102
RTVSPost2010PropOp36
 70
     1
102
RTVSPost2010Prop37
 90
       50
102
RTVSPost2010PropOp37
 70
     1
102
RTVSPost2010Prop38
140
0.0
102
RTVSPost2010PropOp38
 70
     1
102
RTVSPost2010Prop39
140
1.0
102
RTVSPost2010PropOp39
 70
     1
102
RTVSPost2010Prop40
 90
        0
102
RTVSPost2010PropOp40
 70
     1
102
RTVSPost2010Prop41ColorIndex
 90
       18
102
RTVSPost2010Prop41ColorRGB
 90
        0
102
RTVSPost2010PropOp41
 70
     1
102
RTVSPost2010Prop42
 90
       50
102
RTVSPost2010PropOp42
 70
     1
102
RTVSPost2010Prop43
 90
        3
102
RTVSPost2010PropOp43
 70
     1
102
RTVSPost2010Prop44ColorIndex
 90
        5
102
RTVSPost2010Prop44ColorRGB
 90
      255
102
RTVSPost2010PropOp44
 70
     1
102
RTVSPost2010Prop45
280
     0
102
RTVSPost2010PropOp45
 70
     1
102
RTVSPost2010Prop46
 90
       50
102
RTVSPost2010PropOp46
 70
     1
102
RTVSPost2010Prop47
 90
       50
102
RTVSPost2010PropOp47
 70
     1
102
RTVSPost2010Prop48
 90
       50
102
RTVSPost2010PropOp48
 70
     1
102
RTVSPost2010Prop49
280
     0
102
RTVSPost2010PropOp49
 70
     1
102
RTVSPost2010Prop50
 90
       50
102
RTVSPost2010PropOp50
 70
     1
102
RTVSPost2010Prop51ColorIndex
 90
      256
102
RTVSPost2010Prop51ColorRGB
 90
-16777216
102
RTVSPost2010PropOp51
 70
     0
102
RTVSPost2010Prop52
140
1.0
102
RTVSPost2010PropOp52
 70
     0
102
RTVSPost2010Prop53
 90
        2
102
RTVSPost2010PropOp53
 70
     1
102
RTVSPost2010Prop54
  1
strokes_ogs.tif
102
RTVSPost2010PropOp54
 70
     1
102
RTVSPost2010Prop55
280
     0
102
RTVSPost2010PropOp55
 70
     1
102
RTVSPost2010Prop56
140
1.0
102
RTVSPost2010PropOp56
 70
     1
102
RTVSPost2010Prop57
140
1.0
102
RTVSPost2010PropOp57
 70
     1
102
RTVSPropertyOp0
 70
     1
102
RTVSPropertyOp1
 70
     1
102
RTVSPropertyOp2
 70
     1
102
RTVSPropertyOp3
 70
     1
102
RTVSPropertyOp4
 70
     1
102
RTVSPropertyOp5
 70
     1
102
RTVSPropertyOp6
 70
     1
102
RTVSPropertyOp7
 70
     1
102
RTVSPropertyOp8
 70
     1
102
RTVSPropertyOp9
 70
     1
102
RTVSPropertyOp10
 70
     1
102
RTVSPropertyOp11
 70
     1
102
RTVSPropertyOp12
 70
     1
102
RTVSPropertyOp13
 70
     1
102
RTVSPropertyOp14
 70
     1
102
RTVSPropertyOp15
 70
     1
102
RTVSPropertyOp16
 70
     1
102
RTVSPropertyOp17
 70
     1
102
RTVSPropertyOp18
 70
     1
102
RTVSPropertyOp19
 70
     1
102
RTVSPropertyOp20
 70
     1
102
RTVSPropertyOp21
 70
     1
102
RTVSPropertyOp22
 70
     1
102
RTVSPropertyOp23
 70
     1
102
RTVSPropertyOp24
 70
     1
102
RTVSPropertyOp25
 70
     1
102
RTVSPropertyOp26
 70
     1
102
RTVSPropertyOp27
 70
     1
102
RTVSPropertyOp28
 70
     1
102
RTVSPropertyOp29
 70
     1
102
RTVSPropertyOp30
 70
     1
102
RTVSPropertyOp31
 70
     1
102
RTVSPropertyOp32
 70
     1
102
RTVSPropertyOp33
 70
     1
102
RTVSPropertyOp34
 70
     1
102
RTVSPropertyOp35
 70
     1
102
RTVSPropertyOp36
 70
     1
102
RTVSPropertyOp37
 70
     1
102
RTVSPropertyOp38
 70
     1
102
RTVSPropertyOp39
 70
     1
102
RTVSPropertyOp40
 70
     1
102
RTVSPropertyOp41
 70
     1
102
RTVSPropertyOp42
 70
     1
102
RTVSPropertyOp43
 70
     1
102
RTVSPropertyOp44
 70
     1
102
RTVSPropertyOp45
 70
     1
102
RTVSPropertyOp46
 70
     1
102
RTVSPropertyOp47
 70
     1
102
RTVSPropertyOp48
 70
     1
102
RTVSPropertyOp49
 70
     1
102
RTVSPropertyOp50
 70
     1
102
RTVSPropertyOp51
 70
     0
102
RTVSPropertyOp52
 70
     0
102
RTVSPropertyOp53
 70
     1
102
RTVSPropertyOp54
 70
     1
102
RTVSPropertyOp55
 70
     1
102
RTVSPropertyOp56
 70
     1
102
RTVSPropertyOp57
 70
     1
102
RTVSPropertyOp58
 70
     1
102
RTVSPropertyOp59
 70
     1
102
RTVSPropertyOp60
 70
     1
102
RTVSPropertyOp61
 70
     1
102
RTVSPropertyOp62
 70
     1
  0
XRECORD
  5
781
102
{ACAD_REACTORS
330
780
102
}
330
780
100
AcDbXrecord
280
     1
102
RTVSPost2010Prop28
280
     0
102
RTVSPost2010PropOp28
 70
     1
102
RTVSPost2010Prop29
280
     1
102
RTVSPost2010PropOp29
 70
     1
102
RTVSPost2010Prop30
280
     1
102
RTVSPost2010PropOp30
 70
     1
102
RTVSPost2010Prop31
280
     0
102
RTVSPost2010PropOp31
 70
     1
102
RTVSPost2010Prop32
280
     0
102
RTVSPost2010PropOp32
 70
     1
102
RTVSPost2010Prop33
280
     0
102
RTVSPost2010PropOp33
 70
     1
102
RTVSPost2010Prop34
280
     0
102
RTVSPost2010PropOp34
 70
     1
102
RTVSPost2010Prop35
280
     0
102
RTVSPost2010PropOp35
 70
     1
102
RTVSPost2010Prop36
280
     0
102
RTVSPost2010PropOp36
 70
     1
102
RTVSPost2010Prop37
 90
       50
102
RTVSPost2010PropOp37
 70
     1
102
RTVSPost2010Prop38
140
0.0
102
RTVSPost2010PropOp38
 70
     1
102
RTVSPost2010Prop39
140
1.0
102
RTVSPost2010PropOp39
 70
     1
102
RTVSPost2010Prop40
 90
        0
102
RTVSPost2010PropOp40
 70
     1
102
RTVSPost2010Prop41ColorIndex
 90
       18
102
RTVSPost2010Prop41ColorRGB
 90
        0
102
RTVSPost2010PropOp41
 70
     1
102
RTVSPost2010Prop42
 90
       50
102
RTVSPost2010PropOp42
 70
     1
102
RTVSPost2010Prop43
 90
        3
102
RTVSPost2010PropOp43
 70
     1
102
RTVSPost2010Prop44ColorIndex
 90
        5
102
RTVSPost2010Prop44ColorRGB
 90
      255
102
RTVSPost2010PropOp44
 70
     1
102
RTVSPost2010Prop45
280
     0
102
RTVSPost2010PropOp45
 70
     1
102
RTVSPost2010Prop46
 90
       50
102
RTVSPost2010PropOp46
 70
     1
102
RTVSPost2010Prop47
 90
       50
102
RTVSPost2010PropOp47
 70
     1
102
RTVSPost2010Prop48
 90
       50
102
RTVSPost2010PropOp48
 70
     1
102
RTVSPost2010Prop49
280
     0
102
RTVSPost2010PropOp49
 70
     1
102
RTVSPost2010Prop50
 90
       50
102
RTVSPost2010PropOp50
 70
     1
102
RTVSPost2010Prop51ColorIndex
 90
      256
102
RTVSPost2010Prop51ColorRGB
 90
-16777216
102
RTVSPost2010PropOp51
 70
     0
102
RTVSPost2010Prop52
140
1.0
102
RTVSPost2010PropOp52
 70
     0
102
RTVSPost2010Prop53
 90
        2
102
RTVSPost2010PropOp53
 70
     1
102
RTVSPost2010Prop54
  1
strokes_ogs.tif
102
RTVSPost2010PropOp54
 70
     1
102
RTVSPost2010Prop55
280
     0
102
RTVSPost2010PropOp55
 70
     1
102
RTVSPost2010Prop56
140
1.0
102
RTVSPost2010PropOp56
 70
     1
102
RTVSPost2010Prop57
140
1.0
102
RTVSPost2010PropOp57
 70
     1
102
RTVSPropertyOp0
 70
     1
102
RTVSPropertyOp1
 70
     1
102
RTVSPropertyOp2
 70
     1
102
RTVSPropertyOp3
 70
     1
102
RTVSPropertyOp4
 70
     1
102
RTVSPropertyOp5
 70
     1
102
RTVSPropertyOp6
 70
     1
102
RTVSPropertyOp7
 70
     1
102
RTVSPropertyOp8
 70
     1
102
RTVSPropertyOp9
 70
     1
102
RTVSPropertyOp10
 70
     1
102
RTVSPropertyOp11
 70
     1
102
RTVSPropertyOp12
 70
     1
102
RTVSPropertyOp13
 70
     1
102
RTVSPropertyOp14
 70
     1
102
RTVSPropertyOp15
 70
     1
102
RTVSPropertyOp16
 70
     1
102
RTVSPropertyOp17
 70
     1
102
RTVSPropertyOp18
 70
     1
102
RTVSPropertyOp19
 70
     1
102
RTVSPropertyOp20
 70
     1
102
RTVSPropertyOp21
 70
     1
102
RTVSPropertyOp22
 70
     1
102
RTVSPropertyOp23
 70
     1
102
RTVSPropertyOp24
 70
     1
102
RTVSPropertyOp25
 70
     1
102
RTVSPropertyOp26
 70
     1
102
RTVSPropertyOp27
 70
     1
102
RTVSPropertyOp28
 70
     1
102
RTVSPropertyOp29
 70
     1
102
RTVSPropertyOp30
 70
     1
102
RTVSPropertyOp31
 70
     1
102
RTVSPropertyOp32
 70
     1
102
RTVSPropertyOp33
 70
     1
102
RTVSPropertyOp34
 70
     1
102
RTVSPropertyOp35
 70
     1
102
RTVSPropertyOp36
 70
     1
102
RTVSPropertyOp37
 70
     1
102
RTVSPropertyOp38
 70
     1
102
RTVSPropertyOp39
 70
     1
102
RTVSPropertyOp40
 70
     1
102
RTVSPropertyOp41
 70
     1
102
RTVSPropertyOp42
 70
     1
102
RTVSPropertyOp43
 70
     1
102
RTVSPropertyOp44
 70
     1
102
RTVSPropertyOp45
 70
     1
102
RTVSPropertyOp46
 70
     1
102
RTVSPropertyOp47
 70
     1
102
RTVSPropertyOp48
 70
     1
102
RTVSPropertyOp49
 70
     1
102
RTVSPropertyOp50
 70
     1
102
RTVSPropertyOp51
 70
     0
102
RTVSPropertyOp52
 70
     0
102
RTVSPropertyOp53
 70
     1
102
RTVSPropertyOp54
 70
     1
102
RTVSPropertyOp55
 70
     1
102
RTVSPropertyOp56
 70
     1
102
RTVSPropertyOp57
 70
     1
102
RTVSPropertyOp58
 70
     1
102
RTVSPropertyOp59
 70
     1
102
RTVSPropertyOp60
 70
     1
102
RTVSPropertyOp61
 70
     1
102
RTVSPropertyOp62
 70
     1
  0
XRECORD
  5
773
102
{ACAD_REACTORS
330
772
102
}
330
772
100
AcDbXrecord
280
     1
102
RTVSPost2010Prop28
280
     0
102
RTVSPost2010PropOp28
 70
     1
102
RTVSPost2010Prop29
280
     1
102
RTVSPost2010PropOp29
 70
     1
102
RTVSPost2010Prop30
280
     1
102
RTVSPost2010PropOp30
 70
     1
102
RTVSPost2010Prop31
280
     0
102
RTVSPost2010PropOp31
 70
     1
102
RTVSPost2010Prop32
280
     0
102
RTVSPost2010PropOp32
 70
     1
102
RTVSPost2010Prop33
280
     0
102
RTVSPost2010PropOp33
 70
     1
102
RTVSPost2010Prop34
280
     0
102
RTVSPost2010PropOp34
 70
     1
102
RTVSPost2010Prop35
280
     0
102
RTVSPost2010PropOp35
 70
     1
102
RTVSPost2010Prop36
280
     0
102
RTVSPost2010PropOp36
 70
     1
102
RTVSPost2010Prop37
 90
       50
102
RTVSPost2010PropOp37
 70
     1
102
RTVSPost2010Prop38
140
0.0
102
RTVSPost2010PropOp38
 70
     1
102
RTVSPost2010Prop39
140
1.0
102
RTVSPost2010PropOp39
 70
     1
102
RTVSPost2010Prop40
 90
        0
102
RTVSPost2010PropOp40
 70
     1
102
RTVSPost2010Prop41ColorIndex
 90
       18
102
RTVSPost2010Prop41ColorRGB
 90
        0
102
RTVSPost2010PropOp41
 70
     1
102
RTVSPost2010Prop42
 90
       50
102
RTVSPost2010PropOp42
 70
     1
102
RTVSPost2010Prop43
 90
        3
102
RTVSPost2010PropOp43
 70
     1
102
RTVSPost2010Prop44ColorIndex
 90
        5
102
RTVSPost2010Prop44ColorRGB
 90
      255
102
RTVSPost2010PropOp44
 70
     1
102
RTVSPost2010Prop45
280
     0
102
RTVSPost2010PropOp45
 70
     1
102
RTVSPost2010Prop46
 90
       50
102
RTVSPost2010PropOp46
 70
     1
102
RTVSPost2010Prop47
 90
       50
102
RTVSPost2010PropOp47
 70
     1
102
RTVSPost2010Prop48
 90
       50
102
RTVSPost2010PropOp48
 70
     1
102
RTVSPost2010Prop49
280
     0
102
RTVSPost2010PropOp49
 70
     1
102
RTVSPost2010Prop50
 90
       50
102
RTVSPost2010PropOp50
 70
     1
102
RTVSPost2010Prop51ColorIndex
 90
      256
102
RTVSPost2010Prop51ColorRGB
 90
-16777216
102
RTVSPost2010PropOp51
 70
     0
102
RTVSPost2010Prop52
140
1.0
102
RTVSPost2010PropOp52
 70
     0
102
RTVSPost2010Prop53
 90
        2
102
RTVSPost2010PropOp53
 70
     1
102
RTVSPost2010Prop54
  1
strokes_ogs.tif
102
RTVSPost2010PropOp54
 70
     1
102
RTVSPost2010Prop55
280
     0
102
RTVSPost2010PropOp55
 70
     1
102
RTVSPost2010Prop56
140
1.0
102
RTVSPost2010PropOp56
 70
     1
102
RTVSPost2010Prop57
140
1.0
102
RTVSPost2010PropOp57
 70
     1
102
RTVSPropertyOp0
 70
     1
102
RTVSPropertyOp1
 70
     1
102
RTVSPropertyOp2
 70
     1
102
RTVSPropertyOp3
 70
     1
102
RTVSPropertyOp4
 70
     1
102
RTVSPropertyOp5
 70
     1
102
RTVSPropertyOp6
 70
     1
102
RTVSPropertyOp7
 70
     1
102
RTVSPropertyOp8
 70
     1
102
RTVSPropertyOp9
 70
     1
102
RTVSPropertyOp10
 70
     1
102
RTVSPropertyOp11
 70
     1
102
RTVSPropertyOp12
 70
     1
102
RTVSPropertyOp13
 70
     1
102
RTVSPropertyOp14
 70
     1
102
RTVSPropertyOp15
 70
     1
102
RTVSPropertyOp16
 70
     1
102
RTVSPropertyOp17
 70
     1
102
RTVSPropertyOp18
 70
     1
102
RTVSPropertyOp19
 70
     1
102
RTVSPropertyOp20
 70
     1
102
RTVSPropertyOp21
 70
     1
102
RTVSPropertyOp22
 70
     1
102
RTVSPropertyOp23
 70
     1
102
RTVSPropertyOp24
 70
     1
102
RTVSPropertyOp25
 70
     1
102
RTVSPropertyOp26
 70
     1
102
RTVSPropertyOp27
 70
     1
102
RTVSPropertyOp28
 70
     1
102
RTVSPropertyOp29
 70
     1
102
RTVSPropertyOp30
 70
     1
102
RTVSPropertyOp31
 70
     1
102
RTVSPropertyOp32
 70
     1
102
RTVSPropertyOp33
 70
     1
102
RTVSPropertyOp34
 70
     1
102
RTVSPropertyOp35
 70
     1
102
RTVSPropertyOp36
 70
     1
102
RTVSPropertyOp37
 70
     1
102
RTVSPropertyOp38
 70
     1
102
RTVSPropertyOp39
 70
     1
102
RTVSPropertyOp40
 70
     1
102
RTVSPropertyOp41
 70
     1
102
RTVSPropertyOp42
 70
     1
102
RTVSPropertyOp43
 70
     1
102
RTVSPropertyOp44
 70
     1
102
RTVSPropertyOp45
 70
     1
102
RTVSPropertyOp46
 70
     1
102
RTVSPropertyOp47
 70
     1
102
RTVSPropertyOp48
 70
     1
102
RTVSPropertyOp49
 70
     1
102
RTVSPropertyOp50
 70
     1
102
RTVSPropertyOp51
 70
     0
102
RTVSPropertyOp52
 70
     0
102
RTVSPropertyOp53
 70
     1
102
RTVSPropertyOp54
 70
     1
102
RTVSPropertyOp55
 70
     1
102
RTVSPropertyOp56
 70
     1
102
RTVSPropertyOp57
 70
     1
102
RTVSPropertyOp58
 70
     1
102
RTVSPropertyOp59
 70
     1
102
RTVSPropertyOp60
 70
     1
102
RTVSPropertyOp61
 70
     1
102
RTVSPropertyOp62
 70
     1
  0
XRECORD
  5
777
102
{ACAD_REACTORS
330
776
102
}
330
776
100
AcDbXrecord
280
     1
102
RTVSPost2010Prop28
280
     0
102
RTVSPost2010PropOp28
 70
     1
102
RTVSPost2010Prop29
280
     1
102
RTVSPost2010PropOp29
 70
     1
102
RTVSPost2010Prop30
280
     1
102
RTVSPost2010PropOp30
 70
     1
102
RTVSPost2010Prop31
280
     0
102
RTVSPost2010PropOp31
 70
     1
102
RTVSPost2010Prop32
280
     0
102
RTVSPost2010PropOp32
 70
     1
102
RTVSPost2010Prop33
280
     0
102
RTVSPost2010PropOp33
 70
     1
102
RTVSPost2010Prop34
280
     0
102
RTVSPost2010PropOp34
 70
     1
102
RTVSPost2010Prop35
280
     0
102
RTVSPost2010PropOp35
 70
     1
102
RTVSPost2010Prop36
280
     0
102
RTVSPost2010PropOp36
 70
     1
102
RTVSPost2010Prop37
 90
       50
102
RTVSPost2010PropOp37
 70
     1
102
RTVSPost2010Prop38
140
0.0
102
RTVSPost2010PropOp38
 70
     1
102
RTVSPost2010Prop39
140
1.0
102
RTVSPost2010PropOp39
 70
     1
102
RTVSPost2010Prop40
 90
        0
102
RTVSPost2010PropOp40
 70
     1
102
RTVSPost2010Prop41ColorIndex
 90
       18
102
RTVSPost2010Prop41ColorRGB
 90
        0
102
RTVSPost2010PropOp41
 70
     1
102
RTVSPost2010Prop42
 90
       50
102
RTVSPost2010PropOp42
 70
     1
102
RTVSPost2010Prop43
 90
        3
102
RTVSPost2010PropOp43
 70
     1
102
RTVSPost2010Prop44ColorIndex
 90
        5
102
RTVSPost2010Prop44ColorRGB
 90
      255
102
RTVSPost2010PropOp44
 70
     1
102
RTVSPost2010Prop45
280
     0
102
RTVSPost2010PropOp45
 70
     1
102
RTVSPost2010Prop46
 90
       50
102
RTVSPost2010PropOp46
 70
     1
102
RTVSPost2010Prop47
 90
       50
102
RTVSPost2010PropOp47
 70
     1
102
RTVSPost2010Prop48
 90
       50
102
RTVSPost2010PropOp48
 70
     1
102
RTVSPost2010Prop49
280
     0
102
RTVSPost2010PropOp49
 70
     1
102
RTVSPost2010Prop50
 90
       50
102
RTVSPost2010PropOp50
 70
     1
102
RTVSPost2010Prop51ColorIndex
 90
      256
102
RTVSPost2010Prop51ColorRGB
 90
-16777216
102
RTVSPost2010PropOp51
 70
     0
102
RTVSPost2010Prop52
140
1.0
102
RTVSPost2010PropOp52
 70
     0
102
RTVSPost2010Prop53
 90
        2
102
RTVSPost2010PropOp53
 70
     1
102
RTVSPost2010Prop54
  1
strokes_ogs.tif
102
RTVSPost2010PropOp54
 70
     1
102
RTVSPost2010Prop55
280
     0
102
RTVSPost2010PropOp55
 70
     1
102
RTVSPost2010Prop56
140
1.0
102
RTVSPost2010PropOp56
 70
     1
102
RTVSPost2010Prop57
140
1.0
102
RTVSPost2010PropOp57
 70
     1
102
RTVSPropertyOp0
 70
     1
102
RTVSPropertyOp1
 70
     1
102
RTVSPropertyOp2
 70
     1
102
RTVSPropertyOp3
 70
     1
102
RTVSPropertyOp4
 70
     1
102
RTVSPropertyOp5
 70
     1
102
RTVSPropertyOp6
 70
     1
102
RTVSPropertyOp7
 70
     1
102
RTVSPropertyOp8
 70
     1
102
RTVSPropertyOp9
 70
     1
102
RTVSPropertyOp10
 70
     1
102
RTVSPropertyOp11
 70
     1
102
RTVSPropertyOp12
 70
     1
102
RTVSPropertyOp13
 70
     1
102
RTVSPropertyOp14
 70
     1
102
RTVSPropertyOp15
 70
     1
102
RTVSPropertyOp16
 70
     1
102
RTVSPropertyOp17
 70
     1
102
RTVSPropertyOp18
 70
     1
102
RTVSPropertyOp19
 70
     1
102
RTVSPropertyOp20
 70
     1
102
RTVSPropertyOp21
 70
     1
102
RTVSPropertyOp22
 70
     1
102
RTVSPropertyOp23
 70
     1
102
RTVSPropertyOp24
 70
     1
102
RTVSPropertyOp25
 70
     1
102
RTVSPropertyOp26
 70
     1
102
RTVSPropertyOp27
 70
     1
102
RTVSPropertyOp28
 70
     1
102
RTVSPropertyOp29
 70
     1
102
RTVSPropertyOp30
 70
     1
102
RTVSPropertyOp31
 70
     1
102
RTVSPropertyOp32
 70
     1
102
RTVSPropertyOp33
 70
     1
102
RTVSPropertyOp34
 70
     1
102
RTVSPropertyOp35
 70
     1
102
RTVSPropertyOp36
 70
     1
102
RTVSPropertyOp37
 70
     1
102
RTVSPropertyOp38
 70
     1
102
RTVSPropertyOp39
 70
     1
102
RTVSPropertyOp40
 70
     1
102
RTVSPropertyOp41
 70
     1
102
RTVSPropertyOp42
 70
     1
102
RTVSPropertyOp43
 70
     1
102
RTVSPropertyOp44
 70
     1
102
RTVSPropertyOp45
 70
     1
102
RTVSPropertyOp46
 70
     1
102
RTVSPropertyOp47
 70
     1
102
RTVSPropertyOp48
 70
     1
102
RTVSPropertyOp49
 70
     1
102
RTVSPropertyOp50
 70
     1
102
RTVSPropertyOp51
 70
     0
102
RTVSPropertyOp52
 70
     0
102
RTVSPropertyOp53
 70
     1
102
RTVSPropertyOp54
 70
     1
102
RTVSPropertyOp55
 70
     1
102
RTVSPropertyOp56
 70
     1
102
RTVSPropertyOp57
 70
     1
102
RTVSPropertyOp58
 70
     1
102
RTVSPropertyOp59
 70
     1
102
RTVSPropertyOp60
 70
     1
102
RTVSPropertyOp61
 70
     1
102
RTVSPropertyOp62
 70
     1
  0
XRECORD
  5
791
102
{ACAD_REACTORS
330
790
102
}
330
790
100
AcDbXrecord
280
     1
102
RTVSPost2010Prop28
280
     0
102
RTVSPost2010PropOp28
 70
     0
102
RTVSPost2010Prop29
280
     1
102
RTVSPost2010PropOp29
 70
     0
102
RTVSPost2010Prop30
280
     1
102
RTVSPost2010PropOp30
 70
     0
102
RTVSPost2010Prop31
280
     0
102
RTVSPost2010PropOp31
 70
     0
102
RTVSPost2010Prop32
280
     0
102
RTVSPost2010PropOp32
 70
     0
102
RTVSPost2010Prop33
280
     0
102
RTVSPost2010PropOp33
 70
     0
102
RTVSPost2010Prop34
280
     0
102
RTVSPost2010PropOp34
 70
     0
102
RTVSPost2010Prop35
280
     0
102
RTVSPost2010PropOp35
 70
     0
102
RTVSPost2010Prop36
280
     0
102
RTVSPost2010PropOp36
 70
     0
102
RTVSPost2010Prop37
 90
       50
102
RTVSPost2010PropOp37
 70
     0
102
RTVSPost2010Prop38
140
0.0
102
RTVSPost2010PropOp38
 70
     0
102
RTVSPost2010Prop39
140
1.0
102
RTVSPost2010PropOp39
 70
     0
102
RTVSPost2010Prop40
 90
        0
102
RTVSPost2010PropOp40
 70
     0
102
RTVSPost2010Prop41ColorIndex
 90
       18
102
RTVSPost2010Prop41ColorRGB
 90
        0
102
RTVSPost2010PropOp41
 70
     0
102
RTVSPost2010Prop42
 90
       50
102
RTVSPost2010PropOp42
 70
     0
102
RTVSPost2010Prop43
 90
        3
102
RTVSPost2010PropOp43
 70
     0
102
RTVSPost2010Prop44ColorIndex
 90
        5
102
RTVSPost2010Prop44ColorRGB
 90
      255
102
RTVSPost2010PropOp44
 70
     0
102
RTVSPost2010Prop45
280
     0
102
RTVSPost2010PropOp45
 70
     0
102
RTVSPost2010Prop46
 90
       50
102
RTVSPost2010PropOp46
 70
     0
102
RTVSPost2010Prop47
 90
       50
102
RTVSPost2010PropOp47
 70
     0
102
RTVSPost2010Prop48
 90
       50
102
RTVSPost2010PropOp48
 70
     0
102
RTVSPost2010Prop49
280
     0
102
RTVSPost2010PropOp49
 70
     0
102
RTVSPost2010Prop50
 90
       50
102
RTVSPost2010PropOp50
 70
     0
102
RTVSPost2010Prop51ColorIndex
 90
      256
102
RTVSPost2010Prop51ColorRGB
 90
-16777216
102
RTVSPost2010PropOp51
 70
     0
102
RTVSPost2010Prop52
140
1.0
102
RTVSPost2010PropOp52
 70
     0
102
RTVSPost2010Prop53
 90
        2
102
RTVSPost2010PropOp53
 70
     0
102
RTVSPost2010Prop54
  1
strokes_ogs.tif
102
RTVSPost2010PropOp54
 70
     0
102
RTVSPost2010Prop55
280
     0
102
RTVSPost2010PropOp55
 70
     0
102
RTVSPost2010Prop56
140
1.0
102
RTVSPost2010PropOp56
 70
     0
102
RTVSPost2010Prop57
140
1.0
102
RTVSPost2010PropOp57
 70
     0
102
RTVSPropertyOp0
 70
     0
102
RTVSPropertyOp1
 70
     0
102
RTVSPropertyOp2
 70
     0
102
RTVSPropertyOp3
 70
     0
102
RTVSPropertyOp4
 70
     0
102
RTVSPropertyOp5
 70
     0
102
RTVSPropertyOp6
 70
     0
102
RTVSPropertyOp7
 70
     0
102
RTVSPropertyOp8
 70
     0
102
RTVSPropertyOp9
 70
     0
102
RTVSPropertyOp10
 70
     0
102
RTVSPropertyOp11
 70
     0
102
RTVSPropertyOp12
 70
     0
102
RTVSPropertyOp13
 70
     0
102
RTVSPropertyOp14
 70
     2
102
RTVSPropertyOp15
 70
     0
102
RTVSPropertyOp16
 70
     0
102
RTVSPropertyOp17
 70
     0
102
RTVSPropertyOp18
 70
     0
102
RTVSPropertyOp19
 70
     0
102
RTVSPropertyOp20
 70
     0
102
RTVSPropertyOp21
 70
     0
102
RTVSPropertyOp22
 70
     0
102
RTVSPropertyOp23
 70
     0
102
RTVSPropertyOp24
 70
     0
102
RTVSPropertyOp25
 70
     0
102
RTVSPropertyOp26
 70
     0
102
RTVSPropertyOp27
 70
     0
102
RTVSPropertyOp28
 70
     0
102
RTVSPropertyOp29
 70
     0
102
RTVSPropertyOp30
 70
     0
102
RTVSPropertyOp31
 70
     0
102
RTVSPropertyOp32
 70
     0
102
RTVSPropertyOp33
 70
     0
102
RTVSPropertyOp34
 70
     0
102
RTVSPropertyOp35
 70
     0
102
RTVSPropertyOp36
 70
     0
102
RTVSPropertyOp37
 70
     0
102
RTVSPropertyOp38
 70
     0
102
RTVSPropertyOp39
 70
     0
102
RTVSPropertyOp40
 70
     0
102
RTVSPropertyOp41
 70
     0
102
RTVSPropertyOp42
 70
     0
102
RTVSPropertyOp43
 70
     0
102
RTVSPropertyOp44
 70
     0
102
RTVSPropertyOp45
 70
     0
102
RTVSPropertyOp46
 70
     0
102
RTVSPropertyOp47
 70
     0
102
RTVSPropertyOp48
 70
     0
102
RTVSPropertyOp49
 70
     0
102
RTVSPropertyOp50
 70
     0
102
RTVSPropertyOp51
 70
     0
102
RTVSPropertyOp52
 70
     0
102
RTVSPropertyOp53
 70
     0
102
RTVSPropertyOp54
 70
     0
102
RTVSPropertyOp55
 70
     0
102
RTVSPropertyOp56
 70
     0
102
RTVSPropertyOp57
 70
     0
102
RTVSPropertyOp58
 70
     1
102
RTVSPropertyOp59
 70
     1
102
RTVSPropertyOp60
 70
     1
102
RTVSPropertyOp61
 70
     1
102
RTVSPropertyOp62
 70
     1
  0
XRECORD
  5
77F
102
{ACAD_REACTORS
330
77E
102
}
330
77E
100
AcDbXrecord
280
     1
102
RTVSPost2010Prop28
280
     0
102
RTVSPost2010PropOp28
 70
     1
102
RTVSPost2010Prop29
280
     1
102
RTVSPost2010PropOp29
 70
     1
102
RTVSPost2010Prop30
280
     1
102
RTVSPost2010PropOp30
 70
     1
102
RTVSPost2010Prop31
280
     0
102
RTVSPost2010PropOp31
 70
     1
102
RTVSPost2010Prop32
280
     0
102
RTVSPost2010PropOp32
 70
     1
102
RTVSPost2010Prop33
280
     0
102
RTVSPost2010PropOp33
 70
     1
102
RTVSPost2010Prop34
280
     0
102
RTVSPost2010PropOp34
 70
     1
102
RTVSPost2010Prop35
280
     0
102
RTVSPost2010PropOp35
 70
     1
102
RTVSPost2010Prop36
280
     0
102
RTVSPost2010PropOp36
 70
     1
102
RTVSPost2010Prop37
 90
       50
102
RTVSPost2010PropOp37
 70
     1
102
RTVSPost2010Prop38
140
0.0
102
RTVSPost2010PropOp38
 70
     1
102
RTVSPost2010Prop39
140
1.0
102
RTVSPost2010PropOp39
 70
     1
102
RTVSPost2010Prop40
 90
        0
102
RTVSPost2010PropOp40
 70
     1
102
RTVSPost2010Prop41ColorIndex
 90
       18
102
RTVSPost2010Prop41ColorRGB
 90
        0
102
RTVSPost2010PropOp41
 70
     1
102
RTVSPost2010Prop42
 90
       50
102
RTVSPost2010PropOp42
 70
     1
102
RTVSPost2010Prop43
 90
        3
102
RTVSPost2010PropOp43
 70
     1
102
RTVSPost2010Prop44ColorIndex
 90
        5
102
RTVSPost2010Prop44ColorRGB
 90
      255
102
RTVSPost2010PropOp44
 70
     1
102
RTVSPost2010Prop45
280
     0
102
RTVSPost2010PropOp45
 70
     1
102
RTVSPost2010Prop46
 90
       50
102
RTVSPost2010PropOp46
 70
     1
102
RTVSPost2010Prop47
 90
       50
102
RTVSPost2010PropOp47
 70
     1
102
RTVSPost2010Prop48
 90
       50
102
RTVSPost2010PropOp48
 70
     1
102
RTVSPost2010Prop49
280
     0
102
RTVSPost2010PropOp49
 70
     1
102
RTVSPost2010Prop50
 90
       50
102
RTVSPost2010PropOp50
 70
     1
102
RTVSPost2010Prop51ColorIndex
 90
      256
102
RTVSPost2010Prop51ColorRGB
 90
-16777216
102
RTVSPost2010PropOp51
 70
     0
102
RTVSPost2010Prop52
140
1.0
102
RTVSPost2010PropOp52
 70
     0
102
RTVSPost2010Prop53
 90
        2
102
RTVSPost2010PropOp53
 70
     1
102
RTVSPost2010Prop54
  1
strokes_ogs.tif
102
RTVSPost2010PropOp54
 70
     1
102
RTVSPost2010Prop55
280
     0
102
RTVSPost2010PropOp55
 70
     1
102
RTVSPost2010Prop56
140
1.0
102
RTVSPost2010PropOp56
 70
     1
102
RTVSPost2010Prop57
140
1.0
102
RTVSPost2010PropOp57
 70
     1
102
RTVSPropertyOp0
 70
     1
102
RTVSPropertyOp1
 70
     1
102
RTVSPropertyOp2
 70
     1
102
RTVSPropertyOp3
 70
     1
102
RTVSPropertyOp4
 70
     1
102
RTVSPropertyOp5
 70
     1
102
RTVSPropertyOp6
 70
     1
102
RTVSPropertyOp7
 70
     1
102
RTVSPropertyOp8
 70
     1
102
RTVSPropertyOp9
 70
     1
102
RTVSPropertyOp10
 70
     1
102
RTVSPropertyOp11
 70
     1
102
RTVSPropertyOp12
 70
     1
102
RTVSPropertyOp13
 70
     1
102
RTVSPropertyOp14
 70
     1
102
RTVSPropertyOp15
 70
     1
102
RTVSPropertyOp16
 70
     1
102
RTVSPropertyOp17
 70
     1
102
RTVSPropertyOp18
 70
     1
102
RTVSPropertyOp19
 70
     1
102
RTVSPropertyOp20
 70
     1
102
RTVSPropertyOp21
 70
     1
102
RTVSPropertyOp22
 70
     1
102
RTVSPropertyOp23
 70
     1
102
RTVSPropertyOp24
 70
     1
102
RTVSPropertyOp25
 70
     1
102
RTVSPropertyOp26
 70
     1
102
RTVSPropertyOp27
 70
     1
102
RTVSPropertyOp28
 70
     1
102
RTVSPropertyOp29
 70
     1
102
RTVSPropertyOp30
 70
     1
102
RTVSPropertyOp31
 70
     1
102
RTVSPropertyOp32
 70
     1
102
RTVSPropertyOp33
 70
     1
102
RTVSPropertyOp34
 70
     1
102
RTVSPropertyOp35
 70
     1
102
RTVSPropertyOp36
 70
     1
102
RTVSPropertyOp37
 70
     1
102
RTVSPropertyOp38
 70
     1
102
RTVSPropertyOp39
 70
     1
102
RTVSPropertyOp40
 70
     1
102
RTVSPropertyOp41
 70
     1
102
RTVSPropertyOp42
 70
     1
102
RTVSPropertyOp43
 70
     1
102
RTVSPropertyOp44
 70
     1
102
RTVSPropertyOp45
 70
     1
102
RTVSPropertyOp46
 70
     1
102
RTVSPropertyOp47
 70
     1
102
RTVSPropertyOp48
 70
     1
102
RTVSPropertyOp49
 70
     1
102
RTVSPropertyOp50
 70
     1
102
RTVSPropertyOp51
 70
     0
102
RTVSPropertyOp52
 70
     0
102
RTVSPropertyOp53
 70
     1
102
RTVSPropertyOp54
 70
     1
102
RTVSPropertyOp55
 70
     1
102
RTVSPropertyOp56
 70
     1
102
RTVSPropertyOp57
 70
     1
102
RTVSPropertyOp58
 70
     1
102
RTVSPropertyOp59
 70
     1
102
RTVSPropertyOp60
 70
     1
102
RTVSPropertyOp61
 70
     1
102
RTVSPropertyOp62
 70
     1
  0
XRECORD
  5
763
102
{ACAD_REACTORS
330
762
102
}
330
762
100
AcDbXrecord
280
     1
102
RTVSPost2010Prop28
280
     0
102
RTVSPost2010PropOp28
 70
     1
102
RTVSPost2010Prop29
280
     1
102
RTVSPost2010PropOp29
 70
     1
102
RTVSPost2010Prop30
280
     1
102
RTVSPost2010PropOp30
 70
     1
102
RTVSPost2010Prop31
280
     0
102
RTVSPost2010PropOp31
 70
     1
102
RTVSPost2010Prop32
280
     0
102
RTVSPost2010PropOp32
 70
     1
102
RTVSPost2010Prop33
280
     0
102
RTVSPost2010PropOp33
 70
     1
102
RTVSPost2010Prop34
280
     0
102
RTVSPost2010PropOp34
 70
     1
102
RTVSPost2010Prop35
280
     0
102
RTVSPost2010PropOp35
 70
     1
102
RTVSPost2010Prop36
280
     0
102
RTVSPost2010PropOp36
 70
     1
102
RTVSPost2010Prop37
 90
       50
102
RTVSPost2010PropOp37
 70
     1
102
RTVSPost2010Prop38
140
0.0
102
RTVSPost2010PropOp38
 70
     1
102
RTVSPost2010Prop39
140
1.0
102
RTVSPost2010PropOp39
 70
     1
102
RTVSPost2010Prop40
 90
        0
102
RTVSPost2010PropOp40
 70
     1
102
RTVSPost2010Prop41ColorIndex
 90
       18
102
RTVSPost2010Prop41ColorRGB
 90
        0
102
RTVSPost2010PropOp41
 70
     1
102
RTVSPost2010Prop42
 90
       50
102
RTVSPost2010PropOp42
 70
     1
102
RTVSPost2010Prop43
 90
        3
102
RTVSPost2010PropOp43
 70
     1
102
RTVSPost2010Prop44ColorIndex
 90
        5
102
RTVSPost2010Prop44ColorRGB
 90
      255
102
RTVSPost2010PropOp44
 70
     1
102
RTVSPost2010Prop45
280
     0
102
RTVSPost2010PropOp45
 70
     1
102
RTVSPost2010Prop46
 90
       50
102
RTVSPost2010PropOp46
 70
     1
102
RTVSPost2010Prop47
 90
       50
102
RTVSPost2010PropOp47
 70
     1
102
RTVSPost2010Prop48
 90
       50
102
RTVSPost2010PropOp48
 70
     1
102
RTVSPost2010Prop49
280
     0
102
RTVSPost2010PropOp49
 70
     1
102
RTVSPost2010Prop50
 90
       50
102
RTVSPost2010PropOp50
 70
     1
102
RTVSPost2010Prop51ColorIndex
 90
      256
102
RTVSPost2010Prop51ColorRGB
 90
-16777216
102
RTVSPost2010PropOp51
 70
     0
102
RTVSPost2010Prop52
140
1.0
102
RTVSPost2010PropOp52
 70
     0
102
RTVSPost2010Prop53
 90
        2
102
RTVSPost2010PropOp53
 70
     1
102
RTVSPost2010Prop54
  1
strokes_ogs.tif
102
RTVSPost2010PropOp54
 70
     1
102
RTVSPost2010Prop55
280
     0
102
RTVSPost2010PropOp55
 70
     1
102
RTVSPost2010Prop56
140
1.0
102
RTVSPost2010PropOp56
 70
     1
102
RTVSPost2010Prop57
140
1.0
102
RTVSPost2010PropOp57
 70
     1
102
RTVSPropertyOp0
 70
     1
102
RTVSPropertyOp1
 70
     1
102
RTVSPropertyOp2
 70
     1
102
RTVSPropertyOp3
 70
     1
102
RTVSPropertyOp4
 70
     1
102
RTVSPropertyOp5
 70
     1
102
RTVSPropertyOp6
 70
     1
102
RTVSPropertyOp7
 70
     1
102
RTVSPropertyOp8
 70
     1
102
RTVSPropertyOp9
 70
     1
102
RTVSPropertyOp10
 70
     1
102
RTVSPropertyOp11
 70
     1
102
RTVSPropertyOp12
 70
     1
102
RTVSPropertyOp13
 70
     1
102
RTVSPropertyOp14
 70
     1
102
RTVSPropertyOp15
 70
     1
102
RTVSPropertyOp16
 70
     1
102
RTVSPropertyOp17
 70
     1
102
RTVSPropertyOp18
 70
     1
102
RTVSPropertyOp19
 70
     1
102
RTVSPropertyOp20
 70
     1
102
RTVSPropertyOp21
 70
     1
102
RTVSPropertyOp22
 70
     1
102
RTVSPropertyOp23
 70
     1
102
RTVSPropertyOp24
 70
     1
102
RTVSPropertyOp25
 70
     1
102
RTVSPropertyOp26
 70
     1
102
RTVSPropertyOp27
 70
     1
102
RTVSPropertyOp28
 70
     1
102
RTVSPropertyOp29
 70
     1
102
RTVSPropertyOp30
 70
     1
102
RTVSPropertyOp31
 70
     1
102
RTVSPropertyOp32
 70
     1
102
RTVSPropertyOp33
 70
     1
102
RTVSPropertyOp34
 70
     1
102
RTVSPropertyOp35
 70
     1
102
RTVSPropertyOp36
 70
     1
102
RTVSPropertyOp37
 70
     1
102
RTVSPropertyOp38
 70
     1
102
RTVSPropertyOp39
 70
     1
102
RTVSPropertyOp40
 70
     1
102
RTVSPropertyOp41
 70
     1
102
RTVSPropertyOp42
 70
     1
102
RTVSPropertyOp43
 70
     1
102
RTVSPropertyOp44
 70
     1
102
RTVSPropertyOp45
 70
     1
102
RTVSPropertyOp46
 70
     1
102
RTVSPropertyOp47
 70
     1
102
RTVSPropertyOp48
 70
     1
102
RTVSPropertyOp49
 70
     1
102
RTVSPropertyOp50
 70
     1
102
RTVSPropertyOp51
 70
     0
102
RTVSPropertyOp52
 70
     0
102
RTVSPropertyOp53
 70
     1
102
RTVSPropertyOp54
 70
     1
102
RTVSPropertyOp55
 70
     1
102
RTVSPropertyOp56
 70
     1
102
RTVSPropertyOp57
 70
     1
102
RTVSPropertyOp58
 70
     1
102
RTVSPropertyOp59
 70
     1
102
RTVSPropertyOp60
 70
     1
102
RTVSPropertyOp61
 70
     1
102
RTVSPropertyOp62
 70
     1
  0
XRECORD
  5
765
102
{ACAD_REACTORS
330
764
102
}
330
764
100
AcDbXrecord
280
     1
102
RTVSPost2010Prop28
280
     0
102
RTVSPost2010PropOp28
 70
     1
102
RTVSPost2010Prop29
280
     1
102
RTVSPost2010PropOp29
 70
     1
102
RTVSPost2010Prop30
280
     1
102
RTVSPost2010PropOp30
 70
     1
102
RTVSPost2010Prop31
280
     0
102
RTVSPost2010PropOp31
 70
     1
102
RTVSPost2010Prop32
280
     0
102
RTVSPost2010PropOp32
 70
     1
102
RTVSPost2010Prop33
280
     0
102
RTVSPost2010PropOp33
 70
     1
102
RTVSPost2010Prop34
280
     0
102
RTVSPost2010PropOp34
 70
     1
102
RTVSPost2010Prop35
280
     0
102
RTVSPost2010PropOp35
 70
     1
102
RTVSPost2010Prop36
280
     0
102
RTVSPost2010PropOp36
 70
     1
102
RTVSPost2010Prop37
 90
       50
102
RTVSPost2010PropOp37
 70
     1
102
RTVSPost2010Prop38
140
0.0
102
RTVSPost2010PropOp38
 70
     1
102
RTVSPost2010Prop39
140
1.0
102
RTVSPost2010PropOp39
 70
     1
102
RTVSPost2010Prop40
 90
        0
102
RTVSPost2010PropOp40
 70
     1
102
RTVSPost2010Prop41ColorIndex
 90
       18
102
RTVSPost2010Prop41ColorRGB
 90
        0
102
RTVSPost2010PropOp41
 70
     1
102
RTVSPost2010Prop42
 90
       50
102
RTVSPost2010PropOp42
 70
     1
102
RTVSPost2010Prop43
 90
        3
102
RTVSPost2010PropOp43
 70
     1
102
RTVSPost2010Prop44ColorIndex
 90
        5
102
RTVSPost2010Prop44ColorRGB
 90
      255
102
RTVSPost2010PropOp44
 70
     1
102
RTVSPost2010Prop45
280
     0
102
RTVSPost2010PropOp45
 70
     1
102
RTVSPost2010Prop46
 90
       50
102
RTVSPost2010PropOp46
 70
     1
102
RTVSPost2010Prop47
 90
       50
102
RTVSPost2010PropOp47
 70
     1
102
RTVSPost2010Prop48
 90
       50
102
RTVSPost2010PropOp48
 70
     1
102
RTVSPost2010Prop49
280
     0
102
RTVSPost2010PropOp49
 70
     1
102
RTVSPost2010Prop50
 90
       50
102
RTVSPost2010PropOp50
 70
     1
102
RTVSPost2010Prop51ColorIndex
 90
      256
102
RTVSPost2010Prop51ColorRGB
 90
-16777216
102
RTVSPost2010PropOp51
 70
     0
102
RTVSPost2010Prop52
140
1.0
102
RTVSPost2010PropOp52
 70
     0
102
RTVSPost2010Prop53
 90
        2
102
RTVSPost2010PropOp53
 70
     1
102
RTVSPost2010Prop54
  1
strokes_ogs.tif
102
RTVSPost2010PropOp54
 70
     1
102
RTVSPost2010Prop55
280
     0
102
RTVSPost2010PropOp55
 70
     1
102
RTVSPost2010Prop56
140
1.0
102
RTVSPost2010PropOp56
 70
     1
102
RTVSPost2010Prop57
140
1.0
102
RTVSPost2010PropOp57
 70
     1
102
RTVSPropertyOp0
 70
     1
102
RTVSPropertyOp1
 70
     1
102
RTVSPropertyOp2
 70
     1
102
RTVSPropertyOp3
 70
     1
102
RTVSPropertyOp4
 70
     1
102
RTVSPropertyOp5
 70
     1
102
RTVSPropertyOp6
 70
     1
102
RTVSPropertyOp7
 70
     1
102
RTVSPropertyOp8
 70
     1
102
RTVSPropertyOp9
 70
     1
102
RTVSPropertyOp10
 70
     1
102
RTVSPropertyOp11
 70
     1
102
RTVSPropertyOp12
 70
     1
102
RTVSPropertyOp13
 70
     1
102
RTVSPropertyOp14
 70
     1
102
RTVSPropertyOp15
 70
     1
102
RTVSPropertyOp16
 70
     1
102
RTVSPropertyOp17
 70
     1
102
RTVSPropertyOp18
 70
     1
102
RTVSPropertyOp19
 70
     1
102
RTVSPropertyOp20
 70
     1
102
RTVSPropertyOp21
 70
     1
102
RTVSPropertyOp22
 70
     1
102
RTVSPropertyOp23
 70
     1
102
RTVSPropertyOp24
 70
     1
102
RTVSPropertyOp25
 70
     1
102
RTVSPropertyOp26
 70
     1
102
RTVSPropertyOp27
 70
     1
102
RTVSPropertyOp28
 70
     1
102
RTVSPropertyOp29
 70
     1
102
RTVSPropertyOp30
 70
     1
102
RTVSPropertyOp31
 70
     1
102
RTVSPropertyOp32
 70
     1
102
RTVSPropertyOp33
 70
     1
102
RTVSPropertyOp34
 70
     1
102
RTVSPropertyOp35
 70
     1
102
RTVSPropertyOp36
 70
     1
102
RTVSPropertyOp37
 70
     1
102
RTVSPropertyOp38
 70
     1
102
RTVSPropertyOp39
 70
     1
102
RTVSPropertyOp40
 70
     1
102
RTVSPropertyOp41
 70
     1
102
RTVSPropertyOp42
 70
     1
102
RTVSPropertyOp43
 70
     1
102
RTVSPropertyOp44
 70
     1
102
RTVSPropertyOp45
 70
     1
102
RTVSPropertyOp46
 70
     1
102
RTVSPropertyOp47
 70
     1
102
RTVSPropertyOp48
 70
     1
102
RTVSPropertyOp49
 70
     1
102
RTVSPropertyOp50
 70
     1
102
RTVSPropertyOp51
 70
     0
102
RTVSPropertyOp52
 70
     0
102
RTVSPropertyOp53
 70
     1
102
RTVSPropertyOp54
 70
     1
102
RTVSPropertyOp55
 70
     1
102
RTVSPropertyOp56
 70
     1
102
RTVSPropertyOp57
 70
     1
102
RTVSPropertyOp58
 70
     1
102
RTVSPropertyOp59
 70
     1
102
RTVSPropertyOp60
 70
     1
102
RTVSPropertyOp61
 70
     1
102
RTVSPropertyOp62
 70
     1
  0
XRECORD
  5
767
102
{ACAD_REACTORS
330
766
102
}
330
766
100
AcDbXrecord
280
     1
102
RTVSPost2010Prop28
280
     0
102
RTVSPost2010PropOp28
 70
     1
102
RTVSPost2010Prop29
280
     1
102
RTVSPost2010PropOp29
 70
     1
102
RTVSPost2010Prop30
280
     1
102
RTVSPost2010PropOp30
 70
     1
102
RTVSPost2010Prop31
280
     0
102
RTVSPost2010PropOp31
 70
     1
102
RTVSPost2010Prop32
280
     0
102
RTVSPost2010PropOp32
 70
     1
102
RTVSPost2010Prop33
280
     0
102
RTVSPost2010PropOp33
 70
     1
102
RTVSPost2010Prop34
280
     0
102
RTVSPost2010PropOp34
 70
     1
102
RTVSPost2010Prop35
280
     0
102
RTVSPost2010PropOp35
 70
     1
102
RTVSPost2010Prop36
280
     0
102
RTVSPost2010PropOp36
 70
     1
102
RTVSPost2010Prop37
 90
       50
102
RTVSPost2010PropOp37
 70
     1
102
RTVSPost2010Prop38
140
0.0
102
RTVSPost2010PropOp38
 70
     1
102
RTVSPost2010Prop39
140
1.0
102
RTVSPost2010PropOp39
 70
     1
102
RTVSPost2010Prop40
 90
        0
102
RTVSPost2010PropOp40
 70
     1
102
RTVSPost2010Prop41ColorIndex
 90
       18
102
RTVSPost2010Prop41ColorRGB
 90
        0
102
RTVSPost2010PropOp41
 70
     1
102
RTVSPost2010Prop42
 90
       50
102
RTVSPost2010PropOp42
 70
     1
102
RTVSPost2010Prop43
 90
        3
102
RTVSPost2010PropOp43
 70
     1
102
RTVSPost2010Prop44ColorIndex
 90
        5
102
RTVSPost2010Prop44ColorRGB
 90
      255
102
RTVSPost2010PropOp44
 70
     1
102
RTVSPost2010Prop45
280
     0
102
RTVSPost2010PropOp45
 70
     1
102
RTVSPost2010Prop46
 90
       50
102
RTVSPost2010PropOp46
 70
     1
102
RTVSPost2010Prop47
 90
       50
102
RTVSPost2010PropOp47
 70
     1
102
RTVSPost2010Prop48
 90
       50
102
RTVSPost2010PropOp48
 70
     1
102
RTVSPost2010Prop49
280
     0
102
RTVSPost2010PropOp49
 70
     1
102
RTVSPost2010Prop50
 90
       50
102
RTVSPost2010PropOp50
 70
     1
102
RTVSPost2010Prop51ColorIndex
 90
      256
102
RTVSPost2010Prop51ColorRGB
 90
-16777216
102
RTVSPost2010PropOp51
 70
     0
102
RTVSPost2010Prop52
140
1.0
102
RTVSPost2010PropOp52
 70
     0
102
RTVSPost2010Prop53
 90
        2
102
RTVSPost2010PropOp53
 70
     1
102
RTVSPost2010Prop54
  1
strokes_ogs.tif
102
RTVSPost2010PropOp54
 70
     1
102
RTVSPost2010Prop55
280
     0
102
RTVSPost2010PropOp55
 70
     1
102
RTVSPost2010Prop56
140
1.0
102
RTVSPost2010PropOp56
 70
     1
102
RTVSPost2010Prop57
140
1.0
102
RTVSPost2010PropOp57
 70
     1
102
RTVSPropertyOp0
 70
     1
102
RTVSPropertyOp1
 70
     1
102
RTVSPropertyOp2
 70
     1
102
RTVSPropertyOp3
 70
     1
102
RTVSPropertyOp4
 70
     1
102
RTVSPropertyOp5
 70
     1
102
RTVSPropertyOp6
 70
     1
102
RTVSPropertyOp7
 70
     1
102
RTVSPropertyOp8
 70
     1
102
RTVSPropertyOp9
 70
     1
102
RTVSPropertyOp10
 70
     1
102
RTVSPropertyOp11
 70
     1
102
RTVSPropertyOp12
 70
     1
102
RTVSPropertyOp13
 70
     1
102
RTVSPropertyOp14
 70
     1
102
RTVSPropertyOp15
 70
     1
102
RTVSPropertyOp16
 70
     1
102
RTVSPropertyOp17
 70
     1
102
RTVSPropertyOp18
 70
     1
102
RTVSPropertyOp19
 70
     1
102
RTVSPropertyOp20
 70
     1
102
RTVSPropertyOp21
 70
     1
102
RTVSPropertyOp22
 70
     1
102
RTVSPropertyOp23
 70
     1
102
RTVSPropertyOp24
 70
     1
102
RTVSPropertyOp25
 70
     1
102
RTVSPropertyOp26
 70
     1
102
RTVSPropertyOp27
 70
     1
102
RTVSPropertyOp28
 70
     1
102
RTVSPropertyOp29
 70
     1
102
RTVSPropertyOp30
 70
     1
102
RTVSPropertyOp31
 70
     1
102
RTVSPropertyOp32
 70
     1
102
RTVSPropertyOp33
 70
     1
102
RTVSPropertyOp34
 70
     1
102
RTVSPropertyOp35
 70
     1
102
RTVSPropertyOp36
 70
     1
102
RTVSPropertyOp37
 70
     1
102
RTVSPropertyOp38
 70
     1
102
RTVSPropertyOp39
 70
     1
102
RTVSPropertyOp40
 70
     1
102
RTVSPropertyOp41
 70
     1
102
RTVSPropertyOp42
 70
     1
102
RTVSPropertyOp43
 70
     1
102
RTVSPropertyOp44
 70
     1
102
RTVSPropertyOp45
 70
     1
102
RTVSPropertyOp46
 70
     1
102
RTVSPropertyOp47
 70
     1
102
RTVSPropertyOp48
 70
     1
102
RTVSPropertyOp49
 70
     1
102
RTVSPropertyOp50
 70
     1
102
RTVSPropertyOp51
 70
     0
102
RTVSPropertyOp52
 70
     0
102
RTVSPropertyOp53
 70
     1
102
RTVSPropertyOp54
 70
     1
102
RTVSPropertyOp55
 70
     1
102
RTVSPropertyOp56
 70
     1
102
RTVSPropertyOp57
 70
     1
102
RTVSPropertyOp58
 70
     1
102
RTVSPropertyOp59
 70
     1
102
RTVSPropertyOp60
 70
     1
102
RTVSPropertyOp61
 70
     1
102
RTVSPropertyOp62
 70
     1
  0
XRECORD
  5
769
102
{ACAD_REACTORS
330
768
102
}
330
768
100
AcDbXrecord
280
     1
102
RTVSPost2010Prop28
280
     0
102
RTVSPost2010PropOp28
 70
     1
102
RTVSPost2010Prop29
280
     1
102
RTVSPost2010PropOp29
 70
     1
102
RTVSPost2010Prop30
280
     1
102
RTVSPost2010PropOp30
 70
     1
102
RTVSPost2010Prop31
280
     0
102
RTVSPost2010PropOp31
 70
     1
102
RTVSPost2010Prop32
280
     0
102
RTVSPost2010PropOp32
 70
     1
102
RTVSPost2010Prop33
280
     0
102
RTVSPost2010PropOp33
 70
     1
102
RTVSPost2010Prop34
280
     0
102
RTVSPost2010PropOp34
 70
     1
102
RTVSPost2010Prop35
280
     0
102
RTVSPost2010PropOp35
 70
     1
102
RTVSPost2010Prop36
280
     0
102
RTVSPost2010PropOp36
 70
     1
102
RTVSPost2010Prop37
 90
       50
102
RTVSPost2010PropOp37
 70
     1
102
RTVSPost2010Prop38
140
0.0
102
RTVSPost2010PropOp38
 70
     1
102
RTVSPost2010Prop39
140
1.0
102
RTVSPost2010PropOp39
 70
     1
102
RTVSPost2010Prop40
 90
        0
102
RTVSPost2010PropOp40
 70
     1
102
RTVSPost2010Prop41ColorIndex
 90
       18
102
RTVSPost2010Prop41ColorRGB
 90
        0
102
RTVSPost2010PropOp41
 70
     1
102
RTVSPost2010Prop42
 90
       50
102
RTVSPost2010PropOp42
 70
     1
102
RTVSPost2010Prop43
 90
        3
102
RTVSPost2010PropOp43
 70
     1
102
RTVSPost2010Prop44ColorIndex
 90
        5
102
RTVSPost2010Prop44ColorRGB
 90
      255
102
RTVSPost2010PropOp44
 70
     1
102
RTVSPost2010Prop45
280
     0
102
RTVSPost2010PropOp45
 70
     1
102
RTVSPost2010Prop46
 90
       50
102
RTVSPost2010PropOp46
 70
     1
102
RTVSPost2010Prop47
 90
       50
102
RTVSPost2010PropOp47
 70
     1
102
RTVSPost2010Prop48
 90
       50
102
RTVSPost2010PropOp48
 70
     1
102
RTVSPost2010Prop49
280
     0
102
RTVSPost2010PropOp49
 70
     1
102
RTVSPost2010Prop50
 90
       50
102
RTVSPost2010PropOp50
 70
     1
102
RTVSPost2010Prop51ColorIndex
 90
      256
102
RTVSPost2010Prop51ColorRGB
 90
-16777216
102
RTVSPost2010PropOp51
 70
     0
102
RTVSPost2010Prop52
140
1.0
102
RTVSPost2010PropOp52
 70
     0
102
RTVSPost2010Prop53
 90
        2
102
RTVSPost2010PropOp53
 70
     1
102
RTVSPost2010Prop54
  1
strokes_ogs.tif
102
RTVSPost2010PropOp54
 70
     1
102
RTVSPost2010Prop55
280
     0
102
RTVSPost2010PropOp55
 70
     1
102
RTVSPost2010Prop56
140
1.0
102
RTVSPost2010PropOp56
 70
     1
102
RTVSPost2010Prop57
140
1.0
102
RTVSPost2010PropOp57
 70
     1
102
RTVSPropertyOp0
 70
     1
102
RTVSPropertyOp1
 70
     1
102
RTVSPropertyOp2
 70
     1
102
RTVSPropertyOp3
 70
     1
102
RTVSPropertyOp4
 70
     1
102
RTVSPropertyOp5
 70
     1
102
RTVSPropertyOp6
 70
     1
102
RTVSPropertyOp7
 70
     1
102
RTVSPropertyOp8
 70
     1
102
RTVSPropertyOp9
 70
     1
102
RTVSPropertyOp10
 70
     1
102
RTVSPropertyOp11
 70
     1
102
RTVSPropertyOp12
 70
     1
102
RTVSPropertyOp13
 70
     1
102
RTVSPropertyOp14
 70
     1
102
RTVSPropertyOp15
 70
     1
102
RTVSPropertyOp16
 70
     1
102
RTVSPropertyOp17
 70
     1
102
RTVSPropertyOp18
 70
     1
102
RTVSPropertyOp19
 70
     1
102
RTVSPropertyOp20
 70
     1
102
RTVSPropertyOp21
 70
     1
102
RTVSPropertyOp22
 70
     1
102
RTVSPropertyOp23
 70
     1
102
RTVSPropertyOp24
 70
     1
102
RTVSPropertyOp25
 70
     1
102
RTVSPropertyOp26
 70
     1
102
RTVSPropertyOp27
 70
     1
102
RTVSPropertyOp28
 70
     1
102
RTVSPropertyOp29
 70
     1
102
RTVSPropertyOp30
 70
     1
102
RTVSPropertyOp31
 70
     1
102
RTVSPropertyOp32
 70
     1
102
RTVSPropertyOp33
 70
     1
102
RTVSPropertyOp34
 70
     1
102
RTVSPropertyOp35
 70
     1
102
RTVSPropertyOp36
 70
     1
102
RTVSPropertyOp37
 70
     1
102
RTVSPropertyOp38
 70
     1
102
RTVSPropertyOp39
 70
     1
102
RTVSPropertyOp40
 70
     1
102
RTVSPropertyOp41
 70
     1
102
RTVSPropertyOp42
 70
     1
102
RTVSPropertyOp43
 70
     1
102
RTVSPropertyOp44
 70
     1
102
RTVSPropertyOp45
 70
     1
102
RTVSPropertyOp46
 70
     1
102
RTVSPropertyOp47
 70
     1
102
RTVSPropertyOp48
 70
     1
102
RTVSPropertyOp49
 70
     1
102
RTVSPropertyOp50
 70
     1
102
RTVSPropertyOp51
 70
     0
102
RTVSPropertyOp52
 70
     0
102
RTVSPropertyOp53
 70
     1
102
RTVSPropertyOp54
 70
     1
102
RTVSPropertyOp55
 70
     1
102
RTVSPropertyOp56
 70
     1
102
RTVSPropertyOp57
 70
     1
102
RTVSPropertyOp58
 70
     1
102
RTVSPropertyOp59
 70
     1
102
RTVSPropertyOp60
 70
     1
102
RTVSPropertyOp61
 70
     1
102
RTVSPropertyOp62
 70
     1
  0
XRECORD
  5
771
102
{ACAD_REACTORS
330
770
102
}
330
770
100
AcDbXrecord
280
     1
102
RTVSPost2010Prop28
280
     0
102
RTVSPost2010PropOp28
 70
     1
102
RTVSPost2010Prop29
280
     1
102
RTVSPost2010PropOp29
 70
     1
102
RTVSPost2010Prop30
280
     1
102
RTVSPost2010PropOp30
 70
     1
102
RTVSPost2010Prop31
280
     0
102
RTVSPost2010PropOp31
 70
     1
102
RTVSPost2010Prop32
280
     0
102
RTVSPost2010PropOp32
 70
     1
102
RTVSPost2010Prop33
280
     0
102
RTVSPost2010PropOp33
 70
     1
102
RTVSPost2010Prop34
280
     0
102
RTVSPost2010PropOp34
 70
     1
102
RTVSPost2010Prop35
280
     0
102
RTVSPost2010PropOp35
 70
     1
102
RTVSPost2010Prop36
280
     0
102
RTVSPost2010PropOp36
 70
     1
102
RTVSPost2010Prop37
 90
       50
102
RTVSPost2010PropOp37
 70
     1
102
RTVSPost2010Prop38
140
0.0
102
RTVSPost2010PropOp38
 70
     1
102
RTVSPost2010Prop39
140
1.0
102
RTVSPost2010PropOp39
 70
     1
102
RTVSPost2010Prop40
 90
        0
102
RTVSPost2010PropOp40
 70
     1
102
RTVSPost2010Prop41ColorIndex
 90
       18
102
RTVSPost2010Prop41ColorRGB
 90
        0
102
RTVSPost2010PropOp41
 70
     1
102
RTVSPost2010Prop42
 90
       50
102
RTVSPost2010PropOp42
 70
     1
102
RTVSPost2010Prop43
 90
        3
102
RTVSPost2010PropOp43
 70
     1
102
RTVSPost2010Prop44ColorIndex
 90
        5
102
RTVSPost2010Prop44ColorRGB
 90
      255
102
RTVSPost2010PropOp44
 70
     1
102
RTVSPost2010Prop45
280
     0
102
RTVSPost2010PropOp45
 70
     1
102
RTVSPost2010Prop46
 90
       50
102
RTVSPost2010PropOp46
 70
     1
102
RTVSPost2010Prop47
 90
       50
102
RTVSPost2010PropOp47
 70
     1
102
RTVSPost2010Prop48
 90
       50
102
RTVSPost2010PropOp48
 70
     1
102
RTVSPost2010Prop49
280
     0
102
RTVSPost2010PropOp49
 70
     1
102
RTVSPost2010Prop50
 90
       50
102
RTVSPost2010PropOp50
 70
     1
102
RTVSPost2010Prop51ColorIndex
 90
      256
102
RTVSPost2010Prop51ColorRGB
 90
-16777216
102
RTVSPost2010PropOp51
 70
     0
102
RTVSPost2010Prop52
140
1.0
102
RTVSPost2010PropOp52
 70
     0
102
RTVSPost2010Prop53
 90
        2
102
RTVSPost2010PropOp53
 70
     1
102
RTVSPost2010Prop54
  1
strokes_ogs.tif
102
RTVSPost2010PropOp54
 70
     1
102
RTVSPost2010Prop55
280
     0
102
RTVSPost2010PropOp55
 70
     1
102
RTVSPost2010Prop56
140
1.0
102
RTVSPost2010PropOp56
 70
     1
102
RTVSPost2010Prop57
140
1.0
102
RTVSPost2010PropOp57
 70
     1
102
RTVSPropertyOp0
 70
     1
102
RTVSPropertyOp1
 70
     1
102
RTVSPropertyOp2
 70
     1
102
RTVSPropertyOp3
 70
     1
102
RTVSPropertyOp4
 70
     1
102
RTVSPropertyOp5
 70
     1
102
RTVSPropertyOp6
 70
     1
102
RTVSPropertyOp7
 70
     1
102
RTVSPropertyOp8
 70
     1
102
RTVSPropertyOp9
 70
     1
102
RTVSPropertyOp10
 70
     1
102
RTVSPropertyOp11
 70
     1
102
RTVSPropertyOp12
 70
     1
102
RTVSPropertyOp13
 70
     1
102
RTVSPropertyOp14
 70
     1
102
RTVSPropertyOp15
 70
     1
102
RTVSPropertyOp16
 70
     1
102
RTVSPropertyOp17
 70
     1
102
RTVSPropertyOp18
 70
     1
102
RTVSPropertyOp19
 70
     1
102
RTVSPropertyOp20
 70
     1
102
RTVSPropertyOp21
 70
     1
102
RTVSPropertyOp22
 70
     1
102
RTVSPropertyOp23
 70
     1
102
RTVSPropertyOp24
 70
     1
102
RTVSPropertyOp25
 70
     1
102
RTVSPropertyOp26
 70
     1
102
RTVSPropertyOp27
 70
     1
102
RTVSPropertyOp28
 70
     1
102
RTVSPropertyOp29
 70
     1
102
RTVSPropertyOp30
 70
     1
102
RTVSPropertyOp31
 70
     1
102
RTVSPropertyOp32
 70
     1
102
RTVSPropertyOp33
 70
     1
102
RTVSPropertyOp34
 70
     1
102
RTVSPropertyOp35
 70
     1
102
RTVSPropertyOp36
 70
     1
102
RTVSPropertyOp37
 70
     1
102
RTVSPropertyOp38
 70
     1
102
RTVSPropertyOp39
 70
     1
102
RTVSPropertyOp40
 70
     1
102
RTVSPropertyOp41
 70
     1
102
RTVSPropertyOp42
 70
     1
102
RTVSPropertyOp43
 70
     1
102
RTVSPropertyOp44
 70
     1
102
RTVSPropertyOp45
 70
     1
102
RTVSPropertyOp46
 70
     1
102
RTVSPropertyOp47
 70
     1
102
RTVSPropertyOp48
 70
     1
102
RTVSPropertyOp49
 70
     1
102
RTVSPropertyOp50
 70
     1
102
RTVSPropertyOp51
 70
     0
102
RTVSPropertyOp52
 70
     0
102
RTVSPropertyOp53
 70
     1
102
RTVSPropertyOp54
 70
     1
102
RTVSPropertyOp55
 70
     1
102
RTVSPropertyOp56
 70
     1
102
RTVSPropertyOp57
 70
     1
102
RTVSPropertyOp58
 70
     1
102
RTVSPropertyOp59
 70
     1
102
RTVSPropertyOp60
 70
     1
102
RTVSPropertyOp61
 70
     1
102
RTVSPropertyOp62
 70
     1
  0
XRECORD
  5
78D
102
{ACAD_REACTORS
330
78C
102
}
330
78C
100
AcDbXrecord
280
     1
102
RTVSPost2010Prop28
280
     0
102
RTVSPost2010PropOp28
 70
     0
102
RTVSPost2010Prop29
280
     1
102
RTVSPost2010PropOp29
 70
     0
102
RTVSPost2010Prop30
280
     1
102
RTVSPost2010PropOp30
 70
     0
102
RTVSPost2010Prop31
280
     0
102
RTVSPost2010PropOp31
 70
     0
102
RTVSPost2010Prop32
280
     0
102
RTVSPost2010PropOp32
 70
     0
102
RTVSPost2010Prop33
280
     0
102
RTVSPost2010PropOp33
 70
     0
102
RTVSPost2010Prop34
280
     0
102
RTVSPost2010PropOp34
 70
     0
102
RTVSPost2010Prop35
280
     0
102
RTVSPost2010PropOp35
 70
     0
102
RTVSPost2010Prop36
280
     0
102
RTVSPost2010PropOp36
 70
     0
102
RTVSPost2010Prop37
 90
       50
102
RTVSPost2010PropOp37
 70
     0
102
RTVSPost2010Prop38
140
0.0
102
RTVSPost2010PropOp38
 70
     0
102
RTVSPost2010Prop39
140
1.0
102
RTVSPost2010PropOp39
 70
     0
102
RTVSPost2010Prop40
 90
        0
102
RTVSPost2010PropOp40
 70
     0
102
RTVSPost2010Prop41ColorIndex
 90
       18
102
RTVSPost2010Prop41ColorRGB
 90
        0
102
RTVSPost2010PropOp41
 70
     0
102
RTVSPost2010Prop42
 90
       50
102
RTVSPost2010PropOp42
 70
     0
102
RTVSPost2010Prop43
 90
        3
102
RTVSPost2010PropOp43
 70
     0
102
RTVSPost2010Prop44ColorIndex
 90
        5
102
RTVSPost2010Prop44ColorRGB
 90
      255
102
RTVSPost2010PropOp44
 70
     0
102
RTVSPost2010Prop45
280
     0
102
RTVSPost2010PropOp45
 70
     0
102
RTVSPost2010Prop46
 90
       50
102
RTVSPost2010PropOp46
 70
     0
102
RTVSPost2010Prop47
 90
       50
102
RTVSPost2010PropOp47
 70
     0
102
RTVSPost2010Prop48
 90
       50
102
RTVSPost2010PropOp48
 70
     0
102
RTVSPost2010Prop49
280
     0
102
RTVSPost2010PropOp49
 70
     0
102
RTVSPost2010Prop50
 90
       50
102
RTVSPost2010PropOp50
 70
     0
102
RTVSPost2010Prop51ColorIndex
 90
      256
102
RTVSPost2010Prop51ColorRGB
 90
-16777216
102
RTVSPost2010PropOp51
 70
     0
102
RTVSPost2010Prop52
140
1.0
102
RTVSPost2010PropOp52
 70
     0
102
RTVSPost2010Prop53
 90
        2
102
RTVSPost2010PropOp53
 70
     0
102
RTVSPost2010Prop54
  1
strokes_ogs.tif
102
RTVSPost2010PropOp54
 70
     0
102
RTVSPost2010Prop55
280
     0
102
RTVSPost2010PropOp55
 70
     0
102
RTVSPost2010Prop56
140
1.0
102
RTVSPost2010PropOp56
 70
     0
102
RTVSPost2010Prop57
140
1.0
102
RTVSPost2010PropOp57
 70
     0
102
RTVSPropertyOp0
 70
     0
102
RTVSPropertyOp1
 70
     0
102
RTVSPropertyOp2
 70
     0
102
RTVSPropertyOp3
 70
     0
102
RTVSPropertyOp4
 70
     0
102
RTVSPropertyOp5
 70
     0
102
RTVSPropertyOp6
 70
     0
102
RTVSPropertyOp7
 70
     0
102
RTVSPropertyOp8
 70
     0
102
RTVSPropertyOp9
 70
     0
102
RTVSPropertyOp10
 70
     0
102
RTVSPropertyOp11
 70
     0
102
RTVSPropertyOp12
 70
     0
102
RTVSPropertyOp13
 70
     0
102
RTVSPropertyOp14
 70
     2
102
RTVSPropertyOp15
 70
     0
102
RTVSPropertyOp16
 70
     0
102
RTVSPropertyOp17
 70
     0
102
RTVSPropertyOp18
 70
     0
102
RTVSPropertyOp19
 70
     0
102
RTVSPropertyOp20
 70
     0
102
RTVSPropertyOp21
 70
     0
102
RTVSPropertyOp22
 70
     0
102
RTVSPropertyOp23
 70
     0
102
RTVSPropertyOp24
 70
     0
102
RTVSPropertyOp25
 70
     0
102
RTVSPropertyOp26
 70
     0
102
RTVSPropertyOp27
 70
     0
102
RTVSPropertyOp28
 70
     0
102
RTVSPropertyOp29
 70
     0
102
RTVSPropertyOp30
 70
     0
102
RTVSPropertyOp31
 70
     0
102
RTVSPropertyOp32
 70
     0
102
RTVSPropertyOp33
 70
     0
102
RTVSPropertyOp34
 70
     0
102
RTVSPropertyOp35
 70
     0
102
RTVSPropertyOp36
 70
     0
102
RTVSPropertyOp37
 70
     0
102
RTVSPropertyOp38
 70
     0
102
RTVSPropertyOp39
 70
     0
102
RTVSPropertyOp40
 70
     0
102
RTVSPropertyOp41
 70
     0
102
RTVSPropertyOp42
 70
     0
102
RTVSPropertyOp43
 70
     0
102
RTVSPropertyOp44
 70
     0
102
RTVSPropertyOp45
 70
     0
102
RTVSPropertyOp46
 70
     0
102
RTVSPropertyOp47
 70
     0
102
RTVSPropertyOp48
 70
     0
102
RTVSPropertyOp49
 70
     0
102
RTVSPropertyOp50
 70
     0
102
RTVSPropertyOp51
 70
     0
102
RTVSPropertyOp52
 70
     0
102
RTVSPropertyOp53
 70
     0
102
RTVSPropertyOp54
 70
     0
102
RTVSPropertyOp55
 70
     0
102
RTVSPropertyOp56
 70
     0
102
RTVSPropertyOp57
 70
     0
102
RTVSPropertyOp58
 70
     1
102
RTVSPropertyOp59
 70
     1
102
RTVSPropertyOp60
 70
     1
102
RTVSPropertyOp61
 70
     1
102
RTVSPropertyOp62
 70
     1
  0
XRECORD
  5
77D
102
{ACAD_REACTORS
330
77C
102
}
330
77C
100
AcDbXrecord
280
     1
102
RTVSPost2010Prop28
280
     0
102
RTVSPost2010PropOp28
 70
     1
102
RTVSPost2010Prop29
280
     1
102
RTVSPost2010PropOp29
 70
     1
102
RTVSPost2010Prop30
280
     1
102
RTVSPost2010PropOp30
 70
     1
102
RTVSPost2010Prop31
280
     0
102
RTVSPost2010PropOp31
 70
     1
102
RTVSPost2010Prop32
280
     0
102
RTVSPost2010PropOp32
 70
     1
102
RTVSPost2010Prop33
280
     0
102
RTVSPost2010PropOp33
 70
     1
102
RTVSPost2010Prop34
280
     0
102
RTVSPost2010PropOp34
 70
     1
102
RTVSPost2010Prop35
280
     0
102
RTVSPost2010PropOp35
 70
     1
102
RTVSPost2010Prop36
280
     0
102
RTVSPost2010PropOp36
 70
     1
102
RTVSPost2010Prop37
 90
       50
102
RTVSPost2010PropOp37
 70
     1
102
RTVSPost2010Prop38
140
0.0
102
RTVSPost2010PropOp38
 70
     1
102
RTVSPost2010Prop39
140
1.0
102
RTVSPost2010PropOp39
 70
     1
102
RTVSPost2010Prop40
 90
        0
102
RTVSPost2010PropOp40
 70
     1
102
RTVSPost2010Prop41ColorIndex
 90
       18
102
RTVSPost2010Prop41ColorRGB
 90
        0
102
RTVSPost2010PropOp41
 70
     1
102
RTVSPost2010Prop42
 90
       50
102
RTVSPost2010PropOp42
 70
     1
102
RTVSPost2010Prop43
 90
        3
102
RTVSPost2010PropOp43
 70
     1
102
RTVSPost2010Prop44ColorIndex
 90
        5
102
RTVSPost2010Prop44ColorRGB
 90
      255
102
RTVSPost2010PropOp44
 70
     1
102
RTVSPost2010Prop45
280
     0
102
RTVSPost2010PropOp45
 70
     1
102
RTVSPost2010Prop46
 90
       50
102
RTVSPost2010PropOp46
 70
     1
102
RTVSPost2010Prop47
 90
       50
102
RTVSPost2010PropOp47
 70
     1
102
RTVSPost2010Prop48
 90
       50
102
RTVSPost2010PropOp48
 70
     1
102
RTVSPost2010Prop49
280
     0
102
RTVSPost2010PropOp49
 70
     1
102
RTVSPost2010Prop50
 90
       50
102
RTVSPost2010PropOp50
 70
     1
102
RTVSPost2010Prop51ColorIndex
 90
      256
102
RTVSPost2010Prop51ColorRGB
 90
-16777216
102
RTVSPost2010PropOp51
 70
     0
102
RTVSPost2010Prop52
140
1.0
102
RTVSPost2010PropOp52
 70
     0
102
RTVSPost2010Prop53
 90
        2
102
RTVSPost2010PropOp53
 70
     1
102
RTVSPost2010Prop54
  1
strokes_ogs.tif
102
RTVSPost2010PropOp54
 70
     1
102
RTVSPost2010Prop55
280
     0
102
RTVSPost2010PropOp55
 70
     1
102
RTVSPost2010Prop56
140
1.0
102
RTVSPost2010PropOp56
 70
     1
102
RTVSPost2010Prop57
140
1.0
102
RTVSPost2010PropOp57
 70
     1
102
RTVSPropertyOp0
 70
     1
102
RTVSPropertyOp1
 70
     1
102
RTVSPropertyOp2
 70
     1
102
RTVSPropertyOp3
 70
     1
102
RTVSPropertyOp4
 70
     1
102
RTVSPropertyOp5
 70
     1
102
RTVSPropertyOp6
 70
     1
102
RTVSPropertyOp7
 70
     1
102
RTVSPropertyOp8
 70
     1
102
RTVSPropertyOp9
 70
     1
102
RTVSPropertyOp10
 70
     1
102
RTVSPropertyOp11
 70
     1
102
RTVSPropertyOp12
 70
     1
102
RTVSPropertyOp13
 70
     1
102
RTVSPropertyOp14
 70
     1
102
RTVSPropertyOp15
 70
     1
102
RTVSPropertyOp16
 70
     1
102
RTVSPropertyOp17
 70
     1
102
RTVSPropertyOp18
 70
     1
102
RTVSPropertyOp19
 70
     1
102
RTVSPropertyOp20
 70
     1
102
RTVSPropertyOp21
 70
     1
102
RTVSPropertyOp22
 70
     1
102
RTVSPropertyOp23
 70
     1
102
RTVSPropertyOp24
 70
     1
102
RTVSPropertyOp25
 70
     1
102
RTVSPropertyOp26
 70
     1
102
RTVSPropertyOp27
 70
     1
102
RTVSPropertyOp28
 70
     1
102
RTVSPropertyOp29
 70
     1
102
RTVSPropertyOp30
 70
     1
102
RTVSPropertyOp31
 70
     1
102
RTVSPropertyOp32
 70
     1
102
RTVSPropertyOp33
 70
     1
102
RTVSPropertyOp34
 70
     1
102
RTVSPropertyOp35
 70
     1
102
RTVSPropertyOp36
 70
     1
102
RTVSPropertyOp37
 70
     1
102
RTVSPropertyOp38
 70
     1
102
RTVSPropertyOp39
 70
     1
102
RTVSPropertyOp40
 70
     1
102
RTVSPropertyOp41
 70
     1
102
RTVSPropertyOp42
 70
     1
102
RTVSPropertyOp43
 70
     1
102
RTVSPropertyOp44
 70
     1
102
RTVSPropertyOp45
 70
     1
102
RTVSPropertyOp46
 70
     1
102
RTVSPropertyOp47
 70
     1
102
RTVSPropertyOp48
 70
     1
102
RTVSPropertyOp49
 70
     1
102
RTVSPropertyOp50
 70
     1
102
RTVSPropertyOp51
 70
     0
102
RTVSPropertyOp52
 70
     0
102
RTVSPropertyOp53
 70
     1
102
RTVSPropertyOp54
 70
     1
102
RTVSPropertyOp55
 70
     1
102
RTVSPropertyOp56
 70
     1
102
RTVSPropertyOp57
 70
     1
102
RTVSPropertyOp58
 70
     1
102
RTVSPropertyOp59
 70
     1
102
RTVSPropertyOp60
 70
     1
102
RTVSPropertyOp61
 70
     1
102
RTVSPropertyOp62
 70
     1
  0
XRECORD
  5
78F
102
{ACAD_REACTORS
330
78E
102
}
330
78E
100
AcDbXrecord
280
     1
102
RTVSPost2010Prop28
280
     0
102
RTVSPost2010PropOp28
 70
     0
102
RTVSPost2010Prop29
280
     1
102
RTVSPost2010PropOp29
 70
     0
102
RTVSPost2010Prop30
280
     1
102
RTVSPost2010PropOp30
 70
     0
102
RTVSPost2010Prop31
280
     0
102
RTVSPost2010PropOp31
 70
     0
102
RTVSPost2010Prop32
280
     0
102
RTVSPost2010PropOp32
 70
     0
102
RTVSPost2010Prop33
280
     0
102
RTVSPost2010PropOp33
 70
     0
102
RTVSPost2010Prop34
280
     0
102
RTVSPost2010PropOp34
 70
     0
102
RTVSPost2010Prop35
280
     0
102
RTVSPost2010PropOp35
 70
     0
102
RTVSPost2010Prop36
280
     0
102
RTVSPost2010PropOp36
 70
     0
102
RTVSPost2010Prop37
 90
       50
102
RTVSPost2010PropOp37
 70
     0
102
RTVSPost2010Prop38
140
0.0
102
RTVSPost2010PropOp38
 70
     0
102
RTVSPost2010Prop39
140
1.0
102
RTVSPost2010PropOp39
 70
     0
102
RTVSPost2010Prop40
 90
        0
102
RTVSPost2010PropOp40
 70
     0
102
RTVSPost2010Prop41ColorIndex
 90
       18
102
RTVSPost2010Prop41ColorRGB
 90
        0
102
RTVSPost2010PropOp41
 70
     0
102
RTVSPost2010Prop42
 90
       50
102
RTVSPost2010PropOp42
 70
     0
102
RTVSPost2010Prop43
 90
        3
102
RTVSPost2010PropOp43
 70
     0
102
RTVSPost2010Prop44ColorIndex
 90
        5
102
RTVSPost2010Prop44ColorRGB
 90
      255
102
RTVSPost2010PropOp44
 70
     0
102
RTVSPost2010Prop45
280
     0
102
RTVSPost2010PropOp45
 70
     0
102
RTVSPost2010Prop46
 90
       50
102
RTVSPost2010PropOp46
 70
     0
102
RTVSPost2010Prop47
 90
       50
102
RTVSPost2010PropOp47
 70
     0
102
RTVSPost2010Prop48
 90
       50
102
RTVSPost2010PropOp48
 70
     0
102
RTVSPost2010Prop49
280
     0
102
RTVSPost2010PropOp49
 70
     0
102
RTVSPost2010Prop50
 90
       50
102
RTVSPost2010PropOp50
 70
     0
102
RTVSPost2010Prop51ColorIndex
 90
      256
102
RTVSPost2010Prop51ColorRGB
 90
-16777216
102
RTVSPost2010PropOp51
 70
     0
102
RTVSPost2010Prop52
140
1.0
102
RTVSPost2010PropOp52
 70
     0
102
RTVSPost2010Prop53
 90
        2
102
RTVSPost2010PropOp53
 70
     0
102
RTVSPost2010Prop54
  1
strokes_ogs.tif
102
RTVSPost2010PropOp54
 70
     0
102
RTVSPost2010Prop55
280
     0
102
RTVSPost2010PropOp55
 70
     0
102
RTVSPost2010Prop56
140
1.0
102
RTVSPost2010PropOp56
 70
     0
102
RTVSPost2010Prop57
140
1.0
102
RTVSPost2010PropOp57
 70
     0
102
RTVSPropertyOp0
 70
     0
102
RTVSPropertyOp1
 70
     0
102
RTVSPropertyOp2
 70
     0
102
RTVSPropertyOp3
 70
     0
102
RTVSPropertyOp4
 70
     0
102
RTVSPropertyOp5
 70
     0
102
RTVSPropertyOp6
 70
     0
102
RTVSPropertyOp7
 70
     0
102
RTVSPropertyOp8
 70
     0
102
RTVSPropertyOp9
 70
     0
102
RTVSPropertyOp10
 70
     0
102
RTVSPropertyOp11
 70
     0
102
RTVSPropertyOp12
 70
     0
102
RTVSPropertyOp13
 70
     0
102
RTVSPropertyOp14
 70
     2
102
RTVSPropertyOp15
 70
     0
102
RTVSPropertyOp16
 70
     0
102
RTVSPropertyOp17
 70
     0
102
RTVSPropertyOp18
 70
     0
102
RTVSPropertyOp19
 70
     0
102
RTVSPropertyOp20
 70
     0
102
RTVSPropertyOp21
 70
     0
102
RTVSPropertyOp22
 70
     0
102
RTVSPropertyOp23
 70
     0
102
RTVSPropertyOp24
 70
     0
102
RTVSPropertyOp25
 70
     0
102
RTVSPropertyOp26
 70
     0
102
RTVSPropertyOp27
 70
     0
102
RTVSPropertyOp28
 70
     0
102
RTVSPropertyOp29
 70
     0
102
RTVSPropertyOp30
 70
     0
102
RTVSPropertyOp31
 70
     0
102
RTVSPropertyOp32
 70
     0
102
RTVSPropertyOp33
 70
     0
102
RTVSPropertyOp34
 70
     0
102
RTVSPropertyOp35
 70
     0
102
RTVSPropertyOp36
 70
     0
102
RTVSPropertyOp37
 70
     0
102
RTVSPropertyOp38
 70
     0
102
RTVSPropertyOp39
 70
     0
102
RTVSPropertyOp40
 70
     0
102
RTVSPropertyOp41
 70
     0
102
RTVSPropertyOp42
 70
     0
102
RTVSPropertyOp43
 70
     0
102
RTVSPropertyOp44
 70
     0
102
RTVSPropertyOp45
 70
     0
102
RTVSPropertyOp46
 70
     0
102
RTVSPropertyOp47
 70
     0
102
RTVSPropertyOp48
 70
     0
102
RTVSPropertyOp49
 70
     0
102
RTVSPropertyOp50
 70
     0
102
RTVSPropertyOp51
 70
     0
102
RTVSPropertyOp52
 70
     0
102
RTVSPropertyOp53
 70
     0
102
RTVSPropertyOp54
 70
     0
102
RTVSPropertyOp55
 70
     0
102
RTVSPropertyOp56
 70
     0
102
RTVSPropertyOp57
 70
     0
102
RTVSPropertyOp58
 70
     1
102
RTVSPropertyOp59
 70
     1
102
RTVSPropertyOp60
 70
     1
102
RTVSPropertyOp61
 70
     1
102
RTVSPropertyOp62
 70
     1
  0
XRECORD
  5
775
102
{ACAD_REACTORS
330
774
102
}
330
774
100
AcDbXrecord
280
     1
102
RTVSPost2010Prop28
280
     0
102
RTVSPost2010PropOp28
 70
     1
102
RTVSPost2010Prop29
280
     1
102
RTVSPost2010PropOp29
 70
     1
102
RTVSPost2010Prop30
280
     1
102
RTVSPost2010PropOp30
 70
     1
102
RTVSPost2010Prop31
280
     0
102
RTVSPost2010PropOp31
 70
     1
102
RTVSPost2010Prop32
280
     0
102
RTVSPost2010PropOp32
 70
     1
102
RTVSPost2010Prop33
280
     0
102
RTVSPost2010PropOp33
 70
     1
102
RTVSPost2010Prop34
280
     0
102
RTVSPost2010PropOp34
 70
     1
102
RTVSPost2010Prop35
280
     0
102
RTVSPost2010PropOp35
 70
     1
102
RTVSPost2010Prop36
280
     0
102
RTVSPost2010PropOp36
 70
     1
102
RTVSPost2010Prop37
 90
       50
102
RTVSPost2010PropOp37
 70
     1
102
RTVSPost2010Prop38
140
0.0
102
RTVSPost2010PropOp38
 70
     1
102
RTVSPost2010Prop39
140
1.0
102
RTVSPost2010PropOp39
 70
     1
102
RTVSPost2010Prop40
 90
        0
102
RTVSPost2010PropOp40
 70
     1
102
RTVSPost2010Prop41ColorIndex
 90
       18
102
RTVSPost2010Prop41ColorRGB
 90
        0
102
RTVSPost2010PropOp41
 70
     1
102
RTVSPost2010Prop42
 90
       50
102
RTVSPost2010PropOp42
 70
     1
102
RTVSPost2010Prop43
 90
        3
102
RTVSPost2010PropOp43
 70
     1
102
RTVSPost2010Prop44ColorIndex
 90
        5
102
RTVSPost2010Prop44ColorRGB
 90
      255
102
RTVSPost2010PropOp44
 70
     1
102
RTVSPost2010Prop45
280
     0
102
RTVSPost2010PropOp45
 70
     1
102
RTVSPost2010Prop46
 90
       50
102
RTVSPost2010PropOp46
 70
     1
102
RTVSPost2010Prop47
 90
       50
102
RTVSPost2010PropOp47
 70
     1
102
RTVSPost2010Prop48
 90
       50
102
RTVSPost2010PropOp48
 70
     1
102
RTVSPost2010Prop49
280
     0
102
RTVSPost2010PropOp49
 70
     1
102
RTVSPost2010Prop50
 90
       50
102
RTVSPost2010PropOp50
 70
     1
102
RTVSPost2010Prop51ColorIndex
 90
      256
102
RTVSPost2010Prop51ColorRGB
 90
-16777216
102
RTVSPost2010PropOp51
 70
     0
102
RTVSPost2010Prop52
140
1.0
102
RTVSPost2010PropOp52
 70
     0
102
RTVSPost2010Prop53
 90
        2
102
RTVSPost2010PropOp53
 70
     1
102
RTVSPost2010Prop54
  1
strokes_ogs.tif
102
RTVSPost2010PropOp54
 70
     1
102
RTVSPost2010Prop55
280
     0
102
RTVSPost2010PropOp55
 70
     1
102
RTVSPost2010Prop56
140
1.0
102
RTVSPost2010PropOp56
 70
     1
102
RTVSPost2010Prop57
140
1.0
102
RTVSPost2010PropOp57
 70
     1
102
RTVSPropertyOp0
 70
     1
102
RTVSPropertyOp1
 70
     1
102
RTVSPropertyOp2
 70
     1
102
RTVSPropertyOp3
 70
     1
102
RTVSPropertyOp4
 70
     1
102
RTVSPropertyOp5
 70
     1
102
RTVSPropertyOp6
 70
     1
102
RTVSPropertyOp7
 70
     1
102
RTVSPropertyOp8
 70
     1
102
RTVSPropertyOp9
 70
     1
102
RTVSPropertyOp10
 70
     1
102
RTVSPropertyOp11
 70
     1
102
RTVSPropertyOp12
 70
     1
102
RTVSPropertyOp13
 70
     1
102
RTVSPropertyOp14
 70
     1
102
RTVSPropertyOp15
 70
     1
102
RTVSPropertyOp16
 70
     1
102
RTVSPropertyOp17
 70
     1
102
RTVSPropertyOp18
 70
     1
102
RTVSPropertyOp19
 70
     1
102
RTVSPropertyOp20
 70
     1
102
RTVSPropertyOp21
 70
     1
102
RTVSPropertyOp22
 70
     1
102
RTVSPropertyOp23
 70
     1
102
RTVSPropertyOp24
 70
     1
102
RTVSPropertyOp25
 70
     1
102
RTVSPropertyOp26
 70
     1
102
RTVSPropertyOp27
 70
     1
102
RTVSPropertyOp28
 70
     1
102
RTVSPropertyOp29
 70
     1
102
RTVSPropertyOp30
 70
     1
102
RTVSPropertyOp31
 70
     1
102
RTVSPropertyOp32
 70
     1
102
RTVSPropertyOp33
 70
     1
102
RTVSPropertyOp34
 70
     1
102
RTVSPropertyOp35
 70
     1
102
RTVSPropertyOp36
 70
     1
102
RTVSPropertyOp37
 70
     1
102
RTVSPropertyOp38
 70
     1
102
RTVSPropertyOp39
 70
     1
102
RTVSPropertyOp40
 70
     1
102
RTVSPropertyOp41
 70
     1
102
RTVSPropertyOp42
 70
     1
102
RTVSPropertyOp43
 70
     1
102
RTVSPropertyOp44
 70
     1
102
RTVSPropertyOp45
 70
     1
102
RTVSPropertyOp46
 70
     1
102
RTVSPropertyOp47
 70
     1
102
RTVSPropertyOp48
 70
     1
102
RTVSPropertyOp49
 70
     1
102
RTVSPropertyOp50
 70
     1
102
RTVSPropertyOp51
 70
     0
102
RTVSPropertyOp52
 70
     0
102
RTVSPropertyOp53
 70
     1
102
RTVSPropertyOp54
 70
     1
102
RTVSPropertyOp55
 70
     1
102
RTVSPropertyOp56
 70
     1
102
RTVSPropertyOp57
 70
     1
102
RTVSPropertyOp58
 70
     1
102
RTVSPropertyOp59
 70
     1
102
RTVSPropertyOp60
 70
     1
102
RTVSPropertyOp61
 70
     1
102
RTVSPropertyOp62
 70
     1
  0
XRECORD
  5
78B
102
{ACAD_REACTORS
330
78A
102
}
330
78A
100
AcDbXrecord
280
     1
102
RTVSPost2010Prop28
280
     0
102
RTVSPost2010PropOp28
 70
     1
102
RTVSPost2010Prop29
280
     1
102
RTVSPost2010PropOp29
 70
     1
102
RTVSPost2010Prop30
280
     1
102
RTVSPost2010PropOp30
 70
     1
102
RTVSPost2010Prop31
280
     0
102
RTVSPost2010PropOp31
 70
     1
102
RTVSPost2010Prop32
280
     0
102
RTVSPost2010PropOp32
 70
     1
102
RTVSPost2010Prop33
280
     0
102
RTVSPost2010PropOp33
 70
     1
102
RTVSPost2010Prop34
280
     0
102
RTVSPost2010PropOp34
 70
     1
102
RTVSPost2010Prop35
280
     0
102
RTVSPost2010PropOp35
 70
     1
102
RTVSPost2010Prop36
280
     0
102
RTVSPost2010PropOp36
 70
     1
102
RTVSPost2010Prop37
 90
       50
102
RTVSPost2010PropOp37
 70
     1
102
RTVSPost2010Prop38
140
0.0
102
RTVSPost2010PropOp38
 70
     1
102
RTVSPost2010Prop39
140
1.0
102
RTVSPost2010PropOp39
 70
     1
102
RTVSPost2010Prop40
 90
        0
102
RTVSPost2010PropOp40
 70
     1
102
RTVSPost2010Prop41ColorIndex
 90
       18
102
RTVSPost2010Prop41ColorRGB
 90
        0
102
RTVSPost2010PropOp41
 70
     1
102
RTVSPost2010Prop42
 90
       50
102
RTVSPost2010PropOp42
 70
     1
102
RTVSPost2010Prop43
 90
        3
102
RTVSPost2010PropOp43
 70
     1
102
RTVSPost2010Prop44ColorIndex
 90
        5
102
RTVSPost2010Prop44ColorRGB
 90
      255
102
RTVSPost2010PropOp44
 70
     1
102
RTVSPost2010Prop45
280
     0
102
RTVSPost2010PropOp45
 70
     1
102
RTVSPost2010Prop46
 90
       50
102
RTVSPost2010PropOp46
 70
     1
102
RTVSPost2010Prop47
 90
       50
102
RTVSPost2010PropOp47
 70
     1
102
RTVSPost2010Prop48
 90
       50
102
RTVSPost2010PropOp48
 70
     1
102
RTVSPost2010Prop49
280
     0
102
RTVSPost2010PropOp49
 70
     1
102
RTVSPost2010Prop50
 90
       50
102
RTVSPost2010PropOp50
 70
     1
102
RTVSPost2010Prop51ColorIndex
 90
      256
102
RTVSPost2010Prop51ColorRGB
 90
-16777216
102
RTVSPost2010PropOp51
 70
     0
102
RTVSPost2010Prop52
140
1.0
102
RTVSPost2010PropOp52
 70
     0
102
RTVSPost2010Prop53
 90
        2
102
RTVSPost2010PropOp53
 70
     1
102
RTVSPost2010Prop54
  1
strokes_ogs.tif
102
RTVSPost2010PropOp54
 70
     1
102
RTVSPost2010Prop55
280
     0
102
RTVSPost2010PropOp55
 70
     1
102
RTVSPost2010Prop56
140
1.0
102
RTVSPost2010PropOp56
 70
     1
102
RTVSPost2010Prop57
140
1.0
102
RTVSPost2010PropOp57
 70
     1
102
RTVSPropertyOp0
 70
     1
102
RTVSPropertyOp1
 70
     1
102
RTVSPropertyOp2
 70
     1
102
RTVSPropertyOp3
 70
     1
102
RTVSPropertyOp4
 70
     1
102
RTVSPropertyOp5
 70
     1
102
RTVSPropertyOp6
 70
     1
102
RTVSPropertyOp7
 70
     1
102
RTVSPropertyOp8
 70
     1
102
RTVSPropertyOp9
 70
     1
102
RTVSPropertyOp10
 70
     1
102
RTVSPropertyOp11
 70
     1
102
RTVSPropertyOp12
 70
     1
102
RTVSPropertyOp13
 70
     1
102
RTVSPropertyOp14
 70
     1
102
RTVSPropertyOp15
 70
     1
102
RTVSPropertyOp16
 70
     1
102
RTVSPropertyOp17
 70
     1
102
RTVSPropertyOp18
 70
     1
102
RTVSPropertyOp19
 70
     1
102
RTVSPropertyOp20
 70
     1
102
RTVSPropertyOp21
 70
     1
102
RTVSPropertyOp22
 70
     1
102
RTVSPropertyOp23
 70
     1
102
RTVSPropertyOp24
 70
     1
102
RTVSPropertyOp25
 70
     1
102
RTVSPropertyOp26
 70
     1
102
RTVSPropertyOp27
 70
     1
102
RTVSPropertyOp28
 70
     1
102
RTVSPropertyOp29
 70
     1
102
RTVSPropertyOp30
 70
     1
102
RTVSPropertyOp31
 70
     1
102
RTVSPropertyOp32
 70
     1
102
RTVSPropertyOp33
 70
     1
102
RTVSPropertyOp34
 70
     1
102
RTVSPropertyOp35
 70
     1
102
RTVSPropertyOp36
 70
     1
102
RTVSPropertyOp37
 70
     1
102
RTVSPropertyOp38
 70
     1
102
RTVSPropertyOp39
 70
     1
102
RTVSPropertyOp40
 70
     1
102
RTVSPropertyOp41
 70
     1
102
RTVSPropertyOp42
 70
     1
102
RTVSPropertyOp43
 70
     1
102
RTVSPropertyOp44
 70
     1
102
RTVSPropertyOp45
 70
     1
102
RTVSPropertyOp46
 70
     1
102
RTVSPropertyOp47
 70
     1
102
RTVSPropertyOp48
 70
     1
102
RTVSPropertyOp49
 70
     1
102
RTVSPropertyOp50
 70
     1
102
RTVSPropertyOp51
 70
     0
102
RTVSPropertyOp52
 70
     0
102
RTVSPropertyOp53
 70
     1
102
RTVSPropertyOp54
 70
     1
102
RTVSPropertyOp55
 70
     1
102
RTVSPropertyOp56
 70
     1
102
RTVSPropertyOp57
 70
     1
102
RTVSPropertyOp58
 70
     1
102
RTVSPropertyOp59
 70
     1
102
RTVSPropertyOp60
 70
     1
102
RTVSPropertyOp61
 70
     1
102
RTVSPropertyOp62
 70
     1
  0
XRECORD
  5
789
102
{ACAD_REACTORS
330
788
102
}
330
788
100
AcDbXrecord
280
     1
102
RTVSPost2010Prop28
280
     0
102
RTVSPost2010PropOp28
 70
     1
102
RTVSPost2010Prop29
280
     1
102
RTVSPost2010PropOp29
 70
     1
102
RTVSPost2010Prop30
280
     1
102
RTVSPost2010PropOp30
 70
     1
102
RTVSPost2010Prop31
280
     0
102
RTVSPost2010PropOp31
 70
     1
102
RTVSPost2010Prop32
280
     0
102
RTVSPost2010PropOp32
 70
     1
102
RTVSPost2010Prop33
280
     0
102
RTVSPost2010PropOp33
 70
     1
102
RTVSPost2010Prop34
280
     0
102
RTVSPost2010PropOp34
 70
     1
102
RTVSPost2010Prop35
280
     0
102
RTVSPost2010PropOp35
 70
     1
102
RTVSPost2010Prop36
280
     0
102
RTVSPost2010PropOp36
 70
     1
102
RTVSPost2010Prop37
 90
       50
102
RTVSPost2010PropOp37
 70
     1
102
RTVSPost2010Prop38
140
0.0
102
RTVSPost2010PropOp38
 70
     1
102
RTVSPost2010Prop39
140
1.0
102
RTVSPost2010PropOp39
 70
     1
102
RTVSPost2010Prop40
 90
        0
102
RTVSPost2010PropOp40
 70
     1
102
RTVSPost2010Prop41ColorIndex
 90
       18
102
RTVSPost2010Prop41ColorRGB
 90
        0
102
RTVSPost2010PropOp41
 70
     1
102
RTVSPost2010Prop42
 90
       50
102
RTVSPost2010PropOp42
 70
     1
102
RTVSPost2010Prop43
 90
        3
102
RTVSPost2010PropOp43
 70
     1
102
RTVSPost2010Prop44ColorIndex
 90
        5
102
RTVSPost2010Prop44ColorRGB
 90
      255
102
RTVSPost2010PropOp44
 70
     1
102
RTVSPost2010Prop45
280
     0
102
RTVSPost2010PropOp45
 70
     1
102
RTVSPost2010Prop46
 90
       50
102
RTVSPost2010PropOp46
 70
     1
102
RTVSPost2010Prop47
 90
       50
102
RTVSPost2010PropOp47
 70
     1
102
RTVSPost2010Prop48
 90
       50
102
RTVSPost2010PropOp48
 70
     1
102
RTVSPost2010Prop49
280
     0
102
RTVSPost2010PropOp49
 70
     1
102
RTVSPost2010Prop50
 90
       50
102
RTVSPost2010PropOp50
 70
     1
102
RTVSPost2010Prop51ColorIndex
 90
      256
102
RTVSPost2010Prop51ColorRGB
 90
-16777216
102
RTVSPost2010PropOp51
 70
     0
102
RTVSPost2010Prop52
140
1.0
102
RTVSPost2010PropOp52
 70
     0
102
RTVSPost2010Prop53
 90
        2
102
RTVSPost2010PropOp53
 70
     1
102
RTVSPost2010Prop54
  1
strokes_ogs.tif
102
RTVSPost2010PropOp54
 70
     1
102
RTVSPost2010Prop55
280
     0
102
RTVSPost2010PropOp55
 70
     1
102
RTVSPost2010Prop56
140
1.0
102
RTVSPost2010PropOp56
 70
     1
102
RTVSPost2010Prop57
140
1.0
102
RTVSPost2010PropOp57
 70
     1
102
RTVSPropertyOp0
 70
     1
102
RTVSPropertyOp1
 70
     1
102
RTVSPropertyOp2
 70
     1
102
RTVSPropertyOp3
 70
     1
102
RTVSPropertyOp4
 70
     1
102
RTVSPropertyOp5
 70
     1
102
RTVSPropertyOp6
 70
     1
102
RTVSPropertyOp7
 70
     1
102
RTVSPropertyOp8
 70
     1
102
RTVSPropertyOp9
 70
     1
102
RTVSPropertyOp10
 70
     1
102
RTVSPropertyOp11
 70
     1
102
RTVSPropertyOp12
 70
     1
102
RTVSPropertyOp13
 70
     1
102
RTVSPropertyOp14
 70
     1
102
RTVSPropertyOp15
 70
     1
102
RTVSPropertyOp16
 70
     1
102
RTVSPropertyOp17
 70
     1
102
RTVSPropertyOp18
 70
     1
102
RTVSPropertyOp19
 70
     1
102
RTVSPropertyOp20
 70
     1
102
RTVSPropertyOp21
 70
     1
102
RTVSPropertyOp22
 70
     1
102
RTVSPropertyOp23
 70
     1
102
RTVSPropertyOp24
 70
     1
102
RTVSPropertyOp25
 70
     1
102
RTVSPropertyOp26
 70
     1
102
RTVSPropertyOp27
 70
     1
102
RTVSPropertyOp28
 70
     1
102
RTVSPropertyOp29
 70
     1
102
RTVSPropertyOp30
 70
     1
102
RTVSPropertyOp31
 70
     1
102
RTVSPropertyOp32
 70
     1
102
RTVSPropertyOp33
 70
     1
102
RTVSPropertyOp34
 70
     1
102
RTVSPropertyOp35
 70
     1
102
RTVSPropertyOp36
 70
     1
102
RTVSPropertyOp37
 70
     1
102
RTVSPropertyOp38
 70
     1
102
RTVSPropertyOp39
 70
     1
102
RTVSPropertyOp40
 70
     1
102
RTVSPropertyOp41
 70
     1
102
RTVSPropertyOp42
 70
     1
102
RTVSPropertyOp43
 70
     1
102
RTVSPropertyOp44
 70
     1
102
RTVSPropertyOp45
 70
     1
102
RTVSPropertyOp46
 70
     1
102
RTVSPropertyOp47
 70
     1
102
RTVSPropertyOp48
 70
     1
102
RTVSPropertyOp49
 70
     1
102
RTVSPropertyOp50
 70
     1
102
RTVSPropertyOp51
 70
     0
102
RTVSPropertyOp52
 70
     0
102
RTVSPropertyOp53
 70
     1
102
RTVSPropertyOp54
 70
     1
102
RTVSPropertyOp55
 70
     1
102
RTVSPropertyOp56
 70
     1
102
RTVSPropertyOp57
 70
     1
102
RTVSPropertyOp58
 70
     1
102
RTVSPropertyOp59
 70
     1
102
RTVSPropertyOp60
 70
     1
102
RTVSPropertyOp61
 70
     1
102
RTVSPropertyOp62
 70
     1
  0
XRECORD
  5
783
102
{ACAD_REACTORS
330
782
102
}
330
782
100
AcDbXrecord
280
     1
102
RTVSPost2010Prop28
280
     0
102
RTVSPost2010PropOp28
 70
     1
102
RTVSPost2010Prop29
280
     1
102
RTVSPost2010PropOp29
 70
     1
102
RTVSPost2010Prop30
280
     1
102
RTVSPost2010PropOp30
 70
     1
102
RTVSPost2010Prop31
280
     0
102
RTVSPost2010PropOp31
 70
     1
102
RTVSPost2010Prop32
280
     0
102
RTVSPost2010PropOp32
 70
     1
102
RTVSPost2010Prop33
280
     0
102
RTVSPost2010PropOp33
 70
     1
102
RTVSPost2010Prop34
280
     0
102
RTVSPost2010PropOp34
 70
     1
102
RTVSPost2010Prop35
280
     0
102
RTVSPost2010PropOp35
 70
     1
102
RTVSPost2010Prop36
280
     0
102
RTVSPost2010PropOp36
 70
     1
102
RTVSPost2010Prop37
 90
       50
102
RTVSPost2010PropOp37
 70
     1
102
RTVSPost2010Prop38
140
0.0
102
RTVSPost2010PropOp38
 70
     1
102
RTVSPost2010Prop39
140
1.0
102
RTVSPost2010PropOp39
 70
     1
102
RTVSPost2010Prop40
 90
        0
102
RTVSPost2010PropOp40
 70
     1
102
RTVSPost2010Prop41ColorIndex
 90
       18
102
RTVSPost2010Prop41ColorRGB
 90
        0
102
RTVSPost2010PropOp41
 70
     1
102
RTVSPost2010Prop42
 90
       50
102
RTVSPost2010PropOp42
 70
     1
102
RTVSPost2010Prop43
 90
        3
102
RTVSPost2010PropOp43
 70
     1
102
RTVSPost2010Prop44ColorIndex
 90
        5
102
RTVSPost2010Prop44ColorRGB
 90
      255
102
RTVSPost2010PropOp44
 70
     1
102
RTVSPost2010Prop45
280
     0
102
RTVSPost2010PropOp45
 70
     1
102
RTVSPost2010Prop46
 90
       50
102
RTVSPost2010PropOp46
 70
     1
102
RTVSPost2010Prop47
 90
       50
102
RTVSPost2010PropOp47
 70
     1
102
RTVSPost2010Prop48
 90
       50
102
RTVSPost2010PropOp48
 70
     1
102
RTVSPost2010Prop49
280
     0
102
RTVSPost2010PropOp49
 70
     1
102
RTVSPost2010Prop50
 90
       50
102
RTVSPost2010PropOp50
 70
     1
102
RTVSPost2010Prop51ColorIndex
 90
      256
102
RTVSPost2010Prop51ColorRGB
 90
-16777216
102
RTVSPost2010PropOp51
 70
     0
102
RTVSPost2010Prop52
140
1.0
102
RTVSPost2010PropOp52
 70
     0
102
RTVSPost2010Prop53
 90
        2
102
RTVSPost2010PropOp53
 70
     1
102
RTVSPost2010Prop54
  1
strokes_ogs.tif
102
RTVSPost2010PropOp54
 70
     1
102
RTVSPost2010Prop55
280
     0
102
RTVSPost2010PropOp55
 70
     1
102
RTVSPost2010Prop56
140
1.0
102
RTVSPost2010PropOp56
 70
     1
102
RTVSPost2010Prop57
140
1.0
102
RTVSPost2010PropOp57
 70
     1
102
RTVSPropertyOp0
 70
     1
102
RTVSPropertyOp1
 70
     1
102
RTVSPropertyOp2
 70
     1
102
RTVSPropertyOp3
 70
     1
102
RTVSPropertyOp4
 70
     1
102
RTVSPropertyOp5
 70
     1
102
RTVSPropertyOp6
 70
     1
102
RTVSPropertyOp7
 70
     1
102
RTVSPropertyOp8
 70
     1
102
RTVSPropertyOp9
 70
     1
102
RTVSPropertyOp10
 70
     1
102
RTVSPropertyOp11
 70
     1
102
RTVSPropertyOp12
 70
     1
102
RTVSPropertyOp13
 70
     1
102
RTVSPropertyOp14
 70
     1
102
RTVSPropertyOp15
 70
     1
102
RTVSPropertyOp16
 70
     1
102
RTVSPropertyOp17
 70
     1
102
RTVSPropertyOp18
 70
     1
102
RTVSPropertyOp19
 70
     1
102
RTVSPropertyOp20
 70
     1
102
RTVSPropertyOp21
 70
     1
102
RTVSPropertyOp22
 70
     1
102
RTVSPropertyOp23
 70
     1
102
RTVSPropertyOp24
 70
     1
102
RTVSPropertyOp25
 70
     1
102
RTVSPropertyOp26
 70
     1
102
RTVSPropertyOp27
 70
     1
102
RTVSPropertyOp28
 70
     1
102
RTVSPropertyOp29
 70
     1
102
RTVSPropertyOp30
 70
     1
102
RTVSPropertyOp31
 70
     1
102
RTVSPropertyOp32
 70
     1
102
RTVSPropertyOp33
 70
     1
102
RTVSPropertyOp34
 70
     1
102
RTVSPropertyOp35
 70
     1
102
RTVSPropertyOp36
 70
     1
102
RTVSPropertyOp37
 70
     1
102
RTVSPropertyOp38
 70
     1
102
RTVSPropertyOp39
 70
     1
102
RTVSPropertyOp40
 70
     1
102
RTVSPropertyOp41
 70
     1
102
RTVSPropertyOp42
 70
     1
102
RTVSPropertyOp43
 70
     1
102
RTVSPropertyOp44
 70
     1
102
RTVSPropertyOp45
 70
     1
102
RTVSPropertyOp46
 70
     1
102
RTVSPropertyOp47
 70
     1
102
RTVSPropertyOp48
 70
     1
102
RTVSPropertyOp49
 70
     1
102
RTVSPropertyOp50
 70
     1
102
RTVSPropertyOp51
 70
     0
102
RTVSPropertyOp52
 70
     0
102
RTVSPropertyOp53
 70
     1
102
RTVSPropertyOp54
 70
     1
102
RTVSPropertyOp55
 70
     1
102
RTVSPropertyOp56
 70
     1
102
RTVSPropertyOp57
 70
     1
102
RTVSPropertyOp58
 70
     1
102
RTVSPropertyOp59
 70
     1
102
RTVSPropertyOp60
 70
     1
102
RTVSPropertyOp61
 70
     1
102
RTVSPropertyOp62
 70
     1
  0
XRECORD
  5
785
102
{ACAD_REACTORS
330
784
102
}
330
784
100
AcDbXrecord
280
     1
102
RTVSPost2010Prop28
280
     0
102
RTVSPost2010PropOp28
 70
     1
102
RTVSPost2010Prop29
280
     1
102
RTVSPost2010PropOp29
 70
     1
102
RTVSPost2010Prop30
280
     1
102
RTVSPost2010PropOp30
 70
     1
102
RTVSPost2010Prop31
280
     0
102
RTVSPost2010PropOp31
 70
     1
102
RTVSPost2010Prop32
280
     0
102
RTVSPost2010PropOp32
 70
     1
102
RTVSPost2010Prop33
280
     0
102
RTVSPost2010PropOp33
 70
     1
102
RTVSPost2010Prop34
280
     0
102
RTVSPost2010PropOp34
 70
     1
102
RTVSPost2010Prop35
280
     0
102
RTVSPost2010PropOp35
 70
     1
102
RTVSPost2010Prop36
280
     0
102
RTVSPost2010PropOp36
 70
     1
102
RTVSPost2010Prop37
 90
       50
102
RTVSPost2010PropOp37
 70
     1
102
RTVSPost2010Prop38
140
0.0
102
RTVSPost2010PropOp38
 70
     1
102
RTVSPost2010Prop39
140
1.0
102
RTVSPost2010PropOp39
 70
     1
102
RTVSPost2010Prop40
 90
        0
102
RTVSPost2010PropOp40
 70
     1
102
RTVSPost2010Prop41ColorIndex
 90
       18
102
RTVSPost2010Prop41ColorRGB
 90
        0
102
RTVSPost2010PropOp41
 70
     1
102
RTVSPost2010Prop42
 90
       50
102
RTVSPost2010PropOp42
 70
     1
102
RTVSPost2010Prop43
 90
        3
102
RTVSPost2010PropOp43
 70
     1
102
RTVSPost2010Prop44ColorIndex
 90
        5
102
RTVSPost2010Prop44ColorRGB
 90
      255
102
RTVSPost2010PropOp44
 70
     1
102
RTVSPost2010Prop45
280
     0
102
RTVSPost2010PropOp45
 70
     1
102
RTVSPost2010Prop46
 90
       50
102
RTVSPost2010PropOp46
 70
     1
102
RTVSPost2010Prop47
 90
       50
102
RTVSPost2010PropOp47
 70
     1
102
RTVSPost2010Prop48
 90
       50
102
RTVSPost2010PropOp48
 70
     1
102
RTVSPost2010Prop49
280
     0
102
RTVSPost2010PropOp49
 70
     1
102
RTVSPost2010Prop50
 90
       50
102
RTVSPost2010PropOp50
 70
     1
102
RTVSPost2010Prop51ColorIndex
 90
      256
102
RTVSPost2010Prop51ColorRGB
 90
-16777216
102
RTVSPost2010PropOp51
 70
     0
102
RTVSPost2010Prop52
140
1.0
102
RTVSPost2010PropOp52
 70
     0
102
RTVSPost2010Prop53
 90
        2
102
RTVSPost2010PropOp53
 70
     1
102
RTVSPost2010Prop54
  1
strokes_ogs.tif
102
RTVSPost2010PropOp54
 70
     1
102
RTVSPost2010Prop55
280
     0
102
RTVSPost2010PropOp55
 70
     1
102
RTVSPost2010Prop56
140
1.0
102
RTVSPost2010PropOp56
 70
     1
102
RTVSPost2010Prop57
140
1.0
102
RTVSPost2010PropOp57
 70
     1
102
RTVSPropertyOp0
 70
     1
102
RTVSPropertyOp1
 70
     1
102
RTVSPropertyOp2
 70
     1
102
RTVSPropertyOp3
 70
     1
102
RTVSPropertyOp4
 70
     1
102
RTVSPropertyOp5
 70
     1
102
RTVSPropertyOp6
 70
     1
102
RTVSPropertyOp7
 70
     1
102
RTVSPropertyOp8
 70
     1
102
RTVSPropertyOp9
 70
     1
102
RTVSPropertyOp10
 70
     1
102
RTVSPropertyOp11
 70
     1
102
RTVSPropertyOp12
 70
     1
102
RTVSPropertyOp13
 70
     1
102
RTVSPropertyOp14
 70
     1
102
RTVSPropertyOp15
 70
     1
102
RTVSPropertyOp16
 70
     1
102
RTVSPropertyOp17
 70
     1
102
RTVSPropertyOp18
 70
     1
102
RTVSPropertyOp19
 70
     1
102
RTVSPropertyOp20
 70
     1
102
RTVSPropertyOp21
 70
     1
102
RTVSPropertyOp22
 70
     1
102
RTVSPropertyOp23
 70
     1
102
RTVSPropertyOp24
 70
     1
102
RTVSPropertyOp25
 70
     1
102
RTVSPropertyOp26
 70
     1
102
RTVSPropertyOp27
 70
     1
102
RTVSPropertyOp28
 70
     1
102
RTVSPropertyOp29
 70
     1
102
RTVSPropertyOp30
 70
     1
102
RTVSPropertyOp31
 70
     1
102
RTVSPropertyOp32
 70
     1
102
RTVSPropertyOp33
 70
     1
102
RTVSPropertyOp34
 70
     1
102
RTVSPropertyOp35
 70
     1
102
RTVSPropertyOp36
 70
     1
102
RTVSPropertyOp37
 70
     1
102
RTVSPropertyOp38
 70
     1
102
RTVSPropertyOp39
 70
     1
102
RTVSPropertyOp40
 70
     1
102
RTVSPropertyOp41
 70
     1
102
RTVSPropertyOp42
 70
     1
102
RTVSPropertyOp43
 70
     1
102
RTVSPropertyOp44
 70
     1
102
RTVSPropertyOp45
 70
     1
102
RTVSPropertyOp46
 70
     1
102
RTVSPropertyOp47
 70
     1
102
RTVSPropertyOp48
 70
     1
102
RTVSPropertyOp49
 70
     1
102
RTVSPropertyOp50
 70
     1
102
RTVSPropertyOp51
 70
     0
102
RTVSPropertyOp52
 70
     0
102
RTVSPropertyOp53
 70
     1
102
RTVSPropertyOp54
 70
     1
102
RTVSPropertyOp55
 70
     1
102
RTVSPropertyOp56
 70
     1
102
RTVSPropertyOp57
 70
     1
102
RTVSPropertyOp58
 70
     1
102
RTVSPropertyOp59
 70
     1
102
RTVSPropertyOp60
 70
     1
102
RTVSPropertyOp61
 70
     1
102
RTVSPropertyOp62
 70
     1
  0
XRECORD
  5
77B
102
{ACAD_REACTORS
330
77A
102
}
330
77A
100
AcDbXrecord
280
     1
102
RTVSPost2010Prop28
280
     0
102
RTVSPost2010PropOp28
 70
     1
102
RTVSPost2010Prop29
280
     1
102
RTVSPost2010PropOp29
 70
     1
102
RTVSPost2010Prop30
280
     1
102
RTVSPost2010PropOp30
 70
     1
102
RTVSPost2010Prop31
280
     0
102
RTVSPost2010PropOp31
 70
     1
102
RTVSPost2010Prop32
280
     0
102
RTVSPost2010PropOp32
 70
     1
102
RTVSPost2010Prop33
280
     0
102
RTVSPost2010PropOp33
 70
     1
102
RTVSPost2010Prop34
280
     0
102
RTVSPost2010PropOp34
 70
     1
102
RTVSPost2010Prop35
280
     0
102
RTVSPost2010PropOp35
 70
     1
102
RTVSPost2010Prop36
280
     0
102
RTVSPost2010PropOp36
 70
     1
102
RTVSPost2010Prop37
 90
       50
102
RTVSPost2010PropOp37
 70
     1
102
RTVSPost2010Prop38
140
0.0
102
RTVSPost2010PropOp38
 70
     1
102
RTVSPost2010Prop39
140
1.0
102
RTVSPost2010PropOp39
 70
     1
102
RTVSPost2010Prop40
 90
        0
102
RTVSPost2010PropOp40
 70
     1
102
RTVSPost2010Prop41ColorIndex
 90
       18
102
RTVSPost2010Prop41ColorRGB
 90
        0
102
RTVSPost2010PropOp41
 70
     1
102
RTVSPost2010Prop42
 90
       50
102
RTVSPost2010PropOp42
 70
     1
102
RTVSPost2010Prop43
 90
        3
102
RTVSPost2010PropOp43
 70
     1
102
RTVSPost2010Prop44ColorIndex
 90
        5
102
RTVSPost2010Prop44ColorRGB
 90
      255
102
RTVSPost2010PropOp44
 70
     1
102
RTVSPost2010Prop45
280
     0
102
RTVSPost2010PropOp45
 70
     1
102
RTVSPost2010Prop46
 90
       50
102
RTVSPost2010PropOp46
 70
     1
102
RTVSPost2010Prop47
 90
       50
102
RTVSPost2010PropOp47
 70
     1
102
RTVSPost2010Prop48
 90
       50
102
RTVSPost2010PropOp48
 70
     1
102
RTVSPost2010Prop49
280
     0
102
RTVSPost2010PropOp49
 70
     1
102
RTVSPost2010Prop50
 90
       50
102
RTVSPost2010PropOp50
 70
     1
102
RTVSPost2010Prop51ColorIndex
 90
      256
102
RTVSPost2010Prop51ColorRGB
 90
-16777216
102
RTVSPost2010PropOp51
 70
     0
102
RTVSPost2010Prop52
140
1.0
102
RTVSPost2010PropOp52
 70
     0
102
RTVSPost2010Prop53
 90
        2
102
RTVSPost2010PropOp53
 70
     1
102
RTVSPost2010Prop54
  1
strokes_ogs.tif
102
RTVSPost2010PropOp54
 70
     1
102
RTVSPost2010Prop55
280
     0
102
RTVSPost2010PropOp55
 70
     1
102
RTVSPost2010Prop56
140
1.0
102
RTVSPost2010PropOp56
 70
     1
102
RTVSPost2010Prop57
140
1.0
102
RTVSPost2010PropOp57
 70
     1
102
RTVSPropertyOp0
 70
     1
102
RTVSPropertyOp1
 70
     1
102
RTVSPropertyOp2
 70
     1
102
RTVSPropertyOp3
 70
     1
102
RTVSPropertyOp4
 70
     1
102
RTVSPropertyOp5
 70
     1
102
RTVSPropertyOp6
 70
     1
102
RTVSPropertyOp7
 70
     1
102
RTVSPropertyOp8
 70
     1
102
RTVSPropertyOp9
 70
     1
102
RTVSPropertyOp10
 70
     1
102
RTVSPropertyOp11
 70
     1
102
RTVSPropertyOp12
 70
     1
102
RTVSPropertyOp13
 70
     1
102
RTVSPropertyOp14
 70
     1
102
RTVSPropertyOp15
 70
     1
102
RTVSPropertyOp16
 70
     1
102
RTVSPropertyOp17
 70
     1
102
RTVSPropertyOp18
 70
     1
102
RTVSPropertyOp19
 70
     1
102
RTVSPropertyOp20
 70
     1
102
RTVSPropertyOp21
 70
     1
102
RTVSPropertyOp22
 70
     1
102
RTVSPropertyOp23
 70
     1
102
RTVSPropertyOp24
 70
     1
102
RTVSPropertyOp25
 70
     1
102
RTVSPropertyOp26
 70
     1
102
RTVSPropertyOp27
 70
     1
102
RTVSPropertyOp28
 70
     1
102
RTVSPropertyOp29
 70
     1
102
RTVSPropertyOp30
 70
     1
102
RTVSPropertyOp31
 70
     1
102
RTVSPropertyOp32
 70
     1
102
RTVSPropertyOp33
 70
     1
102
RTVSPropertyOp34
 70
     1
102
RTVSPropertyOp35
 70
     1
102
RTVSPropertyOp36
 70
     1
102
RTVSPropertyOp37
 70
     1
102
RTVSPropertyOp38
 70
     1
102
RTVSPropertyOp39
 70
     1
102
RTVSPropertyOp40
 70
     1
102
RTVSPropertyOp41
 70
     1
102
RTVSPropertyOp42
 70
     1
102
RTVSPropertyOp43
 70
     1
102
RTVSPropertyOp44
 70
     1
102
RTVSPropertyOp45
 70
     1
102
RTVSPropertyOp46
 70
     1
102
RTVSPropertyOp47
 70
     1
102
RTVSPropertyOp48
 70
     1
102
RTVSPropertyOp49
 70
     1
102
RTVSPropertyOp50
 70
     1
102
RTVSPropertyOp51
 70
     0
102
RTVSPropertyOp52
 70
     0
102
RTVSPropertyOp53
 70
     1
102
RTVSPropertyOp54
 70
     1
102
RTVSPropertyOp55
 70
     1
102
RTVSPropertyOp56
 70
     1
102
RTVSPropertyOp57
 70
     1
102
RTVSPropertyOp58
 70
     1
102
RTVSPropertyOp59
 70
     1
102
RTVSPropertyOp60
 70
     1
102
RTVSPropertyOp61
 70
     1
102
RTVSPropertyOp62
 70
     1
  0
XRECORD
  5
76F
102
{ACAD_REACTORS
330
76E
102
}
330
76E
100
AcDbXrecord
280
     1
102
RTVSPost2010Prop28
280
     0
102
RTVSPost2010PropOp28
 70
     1
102
RTVSPost2010Prop29
280
     1
102
RTVSPost2010PropOp29
 70
     1
102
RTVSPost2010Prop30
280
     1
102
RTVSPost2010PropOp30
 70
     1
102
RTVSPost2010Prop31
280
     0
102
RTVSPost2010PropOp31
 70
     1
102
RTVSPost2010Prop32
280
     0
102
RTVSPost2010PropOp32
 70
     1
102
RTVSPost2010Prop33
280
     0
102
RTVSPost2010PropOp33
 70
     1
102
RTVSPost2010Prop34
280
     0
102
RTVSPost2010PropOp34
 70
     1
102
RTVSPost2010Prop35
280
     0
102
RTVSPost2010PropOp35
 70
     1
102
RTVSPost2010Prop36
280
     0
102
RTVSPost2010PropOp36
 70
     1
102
RTVSPost2010Prop37
 90
       50
102
RTVSPost2010PropOp37
 70
     1
102
RTVSPost2010Prop38
140
0.0
102
RTVSPost2010PropOp38
 70
     1
102
RTVSPost2010Prop39
140
1.0
102
RTVSPost2010PropOp39
 70
     1
102
RTVSPost2010Prop40
 90
        0
102
RTVSPost2010PropOp40
 70
     1
102
RTVSPost2010Prop41ColorIndex
 90
       18
102
RTVSPost2010Prop41ColorRGB
 90
        0
102
RTVSPost2010PropOp41
 70
     1
102
RTVSPost2010Prop42
 90
       50
102
RTVSPost2010PropOp42
 70
     1
102
RTVSPost2010Prop43
 90
        3
102
RTVSPost2010PropOp43
 70
     1
102
RTVSPost2010Prop44ColorIndex
 90
        5
102
RTVSPost2010Prop44ColorRGB
 90
      255
102
RTVSPost2010PropOp44
 70
     1
102
RTVSPost2010Prop45
280
     0
102
RTVSPost2010PropOp45
 70
     1
102
RTVSPost2010Prop46
 90
       50
102
RTVSPost2010PropOp46
 70
     1
102
RTVSPost2010Prop47
 90
       50
102
RTVSPost2010PropOp47
 70
     1
102
RTVSPost2010Prop48
 90
       50
102
RTVSPost2010PropOp48
 70
     1
102
RTVSPost2010Prop49
280
     0
102
RTVSPost2010PropOp49
 70
     1
102
RTVSPost2010Prop50
 90
       50
102
RTVSPost2010PropOp50
 70
     1
102
RTVSPost2010Prop51ColorIndex
 90
      256
102
RTVSPost2010Prop51ColorRGB
 90
-16777216
102
RTVSPost2010PropOp51
 70
     0
102
RTVSPost2010Prop52
140
1.0
102
RTVSPost2010PropOp52
 70
     0
102
RTVSPost2010Prop53
 90
        2
102
RTVSPost2010PropOp53
 70
     1
102
RTVSPost2010Prop54
  1
strokes_ogs.tif
102
RTVSPost2010PropOp54
 70
     1
102
RTVSPost2010Prop55
280
     0
102
RTVSPost2010PropOp55
 70
     1
102
RTVSPost2010Prop56
140
1.0
102
RTVSPost2010PropOp56
 70
     1
102
RTVSPost2010Prop57
140
1.0
102
RTVSPost2010PropOp57
 70
     1
102
RTVSPropertyOp0
 70
     1
102
RTVSPropertyOp1
 70
     1
102
RTVSPropertyOp2
 70
     1
102
RTVSPropertyOp3
 70
     1
102
RTVSPropertyOp4
 70
     1
102
RTVSPropertyOp5
 70
     1
102
RTVSPropertyOp6
 70
     1
102
RTVSPropertyOp7
 70
     1
102
RTVSPropertyOp8
 70
     1
102
RTVSPropertyOp9
 70
     1
102
RTVSPropertyOp10
 70
     1
102
RTVSPropertyOp11
 70
     1
102
RTVSPropertyOp12
 70
     1
102
RTVSPropertyOp13
 70
     1
102
RTVSPropertyOp14
 70
     1
102
RTVSPropertyOp15
 70
     1
102
RTVSPropertyOp16
 70
     1
102
RTVSPropertyOp17
 70
     1
102
RTVSPropertyOp18
 70
     1
102
RTVSPropertyOp19
 70
     1
102
RTVSPropertyOp20
 70
     1
102
RTVSPropertyOp21
 70
     1
102
RTVSPropertyOp22
 70
     1
102
RTVSPropertyOp23
 70
     1
102
RTVSPropertyOp24
 70
     1
102
RTVSPropertyOp25
 70
     1
102
RTVSPropertyOp26
 70
     1
102
RTVSPropertyOp27
 70
     1
102
RTVSPropertyOp28
 70
     1
102
RTVSPropertyOp29
 70
     1
102
RTVSPropertyOp30
 70
     1
102
RTVSPropertyOp31
 70
     1
102
RTVSPropertyOp32
 70
     1
102
RTVSPropertyOp33
 70
     1
102
RTVSPropertyOp34
 70
     1
102
RTVSPropertyOp35
 70
     1
102
RTVSPropertyOp36
 70
     1
102
RTVSPropertyOp37
 70
     1
102
RTVSPropertyOp38
 70
     1
102
RTVSPropertyOp39
 70
     1
102
RTVSPropertyOp40
 70
     1
102
RTVSPropertyOp41
 70
     1
102
RTVSPropertyOp42
 70
     1
102
RTVSPropertyOp43
 70
     1
102
RTVSPropertyOp44
 70
     1
102
RTVSPropertyOp45
 70
     1
102
RTVSPropertyOp46
 70
     1
102
RTVSPropertyOp47
 70
     1
102
RTVSPropertyOp48
 70
     1
102
RTVSPropertyOp49
 70
     1
102
RTVSPropertyOp50
 70
     1
102
RTVSPropertyOp51
 70
     0
102
RTVSPropertyOp52
 70
     0
102
RTVSPropertyOp53
 70
     1
102
RTVSPropertyOp54
 70
     1
102
RTVSPropertyOp55
 70
     1
102
RTVSPropertyOp56
 70
     1
102
RTVSPropertyOp57
 70
     1
102
RTVSPropertyOp58
 70
     1
102
RTVSPropertyOp59
 70
     1
102
RTVSPropertyOp60
 70
     1
102
RTVSPropertyOp61
 70
     1
102
RTVSPropertyOp62
 70
     1
  0
XRECORD
  5
787
102
{ACAD_REACTORS
330
786
102
}
330
786
100
AcDbXrecord
280
     1
102
RTVSPost2010Prop28
280
     0
102
RTVSPost2010PropOp28
 70
     1
102
RTVSPost2010Prop29
280
     1
102
RTVSPost2010PropOp29
 70
     1
102
RTVSPost2010Prop30
280
     1
102
RTVSPost2010PropOp30
 70
     1
102
RTVSPost2010Prop31
280
     0
102
RTVSPost2010PropOp31
 70
     1
102
RTVSPost2010Prop32
280
     0
102
RTVSPost2010PropOp32
 70
     1
102
RTVSPost2010Prop33
280
     0
102
RTVSPost2010PropOp33
 70
     1
102
RTVSPost2010Prop34
280
     0
102
RTVSPost2010PropOp34
 70
     1
102
RTVSPost2010Prop35
280
     0
102
RTVSPost2010PropOp35
 70
     1
102
RTVSPost2010Prop36
280
     0
102
RTVSPost2010PropOp36
 70
     1
102
RTVSPost2010Prop37
 90
       50
102
RTVSPost2010PropOp37
 70
     1
102
RTVSPost2010Prop38
140
0.0
102
RTVSPost2010PropOp38
 70
     1
102
RTVSPost2010Prop39
140
1.0
102
RTVSPost2010PropOp39
 70
     1
102
RTVSPost2010Prop40
 90
        0
102
RTVSPost2010PropOp40
 70
     1
102
RTVSPost2010Prop41ColorIndex
 90
       18
102
RTVSPost2010Prop41ColorRGB
 90
        0
102
RTVSPost2010PropOp41
 70
     1
102
RTVSPost2010Prop42
 90
       50
102
RTVSPost2010PropOp42
 70
     1
102
RTVSPost2010Prop43
 90
        3
102
RTVSPost2010PropOp43
 70
     1
102
RTVSPost2010Prop44ColorIndex
 90
        5
102
RTVSPost2010Prop44ColorRGB
 90
      255
102
RTVSPost2010PropOp44
 70
     1
102
RTVSPost2010Prop45
280
     0
102
RTVSPost2010PropOp45
 70
     1
102
RTVSPost2010Prop46
 90
       50
102
RTVSPost2010PropOp46
 70
     1
102
RTVSPost2010Prop47
 90
       50
102
RTVSPost2010PropOp47
 70
     1
102
RTVSPost2010Prop48
 90
       50
102
RTVSPost2010PropOp48
 70
     1
102
RTVSPost2010Prop49
280
     0
102
RTVSPost2010PropOp49
 70
     1
102
RTVSPost2010Prop50
 90
       50
102
RTVSPost2010PropOp50
 70
     1
102
RTVSPost2010Prop51ColorIndex
 90
      256
102
RTVSPost2010Prop51ColorRGB
 90
-16777216
102
RTVSPost2010PropOp51
 70
     0
102
RTVSPost2010Prop52
140
1.0
102
RTVSPost2010PropOp52
 70
     0
102
RTVSPost2010Prop53
 90
        2
102
RTVSPost2010PropOp53
 70
     1
102
RTVSPost2010Prop54
  1
strokes_ogs.tif
102
RTVSPost2010PropOp54
 70
     1
102
RTVSPost2010Prop55
280
     0
102
RTVSPost2010PropOp55
 70
     1
102
RTVSPost2010Prop56
140
1.0
102
RTVSPost2010PropOp56
 70
     1
102
RTVSPost2010Prop57
140
1.0
102
RTVSPost2010PropOp57
 70
     1
102
RTVSPropertyOp0
 70
     1
102
RTVSPropertyOp1
 70
     1
102
RTVSPropertyOp2
 70
     1
102
RTVSPropertyOp3
 70
     1
102
RTVSPropertyOp4
 70
     1
102
RTVSPropertyOp5
 70
     1
102
RTVSPropertyOp6
 70
     1
102
RTVSPropertyOp7
 70
     1
102
RTVSPropertyOp8
 70
     1
102
RTVSPropertyOp9
 70
     1
102
RTVSPropertyOp10
 70
     1
102
RTVSPropertyOp11
 70
     1
102
RTVSPropertyOp12
 70
     1
102
RTVSPropertyOp13
 70
     1
102
RTVSPropertyOp14
 70
     1
102
RTVSPropertyOp15
 70
     1
102
RTVSPropertyOp16
 70
     1
102
RTVSPropertyOp17
 70
     1
102
RTVSPropertyOp18
 70
     1
102
RTVSPropertyOp19
 70
     1
102
RTVSPropertyOp20
 70
     1
102
RTVSPropertyOp21
 70
     1
102
RTVSPropertyOp22
 70
     1
102
RTVSPropertyOp23
 70
     1
102
RTVSPropertyOp24
 70
     1
102
RTVSPropertyOp25
 70
     1
102
RTVSPropertyOp26
 70
     1
102
RTVSPropertyOp27
 70
     1
102
RTVSPropertyOp28
 70
     1
102
RTVSPropertyOp29
 70
     1
102
RTVSPropertyOp30
 70
     1
102
RTVSPropertyOp31
 70
     1
102
RTVSPropertyOp32
 70
     1
102
RTVSPropertyOp33
 70
     1
102
RTVSPropertyOp34
 70
     1
102
RTVSPropertyOp35
 70
     1
102
RTVSPropertyOp36
 70
     1
102
RTVSPropertyOp37
 70
     1
102
RTVSPropertyOp38
 70
     1
102
RTVSPropertyOp39
 70
     1
102
RTVSPropertyOp40
 70
     1
102
RTVSPropertyOp41
 70
     1
102
RTVSPropertyOp42
 70
     1
102
RTVSPropertyOp43
 70
     1
102
RTVSPropertyOp44
 70
     1
102
RTVSPropertyOp45
 70
     1
102
RTVSPropertyOp46
 70
     1
102
RTVSPropertyOp47
 70
     1
102
RTVSPropertyOp48
 70
     1
102
RTVSPropertyOp49
 70
     1
102
RTVSPropertyOp50
 70
     1
102
RTVSPropertyOp51
 70
     0
102
RTVSPropertyOp52
 70
     0
102
RTVSPropertyOp53
 70
     1
102
RTVSPropertyOp54
 70
     1
102
RTVSPropertyOp55
 70
     1
102
RTVSPropertyOp56
 70
     1
102
RTVSPropertyOp57
 70
     1
102
RTVSPropertyOp58
 70
     1
102
RTVSPropertyOp59
 70
     1
102
RTVSPropertyOp60
 70
     1
102
RTVSPropertyOp61
 70
     1
102
RTVSPropertyOp62
 70
     1
  0
ENDSEC
  0
EOF
