  0
SECTION
  2
HEADER
  9
$ACADVER
  1
AC1018
  9
$ACADMAINTVER
 70
   104
  9
$DWGCODEPAGE
  3
ANSI_932
  9
$TITLE
  1
15ｋｇ型 LPガス容器
  9
$SUBJECT
  1
組立図　（構内フォークリフト用\U+FF8C\U+FF9B\U+FF70\U+FF84\U+FF79\U+FF9E\U+FF70\U+FF7C\U+FF9E付、Ａ型）
  9
$AUTHOR
  1
岩崎
  9
$KEYWORDS
  1
LP-36-5780
  9
$COMMENTS
  1
K-CADで作成した図をAUTO-CAD化したもの^M^J^M^JHP掲載用^M^J2022.5.30
  9
$LASTSAVEDBY
  1
CKK004820
  9
$INSBASE
 10
0.0
 20
0.0
 30
0.0
  9
$EXTMIN
 10
22.49999917446803
 20
6.749999906154698
 30
-0.0000000116415251
  9
$EXTMAX
 10
1237.499997853962
 20
884.2499990537007
 30
-0.0000000116415251
  9
$LIMMIN
 10
-3.17498779296875
 20
-3.174999952316284
  9
$LIMMAX
 10
416.8139953613281
 20
293.8356506824494
  9
$ORTHOMODE
 70
     1
  9
$REGENMODE
 70
     1
  9
$FILLMODE
 70
     1
  9
$QTEXTMODE
 70
     0
  9
$MIRRTEXT
 70
     0
  9
$LTSCALE
 40
0.5
  9
$ATTMODE
 70
     1
  9
$TEXTSIZE
 40
4.0
  9
$TRACEWID
 40
1.0
  9
$TEXTSTYLE
  7
Standard
  9
$CLAYER
  8
Size
  9
$CELTYPE
  6
ByLayer
  9
$CECOLOR
 62
   256
  9
$CELTSCALE
 40
1.0
  9
$DISPSILH
 70
     0
  9
$DIMSCALE
 40
1.0
  9
$DIMASZ
 40
0.001
  9
$DIMEXO
 40
0.625
  9
$DIMDLI
 40
6.0
  9
$DIMRND
 40
0.0
  9
$DIMDLE
 40
0.0
  9
$DIMEXE
 40
1.25
  9
$DIMTP
 40
0.0
  9
$DIMTM
 40
0.000000001
  9
$DIMTXT
 40
4.0
  9
$DIMCEN
 40
0.0
  9
$DIMTSZ
 40
0.0
  9
$DIMTOL
 70
     0
  9
$DIMLIM
 70
     0
  9
$DIMTIH
 70
     0
  9
$DIMTOH
 70
     0
  9
$DIMSE1
 70
     0
  9
$DIMSE2
 70
     0
  9
$DIMTAD
 70
     1
  9
$DIMZIN
 70
     8
  9
$DIMBLK
  1
30a
  9
$DIMASO
 70
     1
  9
$DIMSHO
 70
     1
  9
$DIMPOST
  1

  9
$DIMAPOST
  1

  9
$DIMALT
 70
     0
  9
$DIMALTD
 70
     3
  9
$DIMALTF
 40
0.03937007874016
  9
$DIMLFAC
 40
1.0
  9
$DIMTOFL
 70
     0
  9
$DIMTVP
 40
0.0
  9
$DIMTIX
 70
     0
  9
$DIMSOXD
 70
     0
  9
$DIMSAH
 70
     0
  9
$DIMBLK1
  1

  9
$DIMBLK2
  1

  9
$DIMSTYLE
  2
設計
  9
$DIMCLRD
 70
     0
  9
$DIMCLRE
 70
     0
  9
$DIMCLRT
 70
     0
  9
$DIMTFAC
 40
0.5
  9
$DIMGAP
 40
0.625
  9
$DIMJUST
 70
     0
  9
$DIMSD1
 70
     0
  9
$DIMSD2
 70
     0
  9
$DIMTOLJ
 70
     0
  9
$DIMTZIN
 70
     8
  9
$DIMALTZ
 70
     0
  9
$DIMALTTZ
 70
     0
  9
$DIMUPT
 70
     0
  9
$DIMDEC
 70
     2
  9
$DIMTDEC
 70
     2
  9
$DIMALTU
 70
     2
  9
$DIMALTTD
 70
     3
  9
$DIMTXSTY
  7
Standard
  9
$DIMAUNIT
 70
     0
  9
$DIMADEC
 70
     0
  9
$DIMALTRND
 40
0.0
  9
$DIMAZIN
 70
     0
  9
$DIMDSEP
 70
    46
  9
$DIMATFIT
 70
     3
  9
$DIMFRAC
 70
     0
  9
$DIMLDRBLK
  1
30a
  9
$DIMLUNIT
 70
     2
  9
$DIMLWD
 70
     9
  9
$DIMLWE
 70
     9
  9
$DIMTMOVE
 70
     0
  9
$LUNITS
 70
     2
  9
$LUPREC
 70
     4
  9
$SKETCHINC
 40
1.0
  9
$FILLETRAD
 40
0.0
  9
$AUNITS
 70
     0
  9
$AUPREC
 70
     8
  9
$MENU
  1
.
  9
$ELEVATION
 40
0.0
  9
$PELEVATION
 40
0.0
  9
$THICKNESS
 40
0.0
  9
$LIMCHECK
 70
     0
  9
$CHAMFERA
 40
0.5
  9
$CHAMFERB
 40
0.5
  9
$CHAMFERC
 40
0.0
  9
$CHAMFERD
 40
0.0
  9
$SKPOLY
 70
     0
  9
$TDCREATE
 40
2460957.655219908
  9
$TDUCREATE
 40
2460957.280219908
  9
$TDUPDATE
 40
2460957.656886574
  9
$TDUUPDATE
 40
2460957.281886574
  9
$TDINDWG
 40
0.0016319444
  9
$TDUSRTIMER
 40
0.0016319444
  9
$USRTIMER
 70
     1
  9
$ANGBASE
 50
0.0
  9
$ANGDIR
 70
     0
  9
$PDMODE
 70
     0
  9
$PDSIZE
 40
0.0
  9
$PLINEWID
 40
0.0
  9
$SPLFRAME
 70
     0
  9
$SPLINETYPE
 70
     6
  9
$SPLINESEGS
 70
     8
  9
$HANDSEED
  5
7B1
  9
$SURFTAB1
 70
     6
  9
$SURFTAB2
 70
     6
  9
$SURFTYPE
 70
     6
  9
$SURFU
 70
     6
  9
$SURFV
 70
     6
  9
$UCSBASE
  2

  9
$UCSNAME
  2

  9
$UCSORG
 10
0.0
 20
0.0
 30
0.0
  9
$UCSXDIR
 10
1.0
 20
0.0
 30
0.0
  9
$UCSYDIR
 10
0.0
 20
1.0
 30
0.0
  9
$UCSORTHOREF
  2

  9
$UCSORTHOVIEW
 70
     0
  9
$UCSORGTOP
 10
0.0
 20
0.0
 30
0.0
  9
$UCSORGBOTTOM
 10
0.0
 20
0.0
 30
0.0
  9
$UCSORGLEFT
 10
0.0
 20
0.0
 30
0.0
  9
$UCSORGRIGHT
 10
0.0
 20
0.0
 30
0.0
  9
$UCSORGFRONT
 10
0.0
 20
0.0
 30
0.0
  9
$UCSORGBACK
 10
0.0
 20
0.0
 30
0.0
  9
$PUCSBASE
  2

  9
$PUCSNAME
  2

  9
$PUCSORG
 10
0.0
 20
0.0
 30
0.0
  9
$PUCSXDIR
 10
1.0
 20
0.0
 30
0.0
  9
$PUCSYDIR
 10
0.0
 20
1.0
 30
0.0
  9
$PUCSORTHOREF
  2

  9
$PUCSORTHOVIEW
 70
     0
  9
$PUCSORGTOP
 10
0.0
 20
0.0
 30
0.0
  9
$PUCSORGBOTTOM
 10
0.0
 20
0.0
 30
0.0
  9
$PUCSORGLEFT
 10
0.0
 20
0.0
 30
0.0
  9
$PUCSORGRIGHT
 10
0.0
 20
0.0
 30
0.0
  9
$PUCSORGFRONT
 10
0.0
 20
0.0
 30
0.0
  9
$PUCSORGBACK
 10
0.0
 20
0.0
 30
0.0
  9
$USERI1
 70
     0
  9
$USERI2
 70
     0
  9
$USERI3
 70
     0
  9
$USERI4
 70
     0
  9
$USERI5
 70
     0
  9
$USERR1
 40
0.0
  9
$USERR2
 40
0.0
  9
$USERR3
 40
0.0
  9
$USERR4
 40
0.0
  9
$USERR5
 40
0.0
  9
$WORLDVIEW
 70
     1
  9
$SHADEDGE
 70
     3
  9
$SHADEDIF
 70
    70
  9
$TILEMODE
 70
     1
  9
$MAXACTVP
 70
    64
  9
$PINSBASE
 10
0.0
 20
0.0
 30
0.0
  9
$PLIMCHECK
 70
     0
  9
$PEXTMIN
 10
29.69999999999999
 20
21.0
 30
0.0
  9
$PEXTMAX
 10
267.3
 20
189.0
 30
0.0
  9
$PLIMMIN
 10
0.0
 20
0.0
  9
$PLIMMAX
 10
297.0
 20
210.0
  9
$UNITMODE
 70
     0
  9
$VISRETAIN
 70
     1
  9
$PLINEGEN
 70
     0
  9
$PSLTSCALE
 70
     1
  9
$TREEDEPTH
 70
  3020
  9
$CMLSTYLE
  2
Standard
  9
$CMLJUST
 70
     0
  9
$CMLSCALE
 40
20.0
  9
$PROXYGRAPHICS
 70
     1
  9
$MEASUREMENT
 70
     1
  9
$CELWEIGHT
370
    -1
  9
$ENDCAPS
280
     0
  9
$JOINSTYLE
280
     0
  9
$LWDISPLAY
290
     0
  9
$INSUNITS
 70
     4
  9
$HYPERLINKBASE
  1

  9
$STYLESHEET
  1

  9
$XEDIT
290
     1
  9
$CEPSNTYPE
380
     0
  9
$PSTYLEMODE
290
     0
  9
$FINGERPRINTGUID
  2
{45467834-BB03-2E45-B0FE-DF72E77C0BC5}
  9
$VERSIONGUID
  2
{9F07136E-4DED-4240-9A8D-4F9904500358}
  9
$EXTNAMES
290
     1
  9
$PSVPSCALE
 40
0.0
  9
$OLESTARTUP
290
     0
  9
$SORTENTS
280
   127
  9
$INDEXCTL
280
     0
  9
$HIDETEXT
280
     1
  9
$XCLIPFRAME
290
     0
  9
$HALOGAP
280
     0
  9
$OBSCOLOR
 70
   257
  9
$OBSLTYPE
280
     0
  9
$INTERSECTIONDISPLAY
280
     0
  9
$INTERSECTIONCOLOR
 70
   257
  9
$DIMASSOC
280
     2
  9
$PROJECTNAME
  1

  0
ENDSEC
  0
SECTION
  2
CLASSES
  0
CLASS
  1
ACDBDICTIONARYWDFLT
  2
AcDbDictionaryWithDefault
  3
ObjectDBX Classes
 90
        0
 91
        1
280
     0
281
     0
  0
CLASS
  1
MATERIAL
  2
AcDbMaterial
  3
ObjectDBX Classes
 90
     1153
 91
        3
280
     0
281
     0
  0
CLASS
  1
VISUALSTYLE
  2
AcDbVisualStyle
  3
ObjectDBX Classes
 90
     4095
 91
       24
280
     0
281
     0
  0
CLASS
  1
SCALE
  2
AcDbScale
  3
ObjectDBX Classes
 90
     1153
 91
       17
280
     0
281
     0
  0
CLASS
  1
TABLESTYLE
  2
AcDbTableStyle
  3
ObjectDBX Classes
 90
     4095
 91
        1
280
     0
281
     0
  0
CLASS
  1
MLEADERSTYLE
  2
AcDbMLeaderStyle
  3
ACDB_MLEADERSTYLE_CLASS
 90
     4095
 91
        1
280
     0
281
     0
  0
CLASS
  1
ACDBSECTIONVIEWSTYLE
  2
AcDbSectionViewStyle
  3
ObjectDBX Classes
 90
     1025
 91
        2
280
     0
281
     0
  0
CLASS
  1
ACDBDETAILVIEWSTYLE
  2
AcDbDetailViewStyle
  3
ObjectDBX Classes
 90
     1025
 91
        2
280
     0
281
     0
  0
CLASS
  1
SORTENTSTABLE
  2
AcDbSortentsTable
  3
ObjectDBX Classes
 90
        0
 91
        2
280
     0
281
     0
  0
CLASS
  1
DIMASSOC
  2
AcDbDimAssoc
  3
"AcDbDimAssoc|Product Desc:     AcDim ARX App For Dimension|Company:          Autodesk, Inc.|WEB Address:      www.autodesk.com"
 90
        0
 91
        9
280
     0
281
     0
  0
CLASS
  1
DICTIONARYVAR
  2
AcDbDictionaryVar
  3
ObjectDBX Classes
 90
        0
 91
       10
280
     0
281
     0
  0
CLASS
  1
CELLSTYLEMAP
  2
AcDbCellStyleMap
  3
ObjectDBX Classes
 90
     1152
 91
        1
280
     0
281
     0
  0
ENDSEC
  0
SECTION
  2
TABLES
  0
TABLE
  2
VPORT
  5
8
330
0
100
AcDbSymbolTable
 70
     1
  0
VPORT
  5
57
330
8
100
AcDbSymbolTableRecord
100
AcDbViewportTableRecord
  2
*Active
 70
     0
 10
0.0
 20
0.0
 11
1.0
 21
1.0
 12
629.9999985142155
 22
445.4999994799277
 13
0.0
 23
0.0
 14
10.0
 24
10.0
 15
10.0
 25
10.0
 16
0.0
 26
0.0
 36
1.0
 17
0.0
 27
0.0
 37
0.0
 40
883.4693868968491
 41
1.62883087400681
 42
50.0
 43
0.0
 44
0.0
 50
0.0
 51
0.0
 71
     0
 72
  1000
 73
     1
 74
     1
 75
     0
 76
     0
 77
     0
 78
     0
281
     0
 65
     1
110
0.0
120
0.0
130
0.0
111
1.0
121
0.0
131
0.0
112
0.0
122
1.0
132
0.0
 79
     0
146
0.0
1001
ACAD_NAV_VCDISPLAY
1070
     3
  0
ENDTAB
  0
TABLE
  2
LTYPE
  5
5
330
0
100
AcDbSymbolTable
 70
     7
  0
LTYPE
  5
5B
330
5
100
AcDbSymbolTableRecord
100
AcDbLinetypeTableRecord
  2
ByBlock
 70
     0
  3

 72
    65
 73
     0
 40
0.0
  0
LTYPE
  5
5C
330
5
100
AcDbSymbolTableRecord
100
AcDbLinetypeTableRecord
  2
ByLayer
 70
     0
  3

 72
    65
 73
     0
 40
0.0
  0
LTYPE
  5
5D
330
5
100
AcDbSymbolTableRecord
100
AcDbLinetypeTableRecord
  2
Continuous
 70
     0
  3
Solid line
 72
    65
 73
     0
 40
0.0
  0
LTYPE
  5
7B
330
5
100
AcDbSymbolTableRecord
100
AcDbLinetypeTableRecord
  2
CENTER2
 70
     0
  3
Center (.5x) ___ _ ___ _ ___ _ ___ _ ___ _ ___
 72
    65
 73
     4
 40
28.575
 49
19.05
 74
     0
 49
-3.174999999999999
 74
     0
 49
3.174999999999999
 74
     0
 49
-3.174999999999999
 74
     0
  0
LTYPE
  5
7C
330
5
100
AcDbSymbolTableRecord
100
AcDbLinetypeTableRecord
  2
DASHED2
 70
     0
  3
Dashed (.5x) _ _ _ _ _ _ _ _ _ _ _ _ _ _ _ _ _
 72
    65
 73
     2
 40
9.524999999999998
 49
6.349999999999999
 74
     0
 49
-3.174999999999999
 74
     0
  0
LTYPE
  5
7D
330
5
100
AcDbSymbolTableRecord
100
AcDbLinetypeTableRecord
  2
HIDDEN2
 70
     0
  3
Hidden (.5x) _ _ _ _ _ _ _ _ _ _ _ _ _ _ _ _ _
 72
    65
 73
     2
 40
4.762499999999999
 49
3.174999999999999
 74
     0
 49
-1.587499999999999
 74
     0
  0
LTYPE
  5
7E
330
5
100
AcDbSymbolTableRecord
100
AcDbLinetypeTableRecord
  2
PHANTOM2
 70
     0
  3
Phantom (.5x) ___ _ _ ___ _ _ ___ _ _ ___ _ _
 72
    65
 73
     6
 40
31.75
 49
15.875
 74
     0
 49
-3.174999999999999
 74
     0
 49
3.174999999999999
 74
     0
 49
-3.174999999999999
 74
     0
 49
3.174999999999999
 74
     0
 49
-3.174999999999999
 74
     0
  0
LTYPE
  5
7F
330
5
100
AcDbSymbolTableRecord
100
AcDbLinetypeTableRecord
  2
PHANTOM
 70
     0
  3
_____ _ _ _____ _ _ _____ _ _ _____ _ _ ____
 72
    65
 73
     6
 40
2.5
 49
1.25
 74
     0
 49
-0.25
 74
     0
 49
0.25
 74
     0
 49
-0.25
 74
     0
 49
0.25
 74
     0
 49
-0.25
 74
     0
  0
ENDTAB
  0
TABLE
  2
LAYER
  5
2
102
{ACAD_XDICTIONARY
360
6C9
102
}
330
0
100
AcDbSymbolTable
 70
     8
  0
LAYER
  5
54
102
{ACAD_XDICTIONARY
360
754
102
}
330
2
100
AcDbSymbolTableRecord
100
AcDbLayerTableRecord
  2
0
 70
     0
 62
     7
  6
Continuous
370
    -3
390
85
1001
AcAecLayerStandard
1000

1000

  0
LAYER
  5
79
330
2
100
AcDbSymbolTableRecord
100
AcDbLayerTableRecord
  2
Defpoints
 70
     0
 62
   151
  6
Continuous
290
     0
370
    -3
390
85
1001
AcAecLayerStandard
1000

1000
非表示用
  0
LAYER
  5
98
102
{ACAD_XDICTIONARY
360
99
102
}
330
2
100
AcDbSymbolTableRecord
100
AcDbLayerTableRecord
  2
Hidden
 70
     0
 62
     7
  6
HIDDEN2
370
     9
390
85
1001
AcAecLayerStandard
1000

1000
点線
  0
LAYER
  5
9E
102
{ACAD_XDICTIONARY
360
9F
102
}
330
2
100
AcDbSymbolTableRecord
100
AcDbLayerTableRecord
  2
Line
 70
     0
 62
     3
  6
Continuous
370
    30
390
85
1001
AcAecLayerStandard
1000

1000
実線
  0
LAYER
  5
AA
102
{ACAD_XDICTIONARY
360
AB
102
}
330
2
100
AcDbSymbolTableRecord
100
AcDbLayerTableRecord
  2
Center
 70
     0
 62
     2
  6
CENTER2
370
     9
390
85
1001
AcAecLayerStandard
1000

1000
一点鎖線
  0
LAYER
  5
FE
102
{ACAD_XDICTIONARY
360
FF
102
}
330
2
100
AcDbSymbolTableRecord
100
AcDbLayerTableRecord
  2
Phantom
 70
     0
 62
     7
  6
PHANTOM2
370
     9
390
85
1001
AcAecLayerStandard
1000

1000
二点鎖線
  0
LAYER
  5
21B
102
{ACAD_XDICTIONARY
360
21C
102
}
330
2
100
AcDbSymbolTableRecord
100
AcDbLayerTableRecord
  2
Text
 70
     0
 62
     7
  6
Continuous
370
    30
390
85
1001
AcAecLayerStandard
1000

1000
文字
  0
LAYER
  5
23C
102
{ACAD_XDICTIONARY
360
23D
102
}
330
2
100
AcDbSymbolTableRecord
100
AcDbLayerTableRecord
  2
Size
 70
     0
 62
    40
  6
Continuous
370
    30
390
85
1001
AcAecLayerStandard
1000

1000
寸法
  0
ENDTAB
  0
TABLE
  2
STYLE
  5
3
330
0
100
AcDbSymbolTable
 70
     3
  0
STYLE
  5
55
330
3
100
AcDbSymbolTableRecord
100
AcDbTextStyleTableRecord
  2
Standard
 70
     0
 40
0.0
 41
1.0
 50
0.0
 71
     0
 42
4.0
  3
exthalf2.shx
  4
extfont2.shx
  0
STYLE
  5
5A
330
3
100
AcDbSymbolTableRecord
100
AcDbTextStyleTableRecord
  2
Annotative
 70
     0
 40
0.0
 41
1.0
 50
0.0
 71
     0
 42
0.2
  3
txt
  4

1001
AcadAnnotative
1000
AnnotativeData
1002
{
1070
     1
1070
     1
1002
}
  0
STYLE
  5
7A
330
3
100
AcDbSymbolTableRecord
100
AcDbTextStyleTableRecord
  2
KCADTEXTSTANDARD
 70
     0
 40
0.0
 41
1.0
 50
0.0
 71
     0
 42
3.2
  3
txt.shx
  4
bigfont.shx
  0
ENDTAB
  0
TABLE
  2
VIEW
  5
6
330
0
100
AcDbSymbolTable
 70
     2
  0
ENDTAB
  0
TABLE
  2
UCS
  5
7
330
0
100
AcDbSymbolTable
 70
     0
  0
ENDTAB
  0
TABLE
  2
APPID
  5
9
330
0
100
AcDbSymbolTable
 70
    16
  0
APPID
  5
56
330
9
100
AcDbSymbolTableRecord
100
AcDbRegAppTableRecord
  2
ACAD
 70
     0
  0
APPID
  5
5E
330
9
100
AcDbSymbolTableRecord
100
AcDbRegAppTableRecord
  2
AcadAnnotative
 70
     0
  0
APPID
  5
78
330
9
100
AcDbSymbolTableRecord
100
AcDbRegAppTableRecord
  2
ACAD_PSEXT
 70
     0
  0
APPID
  5
87
330
9
100
AcDbSymbolTableRecord
100
AcDbRegAppTableRecord
  2
AcDbBlockRepETag
 70
     0
  0
APPID
  5
8B
330
9
100
AcDbSymbolTableRecord
100
AcDbRegAppTableRecord
  2
AcDbDynamicBlockGUID
 70
     0
  0
APPID
  5
8C
330
9
100
AcDbSymbolTableRecord
100
AcDbRegAppTableRecord
  2
ACAD_DSTYLE_DIMJOGGED_JOGANGLE_SYMBOL
 70
     0
  0
APPID
  5
9B
330
9
100
AcDbSymbolTableRecord
100
AcDbRegAppTableRecord
  2
AcAecLayerStandard
 70
     0
  0
APPID
  5
9C
330
9
100
AcDbSymbolTableRecord
100
AcDbRegAppTableRecord
  2
Sigma
 70
     0
  0
APPID
  5
24B
330
9
100
AcDbSymbolTableRecord
100
AcDbRegAppTableRecord
  2
ACAD_DIMASSOC_OVERRIDDEN_DIMLFAC
 70
     0
  0
APPID
  5
24C
330
9
100
AcDbSymbolTableRecord
100
AcDbRegAppTableRecord
  2
ACAD_DIMASSOC_CALC_DIMLFAC
 70
     0
  0
APPID
  5
24D
330
9
100
AcDbSymbolTableRecord
100
AcDbRegAppTableRecord
  2
ACAD_DIMASSOC_DIMLFAC
 70
     0
  0
APPID
  5
6D0
330
9
100
AcDbSymbolTableRecord
100
AcDbRegAppTableRecord
  2
ACAD_NAV_VCDISPLAY
 70
     0
  0
APPID
  5
751
330
9
100
AcDbSymbolTableRecord
100
AcDbRegAppTableRecord
  2
ACAD_EXEMPT_FROM_CAD_STANDARDS
 70
     0
  0
APPID
  5
79C
330
9
100
AcDbSymbolTableRecord
100
AcDbRegAppTableRecord
  2
ACAD_MLEADERVER
 70
     0
  0
APPID
  5
7A3
330
9
100
AcDbSymbolTableRecord
100
AcDbRegAppTableRecord
  2
ACAD_DSTYLE_DIMARC_LENGTH_SYMBOL
 70
     0
  0
APPID
  5
7A4
330
9
100
AcDbSymbolTableRecord
100
AcDbRegAppTableRecord
  2
ACAD_DSTYLE_DIMEXT_LENGTH
 70
     0
  0
ENDTAB
  0
TABLE
  2
DIMSTYLE
  5
A
330
0
100
AcDbSymbolTable
 70
     5
100
AcDbDimStyleTable
 71
     1
340
80
  0
DIMSTYLE
105
58
330
A
100
AcDbSymbolTableRecord
100
AcDbDimStyleTableRecord
  2
Standard
 70
     0
340
55
  0
DIMSTYLE
105
59
330
A
100
AcDbSymbolTableRecord
100
AcDbDimStyleTableRecord
  2
Annotative
 70
     0
340
55
1001
AcadAnnotative
1000
AnnotativeData
1002
{
1070
     1
1070
     1
1002
}
  0
DIMSTYLE
105
80
330
A
100
AcDbSymbolTableRecord
100
AcDbDimStyleTableRecord
  2
設計
 70
     0
 41
0.001
 42
0.625
 43
6.0
 44
1.25
 48
0.000000001
 73
     0
 74
     0
 77
     1
 78
     8
140
4.0
141
0.0
143
0.03937007874016
146
0.5
147
0.625
171
     3
271
     2
272
     2
274
     3
283
     0
284
     8
340
55
341
81
342
81
371
     9
372
     9
1001
ACAD_DSTYLE_DIMARC_LENGTH_SYMBOL
1070
   379
1070
     1
1001
ACAD_DSTYLE_DIMEXT_LENGTH
1070
   378
1040
1.25
1001
ACAD_DSTYLE_DIMJOGGED_JOGANGLE_SYMBOL
1070
   384
1040
1.570796326794896
  0
DIMSTYLE
105
8D
330
A
100
AcDbSymbolTableRecord
100
AcDbDimStyleTableRecord
  2
設計$2
 70
     0
 41
2.0
 42
0.625
 43
6.0
 44
1.25
 48
0.000000001
 73
     0
 74
     0
 77
     1
 78
     8
140
4.0
141
0.0
143
0.03937007874016
146
0.5
147
0.625
171
     3
271
     2
272
     2
274
     3
283
     0
284
     8
340
55
341
81
342
8E
371
     9
372
     9
1001
ACAD_DSTYLE_DIMARC_LENGTH_SYMBOL
1070
   379
1070
     1
1001
ACAD_DSTYLE_DIMEXT_LENGTH
1070
   378
1040
1.25
1001
ACAD_DSTYLE_DIMJOGGED_JOGANGLE_SYMBOL
1070
   384
1040
1.570796326794896
  0
DIMSTYLE
105
94
330
A
100
AcDbSymbolTableRecord
100
AcDbDimStyleTableRecord
  2
設計$3
 70
     0
 41
0.001
 42
0.625
 43
6.0
 44
1.25
 48
0.000000001
 73
     0
 74
     0
 77
     1
 78
     8
140
4.0
141
0.0
143
0.03937007874016
146
0.5
147
0.625
171
     3
172
     1
271
     2
272
     2
274
     3
283
     0
284
     8
288
     1
289
     0
340
55
341
81
342
81
371
     9
372
     9
1001
ACAD_DSTYLE_DIMARC_LENGTH_SYMBOL
1070
   379
1070
     1
1001
ACAD_DSTYLE_DIMEXT_LENGTH
1070
   378
1040
1.25
1001
ACAD_DSTYLE_DIMJOGGED_JOGANGLE_SYMBOL
1070
   384
1040
1.570796326794896
  0
ENDTAB
  0
TABLE
  2
BLOCK_RECORD
  5
1
330
0
100
AcDbSymbolTable
 70
    27
  0
BLOCK_RECORD
  5
70
102
{ACAD_XDICTIONARY
360
19C
102
}
330
1
100
AcDbSymbolTableRecord
100
AcDbBlockTableRecord
  2
*Model_Space
340
73
  0
BLOCK_RECORD
  5
6C
330
1
100
AcDbSymbolTableRecord
100
AcDbBlockTableRecord
  2
*Paper_Space
340
6F
  0
BLOCK_RECORD
  5
81
102
{ACAD_XDICTIONARY
360
82
102
}
330
1
100
AcDbSymbolTableRecord
100
AcDbBlockTableRecord
  2
30a
340
0
102
{BLKREFS
331
702
331
703
331
706
331
707
331
70C
331
70D
331
712
331
713
331
718
331
719
331
71E
331
71F
331
723
331
724
331
729
331
72A
331
72F
331
730
331
735
331
738
331
73E
331
73F
331
744
331
745
331
748
331
74B
331
74E
331
63D
331
63E
331
646
331
647
331
64F
331
650
331
657
331
658
331
65E
331
65F
331
667
331
668
331
670
331
673
331
67C
331
67D
331
6A7
331
6A8
331
6B0
331
6B1
331
6B9
331
6BA
331
6C0
331
6C1
102
}
1001
AcDbDynamicBlockGUID
1000
{389DF1C4-3B1C-4050-A5E6-C67CA2AE57A6}
1001
AcDbBlockRepETag
1070
     1
1071
        6
1001
ACAD
1000
DesignCenter Data
1002
{
1070
     1
1070
     4
1002
}
  0
BLOCK_RECORD
  5
8E
330
1
100
AcDbSymbolTableRecord
100
AcDbBlockTableRecord
  2
_Open30
340
0
  0
BLOCK_RECORD
  5
2FA
330
1
100
AcDbSymbolTableRecord
100
AcDbBlockTableRecord
  2
*D15
340
0
  0
BLOCK_RECORD
  5
306
330
1
100
AcDbSymbolTableRecord
100
AcDbBlockTableRecord
  2
*D16
340
0
  0
BLOCK_RECORD
  5
310
330
1
100
AcDbSymbolTableRecord
100
AcDbBlockTableRecord
  2
*D17
340
0
  0
BLOCK_RECORD
  5
31C
330
1
100
AcDbSymbolTableRecord
100
AcDbBlockTableRecord
  2
*D18
340
0
  0
BLOCK_RECORD
  5
328
330
1
100
AcDbSymbolTableRecord
100
AcDbBlockTableRecord
  2
*D19
340
0
  0
BLOCK_RECORD
  5
333
330
1
100
AcDbSymbolTableRecord
100
AcDbBlockTableRecord
  2
*D20
340
0
  0
BLOCK_RECORD
  5
33E
330
1
100
AcDbSymbolTableRecord
100
AcDbBlockTableRecord
  2
*D21
340
0
  0
BLOCK_RECORD
  5
349
330
1
100
AcDbSymbolTableRecord
100
AcDbBlockTableRecord
  2
*D22
340
0
  0
BLOCK_RECORD
  5
355
330
1
100
AcDbSymbolTableRecord
100
AcDbBlockTableRecord
  2
*D23
340
0
  0
BLOCK_RECORD
  5
361
330
1
100
AcDbSymbolTableRecord
100
AcDbBlockTableRecord
  2
*D24
340
0
  0
BLOCK_RECORD
  5
370
330
1
100
AcDbSymbolTableRecord
100
AcDbBlockTableRecord
  2
*D25
340
0
  0
BLOCK_RECORD
  5
37C
330
1
100
AcDbSymbolTableRecord
100
AcDbBlockTableRecord
  2
*D26
340
0
  0
ENDTAB
  0
ENDSEC
  0
SECTION
  2
BLOCKS
  0
BLOCK
  5
71
330
70
100
AcDbEntity
  8
0
100
AcDbBlockBegin
  2
*Model_Space
 70
     0
 10
0.0
 20
0.0
 30
0.0
  3
*Model_Space
  1

  0
ENDBLK
  5
72
330
70
100
AcDbEntity
  8
0
100
AcDbBlockEnd
  0
BLOCK
  5
6D
330
6C
100
AcDbEntity
 67
     1
  8
0
100
AcDbBlockBegin
  2
*Paper_Space
 70
     0
 10
0.0
 20
0.0
 30
0.0
  3
*Paper_Space
  1

  0
ENDBLK
  5
6E
330
6C
100
AcDbEntity
 67
     1
  8
0
100
AcDbBlockEnd
  0
BLOCK
  5
84
330
81
100
AcDbEntity
  8
0
390
85
100
AcDbBlockBegin
  2
30a
 70
     0
 10
0.0
 20
0.0
 30
0.0
  3
30a
  1

  0
LINE
  5
86
330
81
100
AcDbEntity
  8
0
  6
ByBlock
 62
     0
370
    -2
100
AcDbLine
 10
0.0000000000002331
 20
0.0000000000000381
 30
0.0
 11
-3500.0
 21
0.0000000000002524
 31
0.0
1001
AcDbBlockRepETag
1070
     1
1071
        3
1005
86
  0
LINE
  5
88
330
81
100
AcDbEntity
  8
0
  6
ByBlock
 62
     0
370
    -2
100
AcDbLine
 10
0.0000000000003695
 20
0.0000000000000076
 30
0.0
 11
-1931.851652578136
 21
517.6380902050417
 31
0.0
1001
AcDbBlockRepETag
1070
     1
1071
        4
1005
88
  0
LINE
  5
89
330
81
100
AcDbEntity
  8
0
  6
ByBlock
 62
     0
370
    -2
100
AcDbLine
 10
0.0000000000003695
 20
0.0000000000000076
 30
0.0
 11
-1931.851652578136
 21
-517.6380902050413
 31
0.0
1001
AcDbBlockRepETag
1070
     1
1071
        5
1005
89
  0
ENDBLK
  5
8A
330
81
100
AcDbEntity
  8
0
390
85
100
AcDbBlockEnd
  0
BLOCK
  5
8F
330
8E
100
AcDbEntity
  8
0
100
AcDbBlockBegin
  2
_Open30
 70
     0
 10
0.0
 20
0.0
 30
0.0
  3
_Open30
  1

  0
LINE
  5
90
330
8E
100
AcDbEntity
  8
0
  6
ByBlock
 62
     0
370
    -2
100
AcDbLine
 10
-1.0
 20
0.26794919
 30
0.0
 11
0.0
 21
0.0
 31
0.0
  0
LINE
  5
91
330
8E
100
AcDbEntity
  8
0
  6
ByBlock
 62
     0
370
    -2
100
AcDbLine
 10
0.0
 20
0.0
 30
0.0
 11
-1.0
 21
-0.26794919
 31
0.0
  0
LINE
  5
92
330
8E
100
AcDbEntity
  8
0
  6
ByBlock
 62
     0
370
    -2
100
AcDbLine
 10
0.0
 20
0.0
 30
0.0
 11
-1.0
 21
0.0
 31
0.0
  0
ENDBLK
  5
93
330
8E
100
AcDbEntity
  8
0
100
AcDbBlockEnd
  0
BLOCK
  5
2FB
330
2FA
100
AcDbEntity
  8
0
100
AcDbBlockBegin
  2
*D15
 70
     1
 10
0.0
 20
0.0
 30
0.0
  3
*D15
  1

  0
LINE
  5
6A4
330
2FA
100
AcDbEntity
  8
Size
 62
     0
440
 16777216
370
     9
100
AcDbLine
 10
1131.693964256273
 20
364.8804063598127
 30
0.0
 11
1189.481660704732
 21
364.8804063598128
 31
0.0
  0
LINE
  5
6A5
330
2FA
100
AcDbEntity
  8
Size
 62
     0
440
 16777216
370
     9
100
AcDbLine
 10
1131.693964256273
 20
654.8801166956119
 30
0.0
 11
1189.481660704732
 21
654.8801166956119
 31
0.0
  0
LINE
  5
6A6
330
2FA
100
AcDbEntity
  8
Size
 62
     0
440
 16777216
370
     9
100
AcDbLine
 10
1185.731660704732
 20
364.8834063598128
 30
0.0
 11
1185.731660704732
 21
654.8771166956119
 31
0.0
  0
INSERT
  5
6A7
330
2FA
100
AcDbEntity
  8
Size
 62
     0
440
 16777216
370
     9
100
AcDbBlockReference
  2
30a
 10
1185.731660704732
 20
364.8804063598128
 30
0.0
 41
0.003
 42
0.003
 43
0.003
 50
270.0
  0
INSERT
  5
6A8
330
2FA
100
AcDbEntity
  8
Size
 62
     0
440
 16777216
370
     9
100
AcDbBlockReference
  2
30a
 10
1185.731660704732
 20
654.8801166956119
 30
0.0
 41
0.003
 42
0.003
 43
0.003
 50
90.0
  0
MTEXT
  5
6A9
330
2FA
100
AcDbEntity
  8
Size
 62
     0
440
 16777216
100
AcDbMText
 10
1177.856660704732
 20
509.8802615277119
 30
0.0
 40
12.0
 41
0.0
 71
     5
 72
     1
  1
%%c290
 11
0.0000000000000001
 21
1.0
 31
0.0
 73
     1
 44
1.0
  0
POINT
  5
6AA
330
2FA
100
AcDbEntity
  8
Defpoints
 62
     0
440
 16777216
100
AcDbPoint
 10
1129.818964256273
 20
364.8804063598127
 30
0.0
  0
POINT
  5
6AB
330
2FA
100
AcDbEntity
  8
Defpoints
 62
     0
440
 16777216
100
AcDbPoint
 10
1129.818964256273
 20
654.8801166956119
 30
0.0
  0
POINT
  5
6AC
330
2FA
100
AcDbEntity
  8
Defpoints
 62
     0
440
 16777216
100
AcDbPoint
 10
1185.731660704732
 20
654.8801166956119
 30
0.0
  0
ENDBLK
  5
2FC
330
2FA
100
AcDbEntity
  8
0
100
AcDbBlockEnd
  0
BLOCK
  5
307
330
306
100
AcDbEntity
  8
0
100
AcDbBlockBegin
  2
*D16
 70
     1
 10
0.0
 20
0.0
 30
0.0
  3
*D16
  1

  0
LINE
  5
6BF
330
306
100
AcDbEntity
  8
Size
 62
     0
440
 16777216
370
     9
100
AcDbLine
 10
921.7011411687879
 20
349.8834213424433
 30
0.0
 11
921.7011411687879
 21
669.8771017129806
 31
0.0
  0
INSERT
  5
6C0
330
306
100
AcDbEntity
  8
Size
 62
     0
440
 16777216
370
     9
100
AcDbBlockReference
  2
30a
 10
921.7011411687879
 20
349.8804213424433
 30
0.0
 41
0.003
 42
0.003
 43
0.003
 50
270.0
  0
INSERT
  5
6C1
330
306
100
AcDbEntity
  8
Size
 62
     0
440
 16777216
370
     9
100
AcDbBlockReference
  2
30a
 10
921.7011411687879
 20
669.8801017129807
 30
0.0
 41
0.003
 42
0.003
 43
0.003
 50
90.0
  0
MTEXT
  5
6C2
330
306
100
AcDbEntity
  8
Size
 62
     0
440
 16777216
100
AcDbMText
 10
913.8261411687878
 20
465.735112583745
 30
0.0
 40
12.0
 41
0.0
 71
     5
 72
     1
  1
%%c320
 11
0.0000000000000001
 21
1.0
 31
0.0
 73
     1
 44
1.0
  0
POINT
  5
6C3
330
306
100
AcDbEntity
  8
Defpoints
 62
     0
440
 16777216
100
AcDbPoint
 10
856.8192369396493
 20
349.8804213424433
 30
0.0
  0
POINT
  5
6C4
330
306
100
AcDbEntity
  8
Defpoints
 62
     0
440
 16777216
100
AcDbPoint
 10
856.8192369396493
 20
669.8801017129807
 30
0.0
  0
POINT
  5
6C5
330
306
100
AcDbEntity
  8
Defpoints
 62
     0
440
 16777216
100
AcDbPoint
 10
921.7011411687879
 20
669.8801017129807
 30
0.0
  0
ENDBLK
  5
308
330
306
100
AcDbEntity
  8
0
100
AcDbBlockEnd
  0
BLOCK
  5
311
330
310
100
AcDbEntity
  8
0
100
AcDbBlockBegin
  2
*D17
 70
     1
 10
0.0
 20
0.0
 30
0.0
  3
*D17
  1

  0
LINE
  5
6B6
330
310
100
AcDbEntity
  8
Size
 62
     0
440
 16777216
370
     9
100
AcDbLine
 10
597.8194956397455
 20
511.7552615277121
 30
0.0
 11
597.8194956397455
 21
704.0197138866785
 31
0.0
  0
LINE
  5
6B7
330
310
100
AcDbEntity
  8
Size
 62
     0
440
 16777216
370
     9
100
AcDbLine
 10
1140.81895326901
 20
645.7551276828744
 30
0.0
 11
1140.81895326901
 21
704.0197138866785
 31
0.0
  0
LINE
  5
6B8
330
310
100
AcDbEntity
  8
Size
 62
     0
440
 16777216
370
     9
100
AcDbLine
 10
597.8224956397456
 20
700.2697138866786
 30
0.0
 11
1140.81595326901
 21
700.2697138866786
 31
0.0
  0
INSERT
  5
6B9
330
310
100
AcDbEntity
  8
Size
 62
     0
440
 16777216
370
     9
100
AcDbBlockReference
  2
30a
 10
597.8194956397455
 20
700.2697138866786
 30
0.0
 41
0.003
 42
0.003
 43
0.003
 50
180.0
  0
INSERT
  5
6BA
330
310
100
AcDbEntity
  8
Size
 62
     0
440
 16777216
370
     9
100
AcDbBlockReference
  2
30a
 10
1140.81895326901
 20
700.2697138866786
 30
0.0
 41
0.003
 42
0.003
 43
0.003
  0
MTEXT
  5
6BB
330
310
100
AcDbEntity
  8
Size
 62
     0
440
 16777216
100
AcDbMText
 10
869.3192244543778
 20
708.1447138866785
 30
0.0
 40
12.0
 41
0.0
 71
     5
 72
     1
  1
543
 73
     1
 44
1.0
  0
POINT
  5
6BC
330
310
100
AcDbEntity
  8
Defpoints
 62
     0
440
 16777216
100
AcDbPoint
 10
597.8194956397455
 20
509.8802615277121
 30
0.0
  0
POINT
  5
6BD
330
310
100
AcDbEntity
  8
Defpoints
 62
     0
440
 16777216
100
AcDbPoint
 10
1140.81895326901
 20
643.8801276828744
 30
0.0
  0
POINT
  5
6BE
330
310
100
AcDbEntity
  8
Defpoints
 62
     0
440
 16777216
100
AcDbPoint
 10
1140.81895326901
 20
700.2697138866786
 30
0.0
  0
ENDBLK
  5
312
330
310
100
AcDbEntity
  8
0
100
AcDbBlockEnd
  0
BLOCK
  5
31D
330
31C
100
AcDbEntity
  8
0
100
AcDbBlockBegin
  2
*D18
 70
     1
 10
0.0
 20
0.0
 30
0.0
  3
*D18
  1

  0
LINE
  5
6AD
330
31C
100
AcDbEntity
  8
Size
 62
     0
440
 16777216
370
     9
100
AcDbLine
 10
498.1191938488652
 20
628.1051453124371
 30
0.0
 11
498.1191938488652
 21
722.0197138866786
 31
0.0
  0
LINE
  5
6AE
330
31C
100
AcDbEntity
  8
Size
 62
     0
440
 16777216
370
     9
100
AcDbLine
 10
1140.81895326901
 20
645.7551276828744
 30
0.0
 11
1140.81895326901
 21
722.0197138866786
 31
0.0
  0
LINE
  5
6AF
330
31C
100
AcDbEntity
  8
Size
 62
     0
440
 16777216
370
     9
100
AcDbLine
 10
498.1221938488651
 20
718.2697138866785
 30
0.0
 11
1140.815953269011
 21
718.2697138866785
 31
0.0
  0
INSERT
  5
6B0
330
31C
100
AcDbEntity
  8
Size
 62
     0
440
 16777216
370
     9
100
AcDbBlockReference
  2
30a
 10
498.1191938488652
 20
718.2697138866785
 30
0.0
 41
0.003
 42
0.003
 43
0.003
 50
180.0
  0
INSERT
  5
6B1
330
31C
100
AcDbEntity
  8
Size
 62
     0
440
 16777216
370
     9
100
AcDbBlockReference
  2
30a
 10
1140.81895326901
 20
718.2697138866785
 30
0.0
 41
0.003
 42
0.003
 43
0.003
  0
MTEXT
  5
6B2
330
31C
100
AcDbEntity
  8
Size
 62
     0
440
 16777216
100
AcDbMText
 10
819.469073558938
 20
726.1447138866786
 30
0.0
 40
12.0
 41
0.0
 71
     5
 72
     1
  1
約643
 73
     1
 44
1.0
  0
POINT
  5
6B3
330
31C
100
AcDbEntity
  8
Defpoints
 62
     0
440
 16777216
100
AcDbPoint
 10
498.1191938488652
 20
626.2301453124371
 30
0.0
  0
POINT
  5
6B4
330
31C
100
AcDbEntity
  8
Defpoints
 62
     0
440
 16777216
100
AcDbPoint
 10
1140.81895326901
 20
643.8801276828744
 30
0.0
  0
POINT
  5
6B5
330
31C
100
AcDbEntity
  8
Defpoints
 62
     0
440
 16777216
100
AcDbPoint
 10
1140.81895326901
 20
718.2697138866785
 30
0.0
  0
ENDBLK
  5
31E
330
31C
100
AcDbEntity
  8
0
100
AcDbBlockEnd
  0
BLOCK
  5
329
330
328
100
AcDbEntity
  8
0
100
AcDbBlockBegin
  2
*D19
 70
     1
 10
0.0
 20
0.0
 30
0.0
  3
*D19
  1

  0
LINE
  5
654
330
328
100
AcDbEntity
  8
Size
 62
     0
440
 16777216
370
     9
100
AcDbLine
 10
193.4122694915317
 20
461.4640127487584
 30
0.0
 11
193.4094419669571
 21
461.4630101996175
 31
0.0
  0
LINE
  5
655
330
328
100
AcDbEntity
  8
Size
 62
     0
440
 16777216
370
     9
100
AcDbLine
 10
227.3481853653658
 20
473.4965954575965
 30
0.0
 11
255.5386576499122
 21
483.4920289277317
 31
0.0
  0
LINE
  5
656
330
328
100
AcDbEntity
  8
Size
 62
     0
440
 16777216
370
     9
100
AcDbLine
 10
193.4150970161063
 20
461.4650152978994
 30
0.0
 11
227.3453578407912
 21
473.4955929084556
 31
0.0
  0
INSERT
  5
657
330
328
100
AcDbEntity
  8
Size
 62
     0
440
 16777216
370
     9
100
AcDbBlockReference
  2
30a
 10
193.4150970161063
 20
461.4650152978994
 30
0.0
 41
0.003
 42
0.003
 43
0.003
 50
19.52286711715559
  0
INSERT
  5
658
330
328
100
AcDbEntity
  8
Size
 62
     0
440
 16777216
370
     9
100
AcDbBlockReference
  2
30a
 10
227.3453578407912
 20
473.4955929084556
 30
0.0
 41
0.003
 42
0.003
 43
0.003
 50
199.5228671171556
  0
MTEXT
  5
659
102
{ACAD_XDICTIONARY
360
7AF
102
}
330
328
100
AcDbEntity
  8
Size
 62
     0
440
 16777216
100
AcDbMText
 10
241.7146813804983
 20
486.9458572533264
 30
0.0
 40
12.0
 41
0.0
 71
     5
 72
     1
  1
\U+220536
 11
0.9425081915387337
 21
0.3341830469703473
 31
0.0
 73
     1
 44
1.0
  0
POINT
  5
65A
330
328
100
AcDbEntity
  8
Defpoints
 62
     0
440
 16777216
100
AcDbPoint
 10
227.3453578407912
 20
473.4955929084556
 30
0.0
  0
POINT
  5
65B
330
328
100
AcDbEntity
  8
Defpoints
 62
     0
440
 16777216
100
AcDbPoint
 10
193.4150970161063
 20
461.4650152978994
 30
0.0
  0
ENDBLK
  5
32A
330
328
100
AcDbEntity
  8
0
100
AcDbBlockEnd
  0
BLOCK
  5
334
330
333
100
AcDbEntity
  8
0
100
AcDbBlockBegin
  2
*D20
 70
     1
 10
0.0
 20
0.0
 30
0.0
  3
*D20
  1

  0
LINE
  5
64C
330
333
100
AcDbEntity
  8
Size
 62
     0
440
 16777216
370
     9
100
AcDbLine
 10
282.7100490200911
 20
456.2407040458078
 30
0.0
 11
282.70743152162
 21
456.2392382007429
 31
0.0
  0
LINE
  5
64D
330
333
100
AcDbEntity
  8
Size
 62
     0
440
 16777216
370
     9
100
AcDbLine
 10
322.8502202720421
 20
478.7199041605474
 30
0.0
 11
349.4584552096871
 21
493.6209825368451
 31
0.0
  0
LINE
  5
64E
330
333
100
AcDbEntity
  8
Size
 62
     0
440
 16777216
370
     9
100
AcDbLine
 10
282.7126665185621
 20
456.2421698908726
 30
0.0
 11
322.847602773571
 21
478.7184383154825
 31
0.0
  0
INSERT
  5
64F
330
333
100
AcDbEntity
  8
Size
 62
     0
440
 16777216
370
     9
100
AcDbBlockReference
  2
30a
 10
282.7126665185621
 20
456.2421698908726
 30
0.0
 41
0.003
 42
0.003
 43
0.003
 50
29.24959154799843
  0
INSERT
  5
650
330
333
100
AcDbEntity
  8
Size
 62
     0
440
 16777216
370
     9
100
AcDbBlockReference
  2
30a
 10
322.847602773571
 20
478.7184383154825
 30
0.0
 41
0.003
 42
0.003
 43
0.003
 50
209.2495915479984
  0
MTEXT
  5
651
102
{ACAD_XDICTIONARY
360
7AD
102
}
330
333
100
AcDbEntity
  8
Size
 62
     0
440
 16777216
100
AcDbMText
 10
335.2496804666329
 20
494.689612641766
 30
0.0
 40
12.0
 41
0.0
 71
     5
 72
     1
  1
\U+220546
 11
0.872499490349498
 21
0.4886150216068538
 31
0.0
 73
     1
 44
1.0
  0
POINT
  5
652
330
333
100
AcDbEntity
  8
Defpoints
 62
     0
440
 16777216
100
AcDbPoint
 10
322.847602773571
 20
478.7184383154825
 30
0.0
  0
POINT
  5
653
330
333
100
AcDbEntity
  8
Defpoints
 62
     0
440
 16777216
100
AcDbPoint
 10
282.7126665185621
 20
456.2421698908726
 30
0.0
  0
ENDBLK
  5
335
330
333
100
AcDbEntity
  8
0
100
AcDbBlockEnd
  0
BLOCK
  5
33F
330
33E
100
AcDbEntity
  8
0
100
AcDbBlockBegin
  2
*D21
 70
     1
 10
0.0
 20
0.0
 30
0.0
  3
*D21
  1

  0
LINE
  5
65C
330
33E
100
AcDbEntity
  8
Size
 62
     0
440
 16777216
370
     9
100
AcDbLine
 10
175.882309366804
 20
467.4803041031777
 30
0.0
 11
80.82246472954871
 21
467.4803041031777
 31
0.0
  0
LINE
  5
65D
330
33E
100
AcDbEntity
  8
Size
 62
     0
440
 16777216
370
     9
100
AcDbLine
 10
84.57246472954871
 20
467.4833041031777
 30
0.0
 11
84.57246472954869
 21
509.8772617031777
 31
0.0
  0
INSERT
  5
65E
330
33E
100
AcDbEntity
  8
Size
 62
     0
440
 16777216
370
     9
100
AcDbBlockReference
  2
30a
 10
84.57246472954871
 20
467.4803041031777
 30
0.0
 41
0.003
 42
0.003
 43
0.003
 50
270.0
  0
INSERT
  5
65F
330
33E
100
AcDbEntity
  8
Size
 62
     0
440
 16777216
370
     9
100
AcDbBlockReference
  2
30a
 10
84.57246472954869
 20
509.8802617031777
 30
0.0
 41
0.003
 42
0.003
 43
0.003
 50
90.0
  0
MTEXT
  5
660
330
33E
100
AcDbEntity
  8
Size
 62
     0
440
 16777216
100
AcDbMText
 10
76.69746472954883
 20
488.6802829031775
 30
0.0
 40
12.0
 41
0.0
 71
     5
 72
     1
  1
42.4
 11
0.0000000000000001
 21
1.0
 31
0.0
 73
     1
 44
1.0
  0
POINT
  5
661
330
33E
100
AcDbEntity
  8
Defpoints
 62
     0
440
 16777216
100
AcDbPoint
 10
177.757309366804
 20
467.4803041031777
 30
0.0
  0
POINT
  5
662
330
33E
100
AcDbEntity
  8
Defpoints
 62
     0
440
 16777216
100
AcDbPoint
 10
70.71594701287342
 20
509.8802617031777
 30
0.0
  0
POINT
  5
663
330
33E
100
AcDbEntity
  8
Defpoints
 62
     0
440
 16777216
100
AcDbPoint
 10
84.57246472954869
 20
509.8802617031777
 30
0.0
  0
ENDBLK
  5
340
330
33E
100
AcDbEntity
  8
0
100
AcDbBlockEnd
  0
BLOCK
  5
34A
330
349
100
AcDbEntity
  8
0
100
AcDbBlockBegin
  2
*D22
 70
     1
 10
0.0
 20
0.0
 30
0.0
  3
*D22
  1

  0
LINE
  5
643
330
349
100
AcDbEntity
  8
Size
 62
     0
440
 16777216
370
     9
100
AcDbLine
 10
210.3802274284484
 20
435.6758891894105
 30
0.0
 11
210.3802274284484
 21
307.82078027617
 31
0.0
  0
LINE
  5
644
330
349
100
AcDbEntity
  8
Size
 62
     0
440
 16777216
370
     9
100
AcDbLine
 10
260.3801774284484
 20
325.1696237673355
 30
0.0
 11
260.3801774284484
 21
307.82078027617
 31
0.0
  0
LINE
  5
645
330
349
100
AcDbEntity
  8
Size
 62
     0
440
 16777216
370
     9
100
AcDbLine
 10
210.3832274284484
 20
311.57078027617
 30
0.0
 11
260.3771774284484
 21
311.57078027617
 31
0.0
  0
INSERT
  5
646
330
349
100
AcDbEntity
  8
Size
 62
     0
440
 16777216
370
     9
100
AcDbBlockReference
  2
30a
 10
210.3802274284484
 20
311.57078027617
 30
0.0
 41
0.003
 42
0.003
 43
0.003
 50
180.0
  0
INSERT
  5
647
330
349
100
AcDbEntity
  8
Size
 62
     0
440
 16777216
370
     9
100
AcDbBlockReference
  2
30a
 10
260.3801774284484
 20
311.57078027617
 30
0.0
 41
0.003
 42
0.003
 43
0.003
  0
MTEXT
  5
648
330
349
100
AcDbEntity
  8
Size
 62
     0
440
 16777216
100
AcDbMText
 10
235.3802024284484
 20
319.44578027617
 30
0.0
 40
12.0
 41
0.0
 71
     5
 72
     1
  1
50
 73
     1
 44
1.0
  0
POINT
  5
649
330
349
100
AcDbEntity
  8
Defpoints
 62
     0
440
 16777216
100
AcDbPoint
 10
210.3802274284484
 20
437.5508891894106
 30
0.0
  0
POINT
  5
64A
330
349
100
AcDbEntity
  8
Defpoints
 62
     0
440
 16777216
100
AcDbPoint
 10
260.3801774284484
 20
327.0446237673354
 30
0.0
  0
POINT
  5
64B
330
349
100
AcDbEntity
  8
Defpoints
 62
     0
440
 16777216
100
AcDbPoint
 10
260.3801774284484
 20
311.57078027617
 30
0.0
  0
ENDBLK
  5
34B
330
349
100
AcDbEntity
  8
0
100
AcDbBlockEnd
  0
BLOCK
  5
356
330
355
100
AcDbEntity
  8
0
100
AcDbBlockBegin
  2
*D23
 70
     1
 10
0.0
 20
0.0
 30
0.0
  3
*D23
  1

  0
LINE
  5
63A
330
355
100
AcDbEntity
  8
Size
 62
     0
440
 16777216
370
     9
100
AcDbLine
 10
260.3801772215318
 20
325.1696242246477
 30
0.0
 11
260.3801772215318
 21
307.8207802761704
 31
0.0
  0
LINE
  5
63B
330
355
100
AcDbEntity
  8
Size
 62
     0
440
 16777216
370
     9
100
AcDbLine
 10
302.7801348215317
 20
432.7782760971692
 30
0.0
 11
302.7801348215317
 21
307.8207802761704
 31
0.0
  0
LINE
  5
63C
330
355
100
AcDbEntity
  8
Size
 62
     0
440
 16777216
370
     9
100
AcDbLine
 10
260.3831772215317
 20
311.5707802761704
 30
0.0
 11
302.7771348215317
 21
311.5707802761704
 31
0.0
  0
INSERT
  5
63D
330
355
100
AcDbEntity
  8
Size
 62
     0
440
 16777216
370
     9
100
AcDbBlockReference
  2
30a
 10
260.3801772215318
 20
311.5707802761704
 30
0.0
 41
0.003
 42
0.003
 43
0.003
 50
180.0
  0
INSERT
  5
63E
330
355
100
AcDbEntity
  8
Size
 62
     0
440
 16777216
370
     9
100
AcDbBlockReference
  2
30a
 10
302.7801348215317
 20
311.5707802761704
 30
0.0
 41
0.003
 42
0.003
 43
0.003
  0
MTEXT
  5
63F
330
355
100
AcDbEntity
  8
Size
 62
     0
440
 16777216
100
AcDbMText
 10
281.5801560215317
 20
319.4457802761704
 30
0.0
 40
12.0
 41
0.0
 71
     5
 72
     1
  1
42.4
 73
     1
 44
1.0
  0
POINT
  5
640
330
355
100
AcDbEntity
  8
Defpoints
 62
     0
440
 16777216
100
AcDbPoint
 10
260.3801772215318
 20
327.0446242246477
 30
0.0
  0
POINT
  5
641
330
355
100
AcDbEntity
  8
Defpoints
 62
     0
440
 16777216
100
AcDbPoint
 10
302.7801348215317
 20
434.6532760971692
 30
0.0
  0
POINT
  5
642
330
355
100
AcDbEntity
  8
Defpoints
 62
     0
440
 16777216
100
AcDbPoint
 10
302.7801348215317
 20
311.5707802761704
 30
0.0
  0
ENDBLK
  5
357
330
355
100
AcDbEntity
  8
0
100
AcDbBlockEnd
  0
BLOCK
  5
362
330
361
100
AcDbEntity
  8
0
100
AcDbBlockBegin
  2
*D24
 70
     1
 10
0.0
 20
0.0
 30
0.0
  3
*D24
  1

  0
LINE
  5
66D
330
361
100
AcDbEntity
  8
Size
 62
     0
440
 16777216
370
     9
100
AcDbLine
 10
597.3635666632231
 20
538.3802330607079
 30
0.0
 11
474.5594485925262
 21
538.3802330607079
 31
0.0
  0
LINE
  5
66E
330
361
100
AcDbEntity
  8
Size
 62
     0
440
 16777216
370
     9
100
AcDbLine
 10
478.3094485925261
 20
509.8832615277124
 30
0.0
 11
478.3094485925261
 21
538.3772330607079
 31
0.0
  0
MTEXT
  5
66F
330
361
100
AcDbEntity
  8
Size
 62
     0
440
 16777216
100
AcDbMText
 10
470.4344485925229
 20
532.5846781029736
 30
0.0
 40
12.0
 41
0.0
 71
     5
 72
     1
  1
28.5
 11
0.0000000000000001
 21
1.0
 31
0.0
 73
     1
 44
1.0
  0
INSERT
  5
670
330
361
100
AcDbEntity
  8
Size
 62
     0
440
 16777216
370
     9
100
AcDbBlockReference
  2
30a
 10
478.3094485925261
 20
509.8802615277123
 30
0.0
 41
0.003
 42
0.003
 43
0.003
 50
90.0
  0
LINE
  5
671
330
361
100
AcDbEntity
  8
Size
 62
     0
440
 16777216
370
     9
100
AcDbLine
 10
478.3094485925261
 20
509.8772615277123
 30
0.0
 11
478.3094485925261
 21
509.8742615277124
 31
0.0
  0
LINE
  5
672
330
361
100
AcDbEntity
  8
Size
 62
     0
440
 16777216
370
     9
100
AcDbLine
 10
478.3094485925261
 20
509.8802615277123
 30
0.0
 11
478.3094485925261
 21
509.8832615277124
 31
0.0
  0
INSERT
  5
673
330
361
100
AcDbEntity
  8
Size
 62
     0
440
 16777216
370
     9
100
AcDbBlockReference
  2
30a
 10
478.3094485925261
 20
538.3802330607079
 30
0.0
 41
0.003
 42
0.003
 43
0.003
 50
270.0
  0
LINE
  5
674
330
361
100
AcDbEntity
  8
Size
 62
     0
440
 16777216
370
     9
100
AcDbLine
 10
478.3094485925261
 20
538.383233060708
 30
0.0
 11
478.3094485925261
 21
538.386233060708
 31
0.0
  0
LINE
  5
675
330
361
100
AcDbEntity
  8
Size
 62
     0
440
 16777216
370
     9
100
AcDbLine
 10
478.3094485925261
 20
538.3802330607079
 30
0.0
 11
478.3094485925261
 21
538.3772330607079
 31
0.0
  0
POINT
  5
676
330
361
100
AcDbEntity
  8
Defpoints
 62
     0
440
 16777216
100
AcDbPoint
 10
597.8194956397458
 20
509.8802615277123
 30
0.0
  0
POINT
  5
677
330
361
100
AcDbEntity
  8
Defpoints
 62
     0
440
 16777216
100
AcDbPoint
 10
599.238566663223
 20
538.3802330607079
 30
0.0
  0
POINT
  5
678
330
361
100
AcDbEntity
  8
Defpoints
 62
     0
440
 16777216
100
AcDbPoint
 10
478.3094485925261
 20
538.3802330607079
 30
0.0
  0
ENDBLK
  5
363
330
361
100
AcDbEntity
  8
0
100
AcDbBlockEnd
  0
BLOCK
  5
371
330
370
100
AcDbEntity
  8
0
100
AcDbBlockBegin
  2
*D25
 70
     1
 10
0.0
 20
0.0
 30
0.0
  3
*D25
  1

  0
LINE
  5
679
330
370
100
AcDbEntity
  8
Size
 62
     0
440
 16777216
370
     9
100
AcDbLine
 10
564.6299439091215
 20
505.207304579194
 30
0.0
 11
520.8019748548298
 21
516.9509734931847
 31
0.0
  0
LINE
  5
67A
330
370
100
AcDbEntity
  8
Size
 62
     0
440
 16777216
370
     9
100
AcDbLine
 10
585.8530844089348
 20
584.4131432206908
 30
0.0
 11
542.025115354643
 21
596.1568121346814
 31
0.0
  0
LINE
  5
67B
330
370
100
AcDbEntity
  8
Size
 62
     0
440
 16777216
370
     9
100
AcDbLine
 10
524.4249731605492
 20
515.9832998515294
 30
0.0
 11
545.6465607460918
 21
595.1833429380683
 31
0.0
  0
INSERT
  5
67C
330
370
100
AcDbEntity
  8
Size
 62
     0
440
 16777216
370
     9
100
AcDbBlockReference
  2
30a
 10
524.4241967034139
 20
515.9804020740505
 30
0.0
 41
0.003
 42
0.003
 43
0.003
 50
255.0000000000038
  0
INSERT
  5
67D
330
370
100
AcDbEntity
  8
Size
 62
     0
440
 16777216
370
     9
100
AcDbBlockReference
  2
30a
 10
545.6473372032271
 20
595.1862407155472
 30
0.0
 41
0.003
 42
0.003
 43
0.003
 50
75.00000000000382
  0
MTEXT
  5
67E
330
370
100
AcDbEntity
  8
Size
 62
     0
440
 16777216
100
AcDbMText
 10
527.4291010712941
 20
557.6215213749807
 30
0.0
 40
12.0
 41
0.0
 71
     5
 72
     1
  1
%%c82
 11
0.2588190451024564
 21
0.9659258262890855
 31
0.0
 73
     1
 44
1.0
  0
POINT
  5
67F
330
370
100
AcDbEntity
  8
Defpoints
 62
     0
440
 16777216
100
AcDbPoint
 10
566.4410548334136
 20
504.722018869627
 30
0.0
  0
POINT
  5
680
330
370
100
AcDbEntity
  8
Defpoints
 62
     0
440
 16777216
100
AcDbPoint
 10
587.6641953332268
 20
583.9278575111237
 30
0.0
  0
POINT
  5
681
330
370
100
AcDbEntity
  8
Defpoints
 62
     0
440
 16777216
100
AcDbPoint
 10
545.6473372032271
 20
595.1862407155472
 30
0.0
  0
ENDBLK
  5
372
330
370
100
AcDbEntity
  8
0
100
AcDbBlockEnd
  0
BLOCK
  5
37D
330
37C
100
AcDbEntity
  8
0
100
AcDbBlockBegin
  2
*D26
 70
     1
 10
0.0
 20
0.0
 30
0.0
  3
*D26
  1

  0
LINE
  5
664
330
37C
100
AcDbEntity
  8
Size
 62
     0
440
 16777216
370
     9
100
AcDbLine
 10
504.894185208882
 20
384.8803863829714
 30
0.0
 11
456.559448592527
 21
384.8803863829714
 31
0.0
  0
LINE
  5
665
330
37C
100
AcDbEntity
  8
Size
 62
     0
440
 16777216
370
     9
100
AcDbLine
 10
504.8941852088811
 20
634.8801366724535
 30
0.0
 11
456.559448592527
 21
634.8801366724535
 31
0.0
  0
LINE
  5
666
330
37C
100
AcDbEntity
  8
Size
 62
     0
440
 16777216
370
     9
100
AcDbLine
 10
460.3094485925271
 20
384.8833863829714
 30
0.0
 11
460.3094485925271
 21
634.8771366724535
 31
0.0
  0
INSERT
  5
667
330
37C
100
AcDbEntity
  8
Size
 62
     0
440
 16777216
370
     9
100
AcDbBlockReference
  2
30a
 10
460.3094485925271
 20
384.8803863829714
 30
0.0
 41
0.003
 42
0.003
 43
0.003
 50
270.0
  0
INSERT
  5
668
330
37C
100
AcDbEntity
  8
Size
 62
     0
440
 16777216
370
     9
100
AcDbBlockReference
  2
30a
 10
460.3094485925271
 20
634.8801366724535
 30
0.0
 41
0.003
 42
0.003
 43
0.003
 50
90.0
  0
MTEXT
  5
669
330
37C
100
AcDbEntity
  8
Size
 62
     0
440
 16777216
100
AcDbMText
 10
452.4344485925271
 20
509.8802615277121
 30
0.0
 40
12.0
 41
0.0
 71
     5
 72
     1
  1
%%c250
 11
0.0000000000000001
 21
1.0
 31
0.0
 73
     1
 44
1.0
  0
POINT
  5
66A
330
37C
100
AcDbEntity
  8
Defpoints
 62
     0
440
 16777216
100
AcDbPoint
 10
506.769185208882
 20
384.8803863829714
 30
0.0
  0
POINT
  5
66B
330
37C
100
AcDbEntity
  8
Defpoints
 62
     0
440
 16777216
100
AcDbPoint
 10
506.7691852088811
 20
634.8801366724535
 30
0.0
  0
POINT
  5
66C
330
37C
100
AcDbEntity
  8
Defpoints
 62
     0
440
 16777216
100
AcDbPoint
 10
460.3094485925271
 20
634.8801366724535
 30
0.0
  0
ENDBLK
  5
37E
330
37C
100
AcDbEntity
  8
0
100
AcDbBlockEnd
  0
ENDSEC
  0
SECTION
  2
ENTITIES
  0
LINE
  5
97
330
70
100
AcDbEntity
  8
Hidden
 62
     4
100
AcDbLine
 10
693.7518512804879
 20
370.8566301593232
 30
0.0
 11
683.538330810672
 21
428.7803831140739
 31
0.0
1001
Sigma
1000

  0
LINE
  5
9D
330
70
100
AcDbEntity
  8
Line
100
AcDbLine
 10
859.5051847370395
 20
509.8802615277125
 30
0.0
 11
859.5051847370395
 21
349.880421342444
 31
0.0
1001
Sigma
1000

  0
LINE
  5
A1
330
70
100
AcDbEntity
  8
Line
100
AcDbLine
 10
854.9711456925129
 20
509.8802615277125
 30
0.0
 11
854.9711456925129
 21
349.880421342444
 31
0.0
1001
Sigma
1000

  0
LINE
  5
A2
330
70
100
AcDbEntity
  8
Line
100
AcDbLine
 10
849.1741359833559
 20
509.8802615277125
 30
0.0
 11
849.1741359833559
 21
664.383301124032
 31
0.0
1001
Sigma
1000

  0
LINE
  5
A3
330
70
100
AcDbEntity
  8
Line
100
AcDbLine
 10
848.8192449303863
 20
509.8802615277125
 30
0.0
 11
848.8192449303863
 21
666.9084821770626
 31
0.0
1001
Sigma
1000

  0
LINE
  5
A4
330
70
100
AcDbEntity
  8
Line
100
AcDbLine
 10
851.8192419338602
 20
667.3301042600282
 30
0.0
 11
848.8192449303863
 21
666.9084821770626
 31
0.0
1001
Sigma
1000

  0
LINE
  5
A5
330
70
100
AcDbEntity
  8
Line
100
AcDbLine
 10
679.1028405393308
 20
667.3301042600282
 30
0.0
 11
856.8192369396497
 21
667.3301042600282
 31
0.0
1001
Sigma
1000

  0
LINE
  5
A6
330
70
100
AcDbEntity
  8
Line
100
AcDbLine
 10
848.8192449303863
 20
666.9084821770626
 30
0.0
 11
849.1741359833559
 21
664.383301124032
 31
0.0
1001
Sigma
1000

  0
LINE
  5
A7
330
70
100
AcDbEntity
  8
Line
100
AcDbLine
 10
858.0083202802423
 20
664.7801068070754
 30
0.0
 11
851.9975551262033
 21
664.7801068070754
 31
0.0
1001
Sigma
1000

  0
LINE
  5
A8
330
70
100
AcDbEntity
  8
Line
100
AcDbLine
 10
856.8192369396497
 20
667.3301042600282
 30
0.0
 11
858.9589388619232
 21
669.880101712981
 31
0.0
1001
Sigma
1000

  0
LINE
  5
A9
330
70
100
AcDbEntity
  8
Center
100
AcDbLine
 10
856.8192369396497
 20
334.3767757072405
 30
0.0
 11
856.8192369396497
 21
681.9273748195493
 31
0.0
1001
Sigma
1000

  0
LINE
  5
AD
330
70
100
AcDbEntity
  8
Line
100
AcDbLine
 10
856.8192369396497
 20
667.3301042600282
 30
0.0
 11
855.346995223758
 21
669.880101712981
 31
0.0
1001
Sigma
1000

  0
ARC
  5
AE
330
70
100
AcDbEntity
  8
Hidden
 62
     3
100
AcDbCircle
 10
884.7192090719561
 20
509.8802615277125
 30
0.0
 40
286.8997134322095
100
AcDbArc
 50
166.0702920907026
 51
180.0
1001
Sigma
1000

  0
LINE
  5
AF
330
70
100
AcDbEntity
  8
Line
100
AcDbLine
 10
1029.207861327387
 20
669.880101712981
 30
0.0
 11
679.4306175461229
 21
669.880101712981
 31
0.0
1001
Sigma
1000

  0
ARC
  5
B0
330
70
100
AcDbEntity
  8
Line
100
AcDbCircle
 10
679.4306175461229
 20
612.4801590465158
 30
0.0
 40
57.39994266646506
100
AcDbArc
 50
90.0
 51
153.4448628743318
1001
Sigma
1000

  0
ARC
  5
B1
330
70
100
AcDbEntity
  8
Line
100
AcDbCircle
 10
679.4306175461229
 20
407.280364008909
 30
0.0
 40
57.39994266646506
100
AcDbArc
 50
206.5551371256681
 51
270.0
1001
Sigma
1000

  0
LINE
  5
B2
330
70
100
AcDbEntity
  8
Line
100
AcDbLine
 10
1029.535638334189
 20
667.3301042600282
 30
0.0
 11
860.1480222025058
 21
667.3301042600282
 31
0.0
1001
Sigma
1000

  0
ARC
  5
B3
330
70
100
AcDbEntity
  8
Line
100
AcDbCircle
 10
1029.207861327387
 20
612.4801590465158
 30
0.0
 40
57.39994266646506
100
AcDbArc
 50
26.55513712566814
 51
90.0
1001
Sigma
1000

  0
ARC
  5
B4
330
70
100
AcDbEntity
  8
Line
100
AcDbCircle
 10
679.4306175461229
 20
612.4801590465158
 30
0.0
 40
54.85092458374312
100
AcDbArc
 50
90.34650133480402
 51
153.4448628743318
1001
Sigma
1000

  0
ARC
  5
B5
330
70
100
AcDbEntity
  8
Line
100
AcDbCircle
 10
884.7192090719561
 20
509.8802615277125
 30
0.0
 40
284.3506953494885
100
AcDbArc
 50
153.4448628743318
 51
166.0798876907634
1001
Sigma
1000

  0
ARC
  5
B6
330
70
100
AcDbEntity
  8
Line
100
AcDbCircle
 10
823.9192698015537
 20
509.8802615277125
 30
0.0
 40
284.3506953494885
100
AcDbArc
 50
0.0
 51
26.55513712566814
1001
Sigma
1000

  0
ARC
  5
B7
330
70
100
AcDbEntity
  8
Line
100
AcDbCircle
 10
1029.207861327387
 20
612.4801590465158
 30
0.0
 40
54.85092458374312
100
AcDbArc
 50
26.55513712566814
 51
89.65349866519598
1001
Sigma
1000

  0
ARC
  5
B8
330
70
100
AcDbEntity
  8
Line
100
AcDbCircle
 10
823.9192698015537
 20
509.8802615277125
 30
0.0
 40
286.8997134322095
100
AcDbArc
 50
0.0
 51
26.55513712566814
1001
Sigma
1000

  0
ARC
  5
B9
330
70
100
AcDbEntity
  8
Line
100
AcDbCircle
 10
823.9192698015537
 20
509.8802615277125
 30
0.0
 40
286.8997134322095
100
AcDbArc
 50
334.3703888653703
 51
337.5510754956245
1001
Sigma
1000

  0
ARC
  5
BA
330
70
100
AcDbEntity
  8
Line
100
AcDbCircle
 10
1029.207861327387
 20
407.280364008909
 30
0.0
 40
57.39994266646506
100
AcDbArc
 50
270.0
 51
326.0436632265535
1001
Sigma
1000

  0
LINE
  5
BB
330
70
100
AcDbEntity
  8
Line
100
AcDbLine
 10
1029.207861327387
 20
349.880421342444
 30
0.0
 11
679.4306175461229
 21
349.8804213424429
 31
0.0
1001
Sigma
1000

  0
ARC
  5
BC
330
70
100
AcDbEntity
  8
Line
100
AcDbCircle
 10
1087.819006207641
 20
387.3814945846468
 30
0.0
 40
3.999996004631712
100
AcDbArc
 50
242.7115945823489
 51
0.0
1001
Sigma
1000

  0
LINE
  5
BD
330
70
100
AcDbEntity
  8
Line
100
AcDbLine
 10
1085.983073500599
 20
383.8226732872109
 30
0.0
 11
1078.219015796525
 21
388.3052540926661
 31
0.0
1001
Sigma
1000

  0
LINE
  5
BE
330
70
100
AcDbEntity
  8
Line
100
AcDbLine
 10
1076.819017194904
 20
385.8803853841294
 30
0.0
 11
1078.219015796525
 21
388.3052540926661
 31
0.0
1001
Sigma
1000

  0
LINE
  5
BF
330
70
100
AcDbEntity
  8
Line
100
AcDbLine
 10
1076.819017194904
 20
407.8803634096038
 30
0.0
 11
1076.819017194904
 21
487.380284001659
 31
0.0
1001
Sigma
1000

  0
LINE
  5
C0
330
70
100
AcDbEntity
  8
Line
100
AcDbLine
 10
1076.819017194904
 20
385.8803853841294
 30
0.0
 11
1084.804125839903
 21
381.2701807584304
 31
0.0
1001
Sigma
1000

  0
LINE
  5
C1
330
70
100
AcDbEntity
  8
Line
100
AcDbLine
 10
1076.819017194904
 20
407.8803634096038
 30
0.0
 11
1086.819007206483
 21
402.1068664845212
 31
0.0
1001
Sigma
1000

  0
ARC
  5
C2
330
70
100
AcDbEntity
  8
Line
100
AcDbCircle
 10
1086.819007206483
 20
385.8803853841294
 30
0.0
 40
4.99999500578964
100
AcDbArc
 50
239.9999999999993
 51
0.0
1001
Sigma
1000

  0
ARC
  5
C3
330
70
100
AcDbEntity
  8
Line
100
AcDbCircle
 10
1081.819012200693
 20
393.4466210969073
 30
0.0
 40
9.99999001157928
100
AcDbArc
 50
0.0
 51
59.99999999999938
1001
Sigma
1000

  0
ARC
  5
C4
330
70
100
AcDbEntity
  8
Line
100
AcDbCircle
 10
1081.819012200693
 20
497.3802740132383
 30
0.0
 40
9.99999001157928
100
AcDbArc
 50
270.0
 51
0.0
1001
Sigma
1000

  0
LINE
  5
C5
330
70
100
AcDbEntity
  8
Line
100
AcDbLine
 10
1091.819002212273
 20
393.4466210969073
 30
0.0
 11
1091.819002212273
 21
385.8803853841294
 31
0.0
1001
Sigma
1000

  0
LINE
  5
C6
330
70
100
AcDbEntity
  8
Line
100
AcDbLine
 10
1076.819017194904
 20
487.380284001659
 30
0.0
 11
1081.819012200693
 21
487.380284001659
 31
0.0
1001
Sigma
1000

  0
LINE
  5
C7
330
70
100
AcDbEntity
  8
Line
100
AcDbLine
 10
1091.819002212273
 20
509.8802615277125
 30
0.0
 11
1091.819002212273
 21
497.3802740132383
 31
0.0
1001
Sigma
1000

  0
LINE
  5
C8
330
70
100
AcDbEntity
  8
Center
100
AcDbLine
 10
1110.818983234273
 20
566.5195492162474
 30
0.0
 11
1110.818983234273
 21
598.2408290070771
 31
0.0
1001
Sigma
1000

  0
LINE
  5
C9
330
70
100
AcDbEntity
  8
Center
100
AcDbLine
 10
1110.818983234273
 20
663.0210432350139
 30
0.0
 11
1110.818983234273
 21
643.8407345242825
 31
0.0
1001
Sigma
1000

  0
CIRCLE
  5
CA
330
70
100
AcDbEntity
  8
Line
100
AcDbCircle
 10
1110.818983234273
 20
437.3803339437627
 30
0.0
 40
7.49999250868446
1001
Sigma
1000

  0
CIRCLE
  5
CB
330
70
100
AcDbEntity
  8
Line
100
AcDbCircle
 10
1110.818983234273
 20
582.3801891116622
 30
0.0
 40
7.49999250868446
1001
Sigma
1000

  0
LINE
  5
CC
330
70
100
AcDbEntity
  8
Line
100
AcDbLine
 10
1118.318975742958
 20
651.6801198919065
 30
0.0
 11
1118.318975742958
 21
654.8801166956121
 31
0.0
1001
Sigma
1000

  0
LINE
  5
CD
330
70
100
AcDbEntity
  8
Line
100
AcDbLine
 10
1103.318990725589
 20
651.6801198919065
 30
0.0
 11
1103.318990725589
 21
654.8801166956121
 31
0.0
1001
Sigma
1000

  0
LINE
  5
CF
330
70
100
AcDbEntity
  8
Line
100
AcDbLine
 10
1129.818964256274
 20
654.8801166956121
 30
0.0
 11
1093.785737193063
 21
654.8801166956121
 31
0.0
1001
Sigma
1000

  0
LINE
  5
D0
330
70
100
AcDbEntity
  8
Line
100
AcDbLine
 10
1129.818964256274
 20
364.8804063598129
 30
0.0
 11
1093.785737193063
 21
364.8804063598139
 31
0.0
1001
Sigma
1000

  0
LINE
  5
D1
330
70
100
AcDbEntity
  8
Line
100
AcDbLine
 10
1140.818953269011
 20
375.8803953725511
 30
0.0
 11
1140.818953269011
 21
643.8801276828749
 31
0.0
1001
Sigma
1000

  0
LINE
  5
D2
330
70
100
AcDbEntity
  8
Line
100
AcDbLine
 10
1076.819017194904
 20
375.0750402407755
 30
0.0
 11
1076.819017194904
 21
385.8803853841294
 31
0.0
1001
Sigma
1000

  0
ARC
  5
D3
330
70
100
AcDbEntity
  8
Line
100
AcDbCircle
 10
1129.818964256274
 20
643.8801276828749
 30
0.0
 40
10.99998901273721
100
AcDbArc
 50
300.0000000000006
 51
90.0
1001
Sigma
1000

  0
ARC
  5
D4
330
70
100
AcDbEntity
  8
Line
100
AcDbCircle
 10
1129.818964256274
 20
375.8803953725501
 30
0.0
 40
10.99998901273721
100
AcDbArc
 50
270.0
 51
0.0
1001
Sigma
1000

  0
LINE
  5
D5
330
70
100
AcDbEntity
  8
Line
100
AcDbLine
 10
1076.819017194904
 20
375.0750402407755
 30
0.0
 11
1093.785737193063
 21
364.8804063598139
 31
0.0
1001
Sigma
1000

  0
LINE
  5
D6
330
70
100
AcDbEntity
  8
Line
100
AcDbLine
 10
1076.819017194904
 20
644.6854828146514
 30
0.0
 11
1093.785737193063
 21
654.8801166956121
 31
0.0
1001
Sigma
1000

  0
LINE
  5
D7
330
70
100
AcDbEntity
  8
Center
100
AcDbLine
 10
1129.818964256274
 20
643.8801276828749
 30
0.0
 11
1142.809332337705
 21
651.3801201915592
 31
0.0
1001
Sigma
1000

  0
LINE
  5
D8
330
70
100
AcDbEntity
  8
Line
100
AcDbLine
 10
1135.804239652163
 20
653.1092249689448
 30
0.0
 11
1132.50355413352
 21
651.2035732962422
 31
0.0
1001
Sigma
1000

  0
LINE
  5
D9
330
70
100
AcDbEntity
  8
Line
100
AcDbLine
 10
1140.804234657953
 20
644.448979581321
 30
0.0
 11
1137.50354913931
 21
642.5433279086279
 31
0.0
1001
Sigma
1000

  0
LINE
  5
DA
330
70
100
AcDbEntity
  8
Line
100
AcDbLine
 10
1133.71896036079
 20
637.125136280531
 30
0.0
 11
1135.318958762643
 21
634.3538577564934
 31
0.0
1001
Sigma
1000

  0
ARC
  5
DB
330
70
100
AcDbEntity
  8
Line
100
AcDbCircle
 10
1129.818964256274
 20
643.8801276828749
 30
0.0
 40
7.799992209031838
100
AcDbArc
 50
300.0000000000006
 51
90.0
1001
Sigma
1000

  0
LINE
  5
DC
330
70
100
AcDbEntity
  8
Line
100
AcDbLine
 10
1129.818964256274
 20
651.6801198919065
 30
0.0
 11
1094.673174847652
 21
651.6801198919065
 31
0.0
1001
Sigma
1000

  0
LINE
  5
DD
330
70
100
AcDbEntity
  8
Line
100
AcDbLine
 10
1094.673174847652
 20
651.6801198919065
 30
0.0
 11
1078.46713738841
 21
641.9425501921607
 31
0.0
1001
Sigma
1000

  0
LINE
  5
DE
330
70
100
AcDbEntity
  8
Line
100
AcDbLine
 10
1133.71896036079
 20
637.125136280531
 30
0.0
 11
1133.71896036079
 21
509.8802615277125
 31
0.0
1001
Sigma
1000

  0
LINE
  5
DF
330
70
100
AcDbEntity
  8
Line
100
AcDbLine
 10
1135.318958762643
 20
509.8802615277125
 30
0.0
 11
1135.318958762643
 21
634.3538577564934
 31
0.0
1001
Sigma
1000

  0
LINE
  5
E0
330
70
100
AcDbEntity
  8
Center
100
AcDbLine
 10
1110.818983234273
 20
421.7917759884758
 30
0.0
 11
1110.818983234273
 21
452.7753515981159
 31
0.0
1001
Sigma
1000

  0
LINE
  5
E1
330
70
100
AcDbEntity
  8
Center
100
AcDbLine
 10
1123.359954314366
 20
582.3801891116622
 30
0.0
 11
1098.278012154181
 21
582.3801891116622
 31
0.0
1001
Sigma
1000

  0
LINE
  5
E2
330
70
100
AcDbEntity
  8
Center
100
AcDbLine
 10
1124.097658495551
 20
437.2835637932959
 30
0.0
 11
1097.540307972996
 21
437.2835637932959
 31
0.0
1001
Sigma
1000

  0
LINE
  5
E3
330
70
100
AcDbEntity
  8
Hidden
 62
     3
100
AcDbLine
 10
604.6221145026777
 20
510.057330846768
 30
0.0
 11
600.7306404822598
 21
495.5341520862246
 31
0.0
1001
Sigma
1000

  0
LINE
  5
E4
330
70
100
AcDbEntity
  8
Hidden
 62
     3
100
AcDbLine
 10
597.4837159492675
 20
496.4041628927202
 30
0.0
 11
600.7306404822598
 21
495.5341520862246
 31
0.0
1001
Sigma
1000

  0
LINE
  5
E5
330
70
100
AcDbEntity
  8
Center
100
AcDbLine
 10
728.2455453051705
 20
503.8129173156272
 30
0.0
 11
544.0611508989266
 21
553.1649770551844
 31
0.0
1001
Sigma
1000

  0
LINE
  5
E6
330
70
100
AcDbEntity
  8
Center
100
AcDbLine
 10
627.1089029272149
 20
467.4803038786164
 30
0.0
 11
568.6653755073373
 21
467.4803038786164
 31
0.0
1001
Sigma
1000

  0
LINE
  5
E7
330
70
100
AcDbEntity
  8
Line
 62
     4
100
AcDbLine
 10
581.8195116207095
 20
485.480285899459
 30
0.0
 11
593.8194996346046
 21
485.480285899459
 31
0.0
1001
Sigma
1000

  0
LINE
  5
E8
330
70
100
AcDbEntity
  8
Hidden
 62
     4
100
AcDbLine
 10
621.8194716675366
 20
449.4803218577736
 30
0.0
 11
621.8194716670267
 21
485.480285899459
 31
0.0
1001
Sigma
1000

  0
LINE
  5
E9
330
70
100
AcDbEntity
  8
Line
 62
     4
100
AcDbLine
 10
581.8195116207095
 20
485.480285899459
 30
0.0
 11
581.8195116207095
 21
449.4803218577736
 31
0.0
1001
Sigma
1000

  0
LINE
  5
EA
330
70
100
AcDbEntity
  8
Hidden
 62
     4
100
AcDbLine
 10
621.8194716670267
 20
485.480285899459
 30
0.0
 11
593.8194996346046
 21
485.480285899459
 31
0.0
1001
Sigma
1000

  0
LINE
  5
EB
330
70
100
AcDbEntity
  8
Hidden
 62
     3
100
AcDbLine
 10
633.8194596809217
 20
444.480326851984
 30
0.0
 11
633.8194596809217
 21
490.4802809052487
 31
0.0
1001
Sigma
1000

  0
LINE
  5
EC
330
70
100
AcDbEntity
  8
Line
100
AcDbLine
 10
593.8194996346046
 20
490.4802809052487
 30
0.0
 11
598.4761544499674
 21
490.4802809052487
 31
0.0
1001
Sigma
1000

  0
LINE
  5
ED
330
70
100
AcDbEntity
  8
Line
100
AcDbLine
 10
593.8194996346046
 20
490.4802809052487
 30
0.0
 11
593.8194996346046
 21
444.480326851984
 31
0.0
1001
Sigma
1000

  0
LINE
  5
EE
330
70
100
AcDbEntity
  8
Hidden
 62
     3
100
AcDbLine
 10
598.4761544499674
 20
490.4802809052487
 30
0.0
 11
633.8194596809217
 21
490.4802809052487
 31
0.0
1001
Sigma
1000

  0
LINE
  5
EF
330
70
100
AcDbEntity
  8
Hidden
 62
     4
100
AcDbLine
 10
679.3194142341175
 20
353.0804181461484
 30
0.0
 11
666.5011737010082
 21
425.7762726410788
 31
0.0
1001
Sigma
1000

  0
LINE
  5
F0
330
70
100
AcDbEntity
  8
Hidden
 62
     4
100
AcDbLine
 10
621.8194716672867
 20
458.8303125186002
 30
0.0
 11
627.1089029272149
 21
458.8303125186002
 31
0.0
1001
Sigma
1000

  0
LINE
  5
F1
330
70
100
AcDbEntity
  8
Hidden
 62
     4
100
AcDbLine
 10
621.8194716672867
 20
476.1302952386324
 30
0.0
 11
627.1089029272149
 21
476.1302952386324
 31
0.0
1001
Sigma
1000

  0
LINE
  5
F2
330
70
100
AcDbEntity
  8
Hidden
 62
     3
100
AcDbLine
 10
679.3194142341175
 20
352.4304187953959
 30
0.0
 11
788.8627726122932
 21
352.4304187953959
 31
0.0
1001
Sigma
1000

  0
LINE
  5
F3
330
70
100
AcDbEntity
  8
Hidden
 62
     4
100
AcDbLine
 10
681.5844698036126
 20
353.4798085558541
 30
0.0
 11
693.7518512804879
 21
370.8566301593232
 31
0.0
1001
Sigma
1000

  0
LINE
  5
F4
330
70
100
AcDbEntity
  8
Line
100
AcDbLine
 10
621.9537809820728
 20
574.7399907277215
 30
0.0
 11
587.6641953332278
 21
583.9278575111245
 31
0.0
1001
Sigma
1000

  0
LINE
  5
F5
330
70
100
AcDbEntity
  8
Line
100
AcDbLine
 10
604.6769922526334
 20
574.0101905205874
 30
0.0
 11
602.9566237782214
 21
567.5896879663219
 31
0.0
1001
Sigma
1000

  0
ARC
  5
F6
330
70
100
AcDbEntity
  8
Line
100
AcDbCircle
 10
884.7192090719561
 20
509.8802615277125
 30
0.0
 40
286.8997134322095
100
AcDbArc
 50
180.0
 51
206.5551371256681
1001
Sigma
1000

  0
LINE
  5
F7
330
70
100
AcDbEntity
  8
Line
100
AcDbLine
 10
600.9883837158346
 20
575.6989138357077
 30
0.0
 11
598.9178334231693
 21
567.9715149438566
 31
0.0
1001
Sigma
1000

  0
ARC
  5
F8
330
70
100
AcDbEntity
  8
Line
100
AcDbCircle
 10
884.7192090719561
 20
509.8802615277125
 30
0.0
 40
286.8997134322095
100
AcDbArc
 50
153.4448628743318
 51
166.0702920907026
1001
Sigma
1000

  0
LINE
  5
F9
330
70
100
AcDbEntity
  8
Line
100
AcDbLine
 10
597.4837159492675
 20
496.4041628927202
 30
0.0
 11
566.4410548334147
 21
504.7220188696274
 31
0.0
1001
Sigma
1000

  0
LINE
  5
FA
330
70
100
AcDbEntity
  8
Line
100
AcDbLine
 10
621.9537809820728
 20
574.7399907277215
 30
0.0
 11
604.6221145026777
 21
510.057330846768
 31
0.0
1001
Sigma
1000

  0
LINE
  5
FB
330
70
100
AcDbEntity
  8
Line
100
AcDbLine
 10
570.4527460254446
 20
519.6938542225934
 30
0.0
 11
572.8675581791562
 21
519.0468072561318
 31
0.0
1001
Sigma
1000

  0
LINE
  5
FC
330
70
100
AcDbEntity
  8
Line
100
AcDbLine
 10
583.6525041411878
 20
568.9560221581585
 30
0.0
 11
586.0673162948994
 21
568.3089751917067
 31
0.0
1001
Sigma
1000

  0
LINE
  5
FD
330
70
100
AcDbEntity
  8
Phantom
100
AcDbLine
 10
586.6982704717452
 20
584.186676297705
 30
0.0
 11
565.475129971932
 21
504.9808376562079
 31
0.0
1001
Sigma
1000

  0
LINE
  5
101
330
70
100
AcDbEntity
  8
0
  6
PHANTOM
 62
    94
100
AcDbLine
 10
584.1354665719342
 20
568.826612764868
 30
0.0
 11
570.9357084561909
 21
519.564444829303
 31
0.0
1001
Sigma
1000

  0
LINE
  5
102
330
70
100
AcDbEntity
  8
Line
100
AcDbLine
 10
587.6641953332278
 20
583.9278575111245
 30
0.0
 11
566.4410548334147
 21
504.7220188696274
 31
0.0
1001
Sigma
1000

  0
LINE
  5
103
330
70
100
AcDbEntity
  8
Line
100
AcDbLine
 10
572.8675581791562
 20
519.0468072561318
 30
0.0
 11
586.0673162948994
 21
568.3089751917067
 31
0.0
1001
Sigma
1000

  0
LINE
  5
104
330
70
100
AcDbEntity
  8
Line
100
AcDbLine
 10
598.1803642558154
 20
516.9229994682225
 30
0.0
 11
602.2464909016004
 21
509.8802615277125
 31
0.0
1001
Sigma
1000

  0
LINE
  5
105
330
70
100
AcDbEntity
  8
Line
100
AcDbLine
 10
609.0507532923126
 20
557.4918436504536
 30
0.0
 11
618.8477554027749
 21
563.1481454561858
 31
0.0
1001
Sigma
1000

  0
LINE
  5
106
330
70
100
AcDbEntity
  8
Line
100
AcDbLine
 10
574.0322427187792
 20
523.3934691327988
 30
0.0
 11
598.1803642558154
 21
516.9229994682225
 31
0.0
1001
Sigma
1000

  0
LINE
  5
107
330
70
100
AcDbEntity
  8
Line
100
AcDbLine
 10
584.9026317552666
 20
563.9623133150299
 30
0.0
 11
609.0507532923126
 21
557.4918436504536
 31
0.0
1001
Sigma
1000

  0
LINE
  5
108
330
70
100
AcDbEntity
  8
Phantom
100
AcDbLine
 10
573.1753224110081
 20
587.8101393098742
 30
0.0
 11
551.9521819111839
 21
508.6043006683772
 31
0.0
1001
Sigma
1000

  0
LINE
  5
109
330
70
100
AcDbEntity
  8
Phantom
100
AcDbLine
 10
573.1753224110081
 20
587.8101393098742
 30
0.0
 11
586.6982704717452
 21
584.186676297705
 31
0.0
1001
Sigma
1000

  0
LINE
  5
10A
330
70
100
AcDbEntity
  8
Phantom
100
AcDbLine
 10
551.9521819111857
 20
508.6043006683772
 30
0.0
 11
565.475129971932
 21
504.9808376562079
 31
0.0
1001
Sigma
1000

  0
LINE
  5
10B
330
70
100
AcDbEntity
  8
0
  6
PHANTOM
 62
    94
100
AcDbLine
 10
582.6865792797051
 20
569.214840944739
 30
0.0
 11
584.1354665719342
 21
568.826612764868
 31
0.0
1001
Sigma
1000

  0
LINE
  5
10C
330
70
100
AcDbEntity
  8
0
  6
PHANTOM
 62
    94
100
AcDbLine
 10
569.4868211639719
 20
519.952673009174
 30
0.0
 11
570.9357084561909
 21
519.564444829303
 31
0.0
1001
Sigma
1000

  0
LINE
  5
10D
330
70
100
AcDbEntity
  8
Phantom
100
AcDbLine
 10
559.4350323193014
 20
571.3039735902234
 30
0.0
 11
548.3058244962196
 21
529.7692045465095
 31
0.0
1001
Sigma
1000

  0
LINE
  5
10E
330
70
100
AcDbEntity
  8
Phantom
100
AcDbLine
 10
559.4350323193014
 20
571.3039735902234
 30
0.0
 11
568.1283560726353
 21
568.9746045109775
 31
0.0
1001
Sigma
1000

  0
LINE
  5
10F
330
70
100
AcDbEntity
  8
Phantom
100
AcDbLine
 10
548.3058244962205
 20
529.7692045465095
 30
0.0
 11
556.9991482495575
 21
527.4398354672638
 31
0.0
1001
Sigma
1000

  0
LINE
  5
110
330
70
100
AcDbEntity
  8
Center
100
AcDbLine
 10
616.1449649459285
 20
567.4966195497627
 30
0.0
 11
556.3580105661434
 21
583.5164856937403
 31
0.0
1001
Sigma
1000

  0
LINE
  5
111
330
70
100
AcDbEntity
  8
Center
100
AcDbLine
 10
599.3217438180263
 20
504.7115035534506
 30
0.0
 11
539.5347894382452
 21
520.7313696974183
 31
0.0
1001
Sigma
1000

  0
LINE
  5
112
330
70
100
AcDbEntity
  8
Phantom
100
AcDbLine
 10
583.3853900034827
 20
571.8228380707391
 30
0.0
 11
569.8624419427358
 21
575.4463010829083
 31
0.0
1001
Sigma
1000

  0
LINE
  5
113
330
70
100
AcDbEntity
  8
Phantom
100
AcDbLine
 10
585.6112315680965
 20
580.1297918794859
 30
0.0
 11
572.0882835073593
 21
583.7532548916451
 31
0.0
1001
Sigma
1000

  0
LINE
  5
114
330
70
100
AcDbEntity
  8
Phantom
100
AcDbLine
 10
555.2650623794471
 20
520.9681388953431
 30
0.0
 11
568.7880104401942
 21
517.3446758831739
 31
0.0
1001
Sigma
1000

  0
LINE
  5
115
330
70
100
AcDbEntity
  8
Phantom
100
AcDbLine
 10
553.0392208148347
 20
512.6611850865963
 30
0.0
 11
566.5621688755806
 21
509.0377220744271
 31
0.0
1001
Sigma
1000

  0
LINE
  5
116
330
70
100
AcDbEntity
  8
Center
100
AcDbLine
 10
747.4992786646926
 20
655.9937556129316
 30
0.0
 11
686.6499655718171
 21
443.7869822350364
 31
0.0
1001
Sigma
1000

  0
LINE
  5
117
330
70
100
AcDbEntity
  8
Center
100
AcDbLine
 10
747.4992786646926
 20
363.7667674424924
 30
0.0
 11
686.7539271624758
 21
575.6109836674962
 31
0.0
1001
Sigma
1000

  0
ARC
  5
118
330
70
100
AcDbEntity
  8
Center
100
AcDbCircle
 10
705.6019084386503
 20
509.8802615277125
 30
0.0
 40
145.9998541690575
100
AcDbArc
 50
286.0000000000015
 51
73.99999999999851
1001
Sigma
1000

  0
LINE
  5
119
330
70
100
AcDbEntity
  8
Center
100
AcDbLine
 10
718.1455824753985
 20
642.5625108536673
 30
0.0
 11
763.9933863620274
 21
629.4158646420039
 31
0.0
1001
Sigma
1000

  0
CIRCLE
  5
11A
330
70
100
AcDbEntity
  8
Hidden
 62
     3
100
AcDbCircle
 10
741.7103659839978
 20
635.8054179161727
 30
0.0
 40
14.99998501736892
1001
Sigma
1000

  0
LINE
  5
11B
330
70
100
AcDbEntity
  8
Center
100
AcDbLine
 10
718.7864640406903
 20
377.381782033423
 30
0.0
 11
764.6342679273192
 21
390.5284282450866
 31
0.0
1001
Sigma
1000

  0
CIRCLE
  5
11C
330
70
100
AcDbEntity
  8
Hidden
 62
     3
100
AcDbCircle
 10
741.7103659839978
 20
383.9551051392523
 30
0.0
 40
14.99998501736892
1001
Sigma
1000

  0
LINE
  5
11D
330
70
100
AcDbEntity
  8
Line
100
AcDbLine
 10
609.0507532923126
 20
557.4918436504536
 30
0.0
 11
598.1803642558154
 21
516.9229994682225
 31
0.0
1001
Sigma
1000

  0
LINE
  5
11E
330
70
100
AcDbEntity
  8
Line
100
AcDbLine
 10
586.3244198844832
 20
578.9277474656696
 30
0.0
 11
604.6769922526334
 21
574.0101905205874
 31
0.0
1001
Sigma
1000

  0
LINE
  5
11F
330
70
100
AcDbEntity
  8
Line
100
AcDbLine
 10
584.6040514100613
 20
572.5072449113942
 30
0.0
 11
602.9566237782214
 21
567.5896879663219
 31
0.0
1001
Sigma
1000

  0
LINE
  5
120
330
70
100
AcDbEntity
  8
Line
100
AcDbLine
 10
605.6702474544473
 20
570.3033116425476
 30
0.0
 11
602.9566237782214
 21
567.5896879663219
 31
0.0
1001
Sigma
1000

  0
LINE
  5
121
330
70
100
AcDbEntity
  8
Line
100
AcDbLine
 10
604.6769922526334
 20
574.0101905205874
 30
0.0
 11
605.6702474544473
 21
570.3033116425476
 31
0.0
1001
Sigma
1000

  0
LINE
  5
122
330
70
100
AcDbEntity
  8
Line
 62
     4
370
     9
100
AcDbLine
 10
586.4995107936049
 20
579.5811956344575
 30
0.0
 11
600.9883837158346
 21
575.6989138357077
 31
0.0
1001
Sigma
1000

  0
LINE
  5
123
330
70
100
AcDbEntity
  8
Line
 62
     4
370
     9
100
AcDbLine
 10
584.4289605009397
 20
571.8537967426064
 30
0.0
 11
598.9178334231693
 21
567.9715149438566
 31
0.0
1001
Sigma
1000

  0
LINE
  5
124
330
70
100
AcDbEntity
  8
Line
 62
     4
370
     9
100
AcDbLine
 10
600.9883837158346
 20
575.6989138357077
 30
0.0
 11
601.1905612828609
 21
574.9443768834018
 31
0.0
1001
Sigma
1000

  0
LINE
  5
125
330
70
100
AcDbEntity
  8
Line
 62
     4
370
     9
100
AcDbLine
 10
598.9178334231693
 20
567.9715149438566
 30
0.0
 11
599.4701928084491
 21
568.5238743291363
 31
0.0
1001
Sigma
1000

  0
LINE
  5
126
330
70
100
AcDbEntity
  8
Hidden
 62
     3
100
AcDbLine
 10
692.7674389656913
 20
446.9813890347054
 30
0.0
 11
698.2801805756675
 21
466.2066037505029
 31
0.0
1001
Sigma
1000

  0
LINE
  5
127
330
70
100
AcDbEntity
  8
Hidden
 62
     3
100
AcDbLine
 10
683.1548316077876
 20
449.7377598396934
 30
0.0
 11
688.6675732177637
 21
468.9629745554909
 31
0.0
1001
Sigma
1000

  0
LINE
  5
128
330
70
100
AcDbEntity
  8
Hidden
 62
     3
100
AcDbLine
 10
698.2801805756675
 20
466.2066037505029
 30
0.0
 11
688.6675732177637
 21
468.9629745554909
 31
0.0
1001
Sigma
1000

  0
LINE
  5
129
330
70
100
AcDbEntity
  8
Hidden
 62
     3
100
AcDbLine
 10
683.1548316077876
 20
449.7377598396934
 30
0.0
 11
692.7674389656913
 21
446.9813890347054
 31
0.0
1001
Sigma
1000

  0
LINE
  5
12A
330
70
100
AcDbEntity
  8
Hidden
 62
     3
100
AcDbLine
 10
683.1548316077876
 20
570.0227632157314
 30
0.0
 11
692.7674389656913
 21
572.7791340207195
 31
0.0
1001
Sigma
1000

  0
LINE
  5
12B
330
70
100
AcDbEntity
  8
Hidden
 62
     3
100
AcDbLine
 10
698.2801805756675
 20
553.5539193049221
 30
0.0
 11
688.6675732177637
 21
550.797548499934
 31
0.0
1001
Sigma
1000

  0
LINE
  5
12C
330
70
100
AcDbEntity
  8
Hidden
 62
     3
100
AcDbLine
 10
683.1548316077876
 20
570.0227632157314
 30
0.0
 11
688.6675732177637
 21
550.797548499934
 31
0.0
1001
Sigma
1000

  0
LINE
  5
12D
330
70
100
AcDbEntity
  8
Hidden
 62
     3
100
AcDbLine
 10
692.7674389656913
 20
572.7791340207195
 30
0.0
 11
698.2801805756675
 21
553.5539193049221
 31
0.0
1001
Sigma
1000

  0
LINE
  5
12E
330
70
100
AcDbEntity
  8
Phantom
100
AcDbLine
 10
571.6787523293768
 20
575.2702047255008
 30
0.0
 11
573.749302622052
 21
582.997603617352
 31
0.0
1001
Sigma
1000

  0
LINE
  5
12F
330
70
100
AcDbEntity
  8
Phantom
 62
     4
100
AcDbLine
 10
573.5422475927775
 20
582.2248637281679
 30
0.0
 11
572.410877872938
 21
583.356233448007
 31
0.0
1001
Sigma
1000

  0
LINE
  5
130
330
70
100
AcDbEntity
  8
Phantom
 62
     4
100
AcDbLine
 10
571.8858073586511
 20
576.042944614685
 30
0.0
 11
570.340327580273
 21
575.628834556156
 31
0.0
1001
Sigma
1000

  0
LINE
  5
131
330
70
100
AcDbEntity
  8
Phantom
 62
     4
100
AcDbLine
 10
597.6903691298237
 20
575.7543940635916
 30
0.0
 11
573.5422475927775
 21
582.2248637281679
 31
0.0
1001
Sigma
1000

  0
LINE
  5
132
330
70
100
AcDbEntity
  8
Phantom
 62
     4
100
AcDbLine
 10
571.8858073586511
 20
576.042944614685
 30
0.0
 11
596.0339288956874
 21
569.5724749501087
 31
0.0
1001
Sigma
1000

  0
LINE
  5
133
330
70
100
AcDbEntity
  8
Phantom
100
AcDbLine
 10
597.6903691298237
 20
575.7543940635916
 30
0.0
 11
597.124684269904
 21
576.7341889820403
 31
0.0
1001
Sigma
1000

  0
LINE
  5
134
330
70
100
AcDbEntity
  8
Phantom
100
AcDbLine
 10
597.124684269904
 20
576.7341889820403
 30
0.0
 11
572.0106378713751
 21
583.4634774332072
 31
0.0
1001
Sigma
1000

  0
LINE
  5
135
330
70
100
AcDbEntity
  8
Phantom
100
AcDbLine
 10
595.0541339772387
 20
569.0067900901891
 30
0.0
 11
597.124684269904
 21
576.7341889820403
 31
0.0
1001
Sigma
1000

  0
LINE
  5
136
330
70
100
AcDbEntity
  8
Phantom
100
AcDbLine
 10
595.0541339772387
 20
569.0067900901891
 30
0.0
 11
569.94008757871
 21
575.7360785413561
 31
0.0
1001
Sigma
1000

  0
LINE
  5
137
330
70
100
AcDbEntity
  8
Phantom
100
AcDbLine
 10
596.0339288956874
 20
569.5724749501087
 30
0.0
 11
597.6903691298237
 21
575.7543940635916
 31
0.0
1001
Sigma
1000

  0
LINE
  5
138
330
70
100
AcDbEntity
  8
Phantom
100
AcDbLine
 10
595.0541339772387
 20
569.0067900901891
 30
0.0
 11
596.0339288956874
 21
569.5724749501087
 31
0.0
1001
Sigma
1000

  0
ARC
  5
139
330
70
100
AcDbEntity
  8
Phantom
100
AcDbCircle
 10
563.6823056230021
 20
575.3422958701333
 30
0.0
 40
3.257356059293175
100
AcDbArc
 50
127.1211205082811
 51
202.8788794917136
1001
Sigma
1000

  0
ARC
  5
13A
330
70
100
AcDbEntity
  8
Phantom
100
AcDbCircle
 10
566.7881310620099
 20
586.9333942079049
 30
0.0
 40
3.257356059293175
100
AcDbArc
 50
127.1211205082811
 51
202.8788794917136
1001
Sigma
1000

  0
LINE
  5
13B
330
70
100
AcDbEntity
  8
Phantom
100
AcDbLine
 10
566.8491280219735
 20
576.5642986584141
 30
0.0
 11
561.7164848761384
 21
577.9395862443776
 31
0.0
1001
Sigma
1000

  0
LINE
  5
13C
330
70
100
AcDbEntity
  8
Phantom
100
AcDbLine
 10
568.9196783146387
 20
584.2916975502752
 30
0.0
 11
563.7870351688037
 21
585.6669851362388
 31
0.0
1001
Sigma
1000

  0
LINE
  5
13D
330
70
100
AcDbEntity
  8
Phantom
100
AcDbLine
 10
560.5359412799162
 20
576.1853616549528
 30
0.0
 11
563.6417667189141
 21
587.7764599927345
 31
0.0
1001
Sigma
1000

  0
LINE
  5
13E
330
70
100
AcDbEntity
  8
Phantom
100
AcDbLine
 10
564.8223103151362
 20
589.5306845821594
 30
0.0
 11
573.0459130177079
 21
587.3271768791278
 31
0.0
1001
Sigma
1000

  0
LINE
  5
13F
330
70
100
AcDbEntity
  8
Phantom
100
AcDbLine
 10
565.813852875641
 20
572.7005992124936
 30
0.0
 11
569.9549534609712
 21
588.1553969961958
 31
0.0
1001
Sigma
1000

  0
LINE
  5
140
330
70
100
AcDbEntity
  8
Phantom
100
AcDbLine
 10
560.6812097298059
 20
574.075886798457
 30
0.0
 11
568.9048124323773
 21
571.8723790954255
 31
0.0
1001
Sigma
1000

  0
ARC
  5
141
330
70
100
AcDbEntity
  8
Phantom
100
AcDbCircle
 10
573.6799523371919
 20
578.8750853848508
 30
0.0
 40
11.99998801389513
100
AcDbArc
 50
145.5287793655097
 51
184.4712206344959
1001
Sigma
1000

  0
LINE
  5
142
330
70
100
AcDbEntity
  8
Phantom
100
AcDbLine
 10
573.0459130177079
 20
587.3271768791278
 30
0.0
 11
568.9048124323773
 21
571.8723790954255
 31
0.0
1001
Sigma
1000

  0
LINE
  5
143
330
70
100
AcDbEntity
  8
Center
100
AcDbLine
 10
690.7586186596875
 20
338.0187809800172
 30
0.0
 11
675.0197522558351
 21
427.2783278775814
 31
0.0
1001
Sigma
1000

  0
ARC
  5
144
330
70
100
AcDbEntity
  8
Center
100
AcDbCircle
 10
627.1089029272149
 20
418.8303524722831
 30
0.0
 40
48.6499514063332
100
AcDbArc
 50
9.999999999997747
 51
90.0
1001
Sigma
1000

  0
ARC
  5
145
330
70
100
AcDbEntity
  8
Hidden
 62
     4
100
AcDbCircle
 10
627.1089029272149
 20
418.8303524722831
 30
0.0
 40
39.99996004631712
100
AcDbArc
 50
9.999999999997747
 51
90.0
1001
Sigma
1000

  0
ARC
  5
146
330
70
100
AcDbEntity
  8
Hidden
 62
     4
100
AcDbCircle
 10
627.1089029272149
 20
418.8303524722831
 30
0.0
 40
57.29994276634927
100
AcDbArc
 50
9.999999999997747
 51
90.0
1001
Sigma
1000

  0
LINE
  5
147
330
70
100
AcDbEntity
  8
Hidden
 62
     4
100
AcDbLine
 10
679.3194142341175
 20
353.0804181461484
 30
0.0
 11
681.5844698036126
 21
353.4798085558541
 31
0.0
1001
Sigma
1000

  0
LINE
  5
148
330
70
100
AcDbEntity
  8
Line
100
AcDbLine
 10
579.2909528526531
 20
456.4867091805822
 30
0.0
 11
515.4191765688981
 21
456.4867091805822
 31
0.0
1001
Sigma
1000

  0
LINE
  5
149
330
70
100
AcDbEntity
  8
Line
100
AcDbLine
 10
593.8194996346046
 20
444.480326851984
 30
0.0
 11
605.3730186345424
 21
444.480326851984
 31
0.0
1001
Sigma
1000

  0
LINE
  5
14A
330
70
100
AcDbEntity
  8
Hidden
 62
     3
100
AcDbLine
 10
605.3730186345424
 20
444.480326851984
 30
0.0
 11
633.8194596809217
 21
444.480326851984
 31
0.0
1001
Sigma
1000

  0
LINE
  5
14B
330
70
100
AcDbEntity
  8
Line
 62
     4
100
AcDbLine
 10
581.8195116207095
 20
449.4803218577736
 30
0.0
 11
593.8194996346046
 21
449.4803218577736
 31
0.0
1001
Sigma
1000

  0
LINE
  5
14C
330
70
100
AcDbEntity
  8
Hidden
 62
     4
100
AcDbLine
 10
593.8194996346046
 20
449.4803218577736
 30
0.0
 11
621.8194716670267
 21
449.4803218577736
 31
0.0
1001
Sigma
1000

  0
LINE
  5
14D
330
70
100
AcDbEntity
  8
Line
100
AcDbLine
 10
860.1480222025058
 20
667.3301042600282
 30
0.0
 11
858.0083202802423
 21
664.7801068070754
 31
0.0
1001
Sigma
1000

  0
LINE
  5
14E
330
70
100
AcDbEntity
  8
Line
100
AcDbLine
 10
849.1741359833559
 20
664.383301124032
 30
0.0
 11
851.9975551262033
 21
664.7801068070754
 31
0.0
1001
Sigma
1000

  0
ARC
  5
14F
330
70
100
AcDbEntity
  8
Hidden
 62
     3
100
AcDbCircle
 10
884.7192090719561
 20
509.8802615277125
 30
0.0
 40
284.3506953494885
100
AcDbArc
 50
182.8919241189233
 51
183.9120746255128
1001
Sigma
1000

  0
LINE
  5
150
330
70
100
AcDbEntity
  8
Line
100
AcDbLine
 10
623.1190689936028
 20
627.6801438641164
 30
0.0
 11
623.1190689936028
 21
631.680139868748
 31
0.0
1001
Sigma
1000

  0
ARC
  5
151
330
70
100
AcDbEntity
  8
Line
100
AcDbCircle
 10
603.1190889704443
 20
628.8801426655059
 30
0.0
 40
11.99998801389513
100
AcDbArc
 50
70.52877936550626
 51
109.4712206344937
1001
Sigma
1000

  0
LINE
  5
152
330
70
100
AcDbEntity
  8
Line
100
AcDbLine
 10
595.1190969611808
 20
640.1938398638779
 30
0.0
 11
595.1190969611808
 21
634.8801366724535
 31
0.0
1001
Sigma
1000

  0
LINE
  5
153
330
70
100
AcDbEntity
  8
Line
100
AcDbLine
 10
595.1190969611808
 20
634.8801366724535
 30
0.0
 11
611.1190809797076
 21
634.8801366724535
 31
0.0
1001
Sigma
1000

  0
LINE
  5
154
330
70
100
AcDbEntity
  8
Line
100
AcDbLine
 10
611.1190809797076
 20
634.8801366724535
 30
0.0
 11
611.1190809797076
 21
640.1938398638779
 31
0.0
1001
Sigma
1000

  0
LINE
  5
155
330
70
100
AcDbEntity
  8
Line
100
AcDbLine
 10
597.1190949634966
 20
640.8801306794011
 30
0.0
 11
609.1190829773918
 21
640.8801306794011
 31
0.0
1001
Sigma
1000

  0
LINE
  5
156
330
70
100
AcDbEntity
  8
Line
100
AcDbLine
 10
607.1190849750759
 20
634.8801366724535
 30
0.0
 11
607.1190849750759
 21
640.1938398638779
 31
0.0
1001
Sigma
1000

  0
LINE
  5
157
330
70
100
AcDbEntity
  8
Line
100
AcDbLine
 10
599.1190929658126
 20
634.8801366724535
 30
0.0
 11
599.1190929658126
 21
640.1938398638779
 31
0.0
1001
Sigma
1000

  0
ARC
  5
158
330
70
100
AcDbEntity
  8
Line
100
AcDbCircle
 10
609.1190829773918
 20
637.6227746201086
 30
0.0
 40
3.257356059293175
100
AcDbArc
 50
52.12112050828587
 51
127.8788794917195
1001
Sigma
1000

  0
ARC
  5
159
330
70
100
AcDbEntity
  8
Line
100
AcDbCircle
 10
597.1190949634966
 20
637.6227746201086
 30
0.0
 40
3.257356059293175
100
AcDbArc
 50
52.12112050828046
 51
127.8788794917195
1001
Sigma
1000

  0
LINE
  5
15A
330
70
100
AcDbEntity
  8
Line
100
AcDbLine
 10
599.1190929658126
 20
614.8801566492949
 30
0.0
 11
599.9190921667389
 21
614.0801574483685
 31
0.0
1001
Sigma
1000

  0
LINE
  5
15B
330
70
100
AcDbEntity
  8
Line
100
AcDbLine
 10
599.9190921667389
 20
614.0801574483685
 30
0.0
 11
606.3190857741499
 21
614.0801574483685
 31
0.0
1001
Sigma
1000

  0
LINE
  5
15C
330
70
100
AcDbEntity
  8
Line
100
AcDbLine
 10
599.1190929658126
 20
614.8801566492949
 30
0.0
 11
607.1190849750759
 21
614.8801566492949
 31
0.0
1001
Sigma
1000

  0
LINE
  5
15D
330
70
100
AcDbEntity
  8
Line
100
AcDbLine
 10
606.3190857741499
 20
614.0801574483685
 30
0.0
 11
607.1190849750759
 21
614.8801566492949
 31
0.0
1001
Sigma
1000

  0
LINE
  5
15E
330
70
100
AcDbEntity
  8
Line
 62
     4
370
     9
100
AcDbLine
 10
599.9190921667389
 20
631.8801396689797
 30
0.0
 11
599.1190929658126
 21
633.2657789309937
 31
0.0
1001
Sigma
1000

  0
LINE
  5
15F
330
70
100
AcDbEntity
  8
Line
 62
     4
370
     9
100
AcDbLine
 10
606.3190857741499
 20
631.8801396689797
 30
0.0
 11
607.1190849750759
 21
633.2657789309937
 31
0.0
1001
Sigma
1000

  0
LINE
  5
160
330
70
100
AcDbEntity
  8
Line
100
AcDbLine
 10
599.1190929658126
 20
631.8801396689797
 30
0.0
 11
607.1190849750759
 21
631.8801396689797
 31
0.0
1001
Sigma
1000

  0
LINE
  5
161
330
70
100
AcDbEntity
  8
Line
100
AcDbLine
 10
620.119071990129
 20
631.680139868748
 30
0.0
 11
620.119071990129
 21
634.8801366724535
 31
0.0
1001
Sigma
1000

  0
LINE
  5
162
330
70
100
AcDbEntity
  8
Line
100
AcDbLine
 10
513.4863207490167
 20
384.8803863829715
 30
0.0
 11
513.4863207490167
 21
398.6105359278667
 31
0.0
1001
Sigma
1000

  0
LINE
  5
163
330
70
100
AcDbEntity
  8
Line
100
AcDbLine
 10
513.4863207490156
 20
631.680139868748
 30
0.0
 11
513.4863207490156
 21
634.8801366724535
 31
0.0
1001
Sigma
1000

  0
CIRCLE
  5
164
330
70
100
AcDbEntity
  8
Line
100
AcDbCircle
 10
506.769185208882
 20
626.2301453124376
 30
0.0
 40
6.349993657352843
1001
Sigma
1000

  0
ARC
  5
165
330
70
100
AcDbEntity
  8
Line
100
AcDbCircle
 10
506.769185208882
 20
393.5303777429875
 30
0.0
 40
8.649991360016077
100
AcDbArc
 50
180.0
 51
320.9456127001026
1001
Sigma
1000

  0
CIRCLE
  5
166
330
70
100
AcDbEntity
  8
Line
100
AcDbCircle
 10
506.769185208882
 20
626.2301453124376
 30
0.0
 40
8.649991360016077
1001
Sigma
1000

  0
LINE
  5
167
330
70
100
AcDbEntity
  8
Center
100
AcDbLine
 10
486.4798612124396
 20
393.5303777429875
 30
0.0
 11
525.332281421363
 21
393.5303777429875
 31
0.0
1001
Sigma
1000

  0
LINE
  5
168
330
70
100
AcDbEntity
  8
Center
100
AcDbLine
 10
526.1953953133434
 20
626.2301453124376
 30
0.0
 11
487.3429751044207
 21
626.2301453124376
 31
0.0
1001
Sigma
1000

  0
LINE
  5
169
330
70
100
AcDbEntity
  8
Center
100
AcDbLine
 10
506.769185208882
 20
648.1786308520348
 30
0.0
 11
506.7691852088829
 21
370.3878635452966
 31
0.0
1001
Sigma
1000

  0
LINE
  5
16A
330
70
100
AcDbEntity
  8
Line
100
AcDbLine
 10
515.4191765688981
 20
626.2301453124376
 30
0.0
 11
515.4191765688981
 21
398.6105359278667
 31
0.0
1001
Sigma
1000

  0
LINE
  5
16B
330
70
100
AcDbEntity
  8
Line
100
AcDbLine
 10
498.1191938488659
 20
626.2301453124376
 30
0.0
 11
498.1191938488659
 21
393.5303777429875
 31
0.0
1001
Sigma
1000

  0
LINE
  5
16C
330
70
100
AcDbEntity
  8
Hidden
 62
     3
100
AcDbLine
 10
578.6191134420749
 20
631.680139868748
 30
0.0
 11
578.6191134420749
 21
627.6801438641164
 31
0.0
1001
Sigma
1000

  0
LINE
  5
16D
330
70
100
AcDbEntity
  8
Hidden
 62
     3
100
AcDbLine
 10
587.6191044524963
 20
631.680139868748
 30
0.0
 11
587.6191044524963
 21
627.6801438641164
 31
0.0
1001
Sigma
1000

  0
LINE
  5
16E
330
70
100
AcDbEntity
  8
Center
100
AcDbLine
 10
583.1191089472857
 20
640.8067508558019
 30
0.0
 11
583.1191089472857
 21
621.1499871275882
 31
0.0
1001
Sigma
1000

  0
LINE
  5
16F
330
70
100
AcDbEntity
  8
Line
100
AcDbLine
 10
623.1190689936028
 20
627.6801438641164
 30
0.0
 11
570.1191219322326
 21
627.6801438641164
 31
0.0
1001
Sigma
1000

  0
LINE
  5
170
330
70
100
AcDbEntity
  8
Line
100
AcDbLine
 10
513.4863207490156
 20
631.680139868748
 30
0.0
 11
598.6190934652334
 21
631.680139868748
 31
0.0
1001
Sigma
1000

  0
LINE
  5
171
330
70
100
AcDbEntity
  8
Line
100
AcDbLine
 10
506.769185208882
 20
384.8803863829715
 30
0.0
 11
620.119071990129
 21
384.8803863829715
 31
0.0
1001
Sigma
1000

  0
LINE
  5
172
330
70
100
AcDbEntity
  8
Line
100
AcDbLine
 10
513.4863207490156
 20
634.8801366724535
 30
0.0
 11
620.119071990129
 21
634.8801366724535
 31
0.0
1001
Sigma
1000

  0
LINE
  5
173
330
70
100
AcDbEntity
  8
Center
100
AcDbLine
 10
603.1190889704443
 20
607.5678321694596
 30
0.0
 11
603.1190889704443
 21
647.5169459449191
 31
0.0
1001
Sigma
1000

  0
LINE
  5
174
330
70
100
AcDbEntity
  8
Line
100
AcDbLine
 10
599.1190929658126
 20
634.8801366724535
 30
0.0
 11
599.1190929658126
 21
627.6801438641164
 31
0.0
1001
Sigma
1000

  0
LINE
  5
175
330
70
100
AcDbEntity
  8
Line
100
AcDbLine
 10
607.1190849750759
 20
614.8801566492949
 30
0.0
 11
607.1190849750759
 21
616.6801548513793
 31
0.0
1001
Sigma
1000

  0
LINE
  5
176
330
70
100
AcDbEntity
  8
Line
 62
     4
370
     9
100
AcDbLine
 10
599.9190921667389
 20
631.8801396689797
 30
0.0
 11
599.9190921667389
 21
627.6801438641164
 31
0.0
1001
Sigma
1000

  0
LINE
  5
177
330
70
100
AcDbEntity
  8
Line
 62
     4
370
     9
100
AcDbLine
 10
606.3190857741499
 20
614.0801574483685
 30
0.0
 11
606.3190857741499
 21
616.6801548513793
 31
0.0
1001
Sigma
1000

  0
LINE
  5
178
330
70
100
AcDbEntity
  8
Line
100
AcDbLine
 10
623.1190689936028
 20
631.680139868748
 30
0.0
 11
607.6190844756549
 21
631.680139868748
 31
0.0
1001
Sigma
1000

  0
LINE
  5
179
330
70
100
AcDbEntity
  8
Line
100
AcDbLine
 10
611.1190809797076
 20
624.6801468606425
 30
0.0
 11
595.1190969611808
 21
624.6801468606425
 31
0.0
1001
Sigma
1000

  0
LINE
  5
17A
330
70
100
AcDbEntity
  8
Line
100
AcDbLine
 10
597.1190949634966
 20
616.6801548513793
 30
0.0
 11
609.1190829773918
 21
616.6801548513793
 31
0.0
1001
Sigma
1000

  0
ARC
  5
17B
330
70
100
AcDbEntity
  8
Line
100
AcDbCircle
 10
609.1190829773918
 20
619.9375109106718
 30
0.0
 40
3.257356059293175
100
AcDbArc
 50
232.1211205082773
 51
307.8788794917141
1001
Sigma
1000

  0
ARC
  5
17C
330
70
100
AcDbEntity
  8
Line
100
AcDbCircle
 10
597.1190949634966
 20
619.9375109106718
 30
0.0
 40
3.257356059293175
100
AcDbArc
 50
232.1211205082773
 51
307.8788794917141
1001
Sigma
1000

  0
ARC
  5
17D
330
70
100
AcDbEntity
  8
Line
100
AcDbCircle
 10
603.1190889704443
 20
628.6801428652743
 30
0.0
 40
11.99998801389513
100
AcDbArc
 50
250.5287793655063
 51
289.4712206344938
1001
Sigma
1000

  0
LINE
  5
17E
330
70
100
AcDbEntity
  8
Line
100
AcDbLine
 10
599.1190929658126
 20
624.6801468606425
 30
0.0
 11
599.1190929658126
 21
617.3664456668923
 31
0.0
1001
Sigma
1000

  0
LINE
  5
17F
330
70
100
AcDbEntity
  8
Line
100
AcDbLine
 10
607.1190849750759
 20
624.6801468606425
 30
0.0
 11
607.1190849750759
 21
617.3664456668923
 31
0.0
1001
Sigma
1000

  0
LINE
  5
180
330
70
100
AcDbEntity
  8
Line
100
AcDbLine
 10
595.1190969611808
 20
617.3664456668923
 30
0.0
 11
595.1190969611808
 21
627.6801438641164
 31
0.0
1001
Sigma
1000

  0
LINE
  5
181
330
70
100
AcDbEntity
  8
Line
100
AcDbLine
 10
611.1190809797076
 20
624.6801468606425
 30
0.0
 11
595.1190969611808
 21
624.6801468606425
 31
0.0
1001
Sigma
1000

  0
LINE
  5
182
330
70
100
AcDbEntity
  8
Line
100
AcDbLine
 10
611.1190809797076
 20
617.3664456668923
 30
0.0
 11
611.1190809797076
 21
627.6801438641164
 31
0.0
1001
Sigma
1000

  0
LINE
  5
183
330
70
100
AcDbEntity
  8
Line
 62
     4
370
     9
100
AcDbLine
 10
606.3190857741499
 20
631.8801396689797
 30
0.0
 11
606.3190857741499
 21
627.6801438641164
 31
0.0
1001
Sigma
1000

  0
LINE
  5
184
330
70
100
AcDbEntity
  8
Line
 62
     4
370
     9
100
AcDbLine
 10
599.9190921667389
 20
616.6801548513793
 30
0.0
 11
599.9190921667389
 21
614.0801574483685
 31
0.0
1001
Sigma
1000

  0
LINE
  5
185
330
70
100
AcDbEntity
  8
Line
100
AcDbLine
 10
607.1190849750759
 20
634.8801366724535
 30
0.0
 11
607.1190849750759
 21
627.6801438641164
 31
0.0
1001
Sigma
1000

  0
LINE
  5
186
330
70
100
AcDbEntity
  8
Line
100
AcDbLine
 10
599.1190929658126
 20
616.6801548513793
 30
0.0
 11
599.1190929658126
 21
614.8801566492949
 31
0.0
1001
Sigma
1000

  0
LINE
  5
187
330
70
100
AcDbEntity
  8
Line
100
AcDbLine
 10
570.1191219322326
 20
631.680139868748
 30
0.0
 11
570.1191219322326
 21
627.6801438641164
 31
0.0
1001
Sigma
1000

  0
LINE
  5
188
330
70
100
AcDbEntity
  8
Line
100
AcDbLine
 10
620.119071990129
 20
384.8803863829715
 30
0.0
 11
620.119071990229
 21
398.6105359278667
 31
0.0
1001
Sigma
1000

  0
LINE
  5
189
330
70
100
AcDbEntity
  8
Line
100
AcDbLine
 10
513.4863207490167
 20
398.6105359278667
 30
0.0
 11
620.119071990229
 21
398.6105359278667
 31
0.0
1001
Sigma
1000

  0
LINE
  5
18A
330
70
100
AcDbEntity
  8
Line
100
AcDbLine
 10
607.6190844756549
 20
634.8801366724535
 30
0.0
 11
607.6190844756549
 21
627.6801438641164
 31
0.0
1001
Sigma
1000

  0
LINE
  5
18B
330
70
100
AcDbEntity
  8
Line
100
AcDbLine
 10
598.6190934652334
 20
634.8801366724535
 30
0.0
 11
598.6190934652334
 21
627.6801438641164
 31
0.0
1001
Sigma
1000

  0
LINE
  5
18C
330
70
100
AcDbEntity
  8
Line
100
AcDbLine
 10
515.4191765688981
 20
621.1499871275882
 30
0.0
 11
593.0985339222765
 21
621.1499871275882
 31
0.0
1001
Sigma
1000

  0
LINE
  5
18D
330
70
100
AcDbEntity
  8
Line
100
AcDbLine
 10
513.4863207490167
 20
395.6871933833472
 30
0.0
 11
620.119071990229
 21
395.6871933833472
 31
0.0
1001
Sigma
1000

  0
LINE
  5
18E
330
70
100
AcDbEntity
  8
Line
100
AcDbLine
 10
677.4194161314076
 20
657.4801140986228
 30
0.0
 11
696.3193972532923
 21
638.5801329767478
 31
0.0
1001
Sigma
1000

  0
LINE
  5
18F
330
70
100
AcDbEntity
  8
Center
100
AcDbLine
 10
685.4694080907288
 20
517.4802539365128
 30
0.0
 11
685.4694080907288
 21
663.3152678961197
 31
0.0
1001
Sigma
1000

  0
ARC
  5
190
330
70
100
AcDbEntity
  8
Center
100
AcDbCircle
 10
635.4694580328326
 20
517.4802539365128
 30
0.0
 40
49.9999500578964
100
AcDbArc
 50
270.0
 51
0.0
1001
Sigma
1000

  0
LINE
  5
191
330
70
100
AcDbEntity
  8
Hidden
 62
     3
100
AcDbLine
 10
635.4694580328326
 20
478.3302930411799
 30
0.0
 11
633.8194596809217
 21
478.3302930411799
 31
0.0
1001
Sigma
1000

  0
LINE
  5
192
330
70
100
AcDbEntity
  8
Hidden
 62
     3
100
AcDbLine
 10
635.4694580328326
 20
456.6303147160527
 30
0.0
 11
633.8194596809217
 21
456.6303147160527
 31
0.0
1001
Sigma
1000

  0
LINE
  5
193
330
70
100
AcDbEntity
  8
Line
100
AcDbLine
 10
677.4194161314076
 20
657.4801140986228
 30
0.0
 11
674.6194189281652
 21
657.4801140986228
 31
0.0
1001
Sigma
1000

  0
LINE
  5
194
330
70
100
AcDbEntity
  8
Line
100
AcDbLine
 10
674.6194189281652
 20
517.4802539365128
 30
0.0
 11
674.6194189281652
 21
657.4801140986228
 31
0.0
1001
Sigma
1000

  0
LINE
  5
195
330
70
100
AcDbEntity
  8
Line
100
AcDbLine
 10
696.3193972532923
 20
517.4802539365128
 30
0.0
 11
696.3193972532923
 21
638.5801329767478
 31
0.0
1001
Sigma
1000

  0
ARC
  5
196
330
70
100
AcDbEntity
  8
Hidden
 62
     3
100
AcDbCircle
 10
635.4694580328326
 20
517.4802539365128
 30
0.0
 40
39.14996089533288
100
AcDbArc
 50
270.0
 51
348.8063776081772
1001
Sigma
1000

  0
ARC
  5
197
330
70
100
AcDbEntity
  8
Hidden
 62
     3
100
AcDbCircle
 10
635.4694580328326
 20
517.4802539365128
 30
0.0
 40
60.84993922045993
100
AcDbArc
 50
270.0
 51
352.8251756422419
1001
Sigma
1000

  0
ARC
  5
198
330
70
100
AcDbEntity
  8
Line
100
AcDbCircle
 10
635.4694580328326
 20
517.4802539365128
 30
0.0
 40
39.14996089533288
100
AcDbArc
 50
348.8063776081772
 51
0.0
1001
Sigma
1000

  0
ARC
  5
199
330
70
100
AcDbEntity
  8
Line
100
AcDbCircle
 10
635.4694580328326
 20
517.4802539365128
 30
0.0
 40
60.84993922045993
100
AcDbArc
 50
352.8251756422419
 51
0.0
1001
Sigma
1000

  0
LINE
  5
19A
330
70
100
AcDbEntity
  8
Hidden
 62
     3
100
AcDbLine
 10
602.2464909016004
 20
509.8802615277125
 30
0.0
 11
603.8366660615475
 21
507.1259973577502
 31
0.0
1001
Sigma
1000

  0
LINE
  5
19B
330
70
100
AcDbEntity
  8
Center
100
AcDbLine
 10
1167.253353094704
 20
509.8802615277125
 30
0.0
 11
451.8689224014099
 21
509.8802615277125
 31
0.0
1001
Sigma
1000

  0
LINE
  5
19F
330
70
100
AcDbEntity
  8
Center
100
AcDbLine
 10
221.1903845033132
 20
656.1385590903618
 30
0.0
 11
236.2519447347111
 21
599.9280510653209
 31
0.0
1001
Sigma
1000

  0
CIRCLE
  5
1A0
330
70
100
AcDbEntity
  8
Line
100
AcDbCircle
 10
260.3801772215315
 20
509.8802615277125
 30
0.0
 40
159.9998404288878
1001
Sigma
1000

  0
LINE
  5
1A1
330
70
100
AcDbEntity
  8
Center
100
AcDbLine
 10
260.3801772215315
 20
697.4323132841866
 30
0.0
 11
260.3801772215315
 21
327.0446229779121
 31
0.0
1001
Sigma
1000

  0
CIRCLE
  5
1A2
330
70
100
AcDbEntity
  8
Line
100
AcDbCircle
 10
260.3801772215315
 20
509.8802615277125
 30
0.0
 40
124.9998753350685
1001
Sigma
1000

  0
CIRCLE
  5
1A3
330
70
100
AcDbEntity
  8
Line
100
AcDbCircle
 10
260.3801772215315
 20
509.8802615277125
 30
0.0
 40
107.6998925886951
1001
Sigma
1000

  0
CIRCLE
  5
1A4
330
70
100
AcDbEntity
  8
Center
100
AcDbCircle
 10
260.3801772215315
 20
509.8802615277125
 30
0.0
 40
116.3498839618818
1001
Sigma
1000

  0
CIRCLE
  5
1A5
330
70
100
AcDbEntity
  8
Center
100
AcDbCircle
 10
260.3801772215315
 20
544.147868923497
 30
0.0
 40
32.49996758711783
1001
Sigma
1000

  0
LINE
  5
1A6
330
70
100
AcDbEntity
  8
Center
100
AcDbLine
 10
180.8415835695472
 20
467.4803038140573
 30
0.0
 11
339.9187708735158
 21
467.4803038140573
 31
0.0
1001
Sigma
1000

  0
LINE
  5
1A7
330
70
100
AcDbEntity
  8
Center
100
AcDbLine
 10
210.3802270875041
 20
439.129045249792
 30
0.0
 11
210.3802270875041
 21
495.8315623783224
 31
0.0
1001
Sigma
1000

  0
LINE
  5
1A8
330
70
100
AcDbEntity
  8
Center
100
AcDbLine
 10
302.7801349351868
 20
434.6532751388741
 30
0.0
 11
302.7801349351868
 21
667.8801039512292
 31
0.0
1001
Sigma
1000

  0
CIRCLE
  5
1A9
330
70
100
AcDbEntity
  8
Line
 62
     4
100
AcDbCircle
 10
210.3802270875041
 20
467.4803038140573
 30
0.0
 40
17.99998204824987
1001
Sigma
1000

  0
CIRCLE
  5
1AA
330
70
100
AcDbEntity
  8
Line
100
AcDbCircle
 10
302.7801349351868
 20
467.4803038140573
 30
0.0
 40
22.99997706165262
1001
Sigma
1000

  0
CIRCLE
  5
1AB
330
70
100
AcDbEntity
  8
Line
 62
     4
370
     9
100
AcDbCircle
 10
302.7801349351868
 20
467.4803038140573
 30
0.0
 40
13.99998603752768
1001
Sigma
1000

  0
CIRCLE
  5
1AC
330
70
100
AcDbEntity
  8
Line
 62
     4
370
     9
100
AcDbCircle
 10
210.3802270875041
 20
467.4803038140573
 30
0.0
 40
9.999990026805486
1001
Sigma
1000

  0
CIRCLE
  5
1AD
330
70
100
AcDbEntity
  8
Line
100
AcDbCircle
 10
302.7801349351868
 20
467.4803038140573
 30
0.0
 40
11.6799883513088
1001
Sigma
1000

  0
CIRCLE
  5
1AE
330
70
100
AcDbEntity
  8
Line
 62
     4
100
AcDbCircle
 10
210.3802270875041
 20
467.4803038140573
 30
0.0
 40
7.679992340586612
1001
Sigma
1000

  0
LINE
  5
1AF
330
70
100
AcDbEntity
  8
Center
100
AcDbLine
 10
384.4143216475434
 20
596.729904450138
 30
0.0
 11
337.3337575955523
 21
563.7637385977891
 31
0.0
1001
Sigma
1000

  0
LINE
  5
1B0
330
70
100
AcDbEntity
  8
Center
100
AcDbLine
 10
299.56996993985
 20
363.621963965051
 30
0.0
 11
285.595848510127
 21
415.7740951318763
 31
0.0
1001
Sigma
1000

  0
LINE
  5
1B1
330
70
100
AcDbEntity
  8
Center
100
AcDbLine
 10
136.3460327956198
 20
423.0306186052771
 30
0.0
 11
182.2829286131143
 21
455.1959793386251
 31
0.0
1001
Sigma
1000

  0
ARC
  5
1B2
330
70
100
AcDbEntity
  8
Line
100
AcDbCircle
 10
364.7610057160972
 20
578.7396214770748
 30
0.0
 40
7.999992021444388
100
AcDbArc
 50
9.3410937267509
 51
60.65890627325906
1001
Sigma
1000

  0
LINE
  5
1B3
330
70
100
AcDbEntity
  8
Line
100
AcDbLine
 10
368.6810641431427
 20
585.7133589450139
 30
0.0
 11
362.7740806381981
 21
581.5772445667253
 31
0.0
1001
Sigma
1000

  0
LINE
  5
1B4
330
70
100
AcDbEntity
  8
Line
100
AcDbLine
 10
373.301140612746
 20
580.490605301933
 30
0.0
 11
365.35344030085
 21
591.8410976605148
 31
0.0
1001
Sigma
1000

  0
LINE
  5
1B5
330
70
100
AcDbEntity
  8
Line
100
AcDbLine
 10
358.8002304822002
 20
587.2524907460163
 30
0.0
 11
365.35344030085
 21
591.8410976605148
 31
0.0
1001
Sigma
1000

  0
LINE
  5
1B6
330
70
100
AcDbEntity
  8
Line
100
AcDbLine
 10
366.7479307940962
 20
575.9019983874343
 30
0.0
 11
358.8002304822002
 21
587.2524907460163
 31
0.0
1001
Sigma
1000

  0
LINE
  5
1B7
330
70
100
AcDbEntity
  8
Line
100
AcDbLine
 10
373.301140612746
 20
580.490605301933
 30
0.0
 11
366.7479307940962
 21
575.9019983874343
 31
0.0
1001
Sigma
1000

  0
ARC
  5
1B8
330
70
100
AcDbEntity
  8
Line
100
AcDbCircle
 10
360.7871555601992
 20
584.4148676563658
 30
0.0
 40
7.999992021444388
100
AcDbArc
 50
9.3410937267509
 51
60.65890627325906
1001
Sigma
1000

  0
ARC
  5
1B9
330
70
100
AcDbEntity
  8
Line
100
AcDbCircle
 10
224.6817669715859
 20
629.7242948187677
 30
0.0
 40
7.999992021444388
100
AcDbArc
 50
79.34109372674211
 51
130.6589062732532
1001
Sigma
1000

  0
LINE
  5
1BA
330
70
100
AcDbEntity
  8
Line
100
AcDbLine
 10
232.6494023093004
 20
640.1414174563782
 30
0.0
 11
234.7199526050982
 21
632.4140185527611
 31
0.0
1001
Sigma
1000

  0
LINE
  5
1BB
330
70
100
AcDbEntity
  8
Line
100
AcDbLine
 10
234.7199526050982
 20
632.4140185527611
 30
0.0
 11
221.3357050936819
 21
628.8277202407699
 31
0.0
1001
Sigma
1000

  0
LINE
  5
1BC
330
70
100
AcDbEntity
  8
Line
100
AcDbLine
 10
221.3357050936819
 20
628.8277202407699
 30
0.0
 11
219.2651547978841
 21
636.555119144397
 31
0.0
1001
Sigma
1000

  0
LINE
  5
1BD
330
70
100
AcDbEntity
  8
Line
100
AcDbLine
 10
232.6494023093004
 20
640.1414174563782
 30
0.0
 11
219.2651547978841
 21
636.555119144397
 31
0.0
1001
Sigma
1000

  0
LINE
  5
1BE
330
70
100
AcDbEntity
  8
Line
100
AcDbLine
 10
226.1614600343579
 20
637.5862526400063
 30
0.0
 11
228.0278288493902
 21
630.6208693967658
 31
0.0
1001
Sigma
1000

  0
ARC
  5
1BF
330
70
100
AcDbEntity
  8
Line
100
AcDbCircle
 10
231.3738907272941
 20
631.5174439747635
 30
0.0
 40
7.999992021444388
100
AcDbArc
 50
79.34109372674211
 51
130.6589062732532
1001
Sigma
1000

  0
ARC
  5
1C0
330
70
100
AcDbEntity
  8
Line
100
AcDbCircle
 10
296.0785874715772
 20
390.0362282366472
 30
0.0
 40
7.999992021444388
100
AcDbArc
 50
259.3410937267478
 51
310.6589062732652
1001
Sigma
1000

  0
LINE
  5
1C1
330
70
100
AcDbEntity
  8
Line
100
AcDbLine
 10
288.1109521338627
 20
379.6191055990366
 30
0.0
 11
286.0404018379649
 21
387.3465045026637
 31
0.0
1001
Sigma
1000

  0
LINE
  5
1C2
330
70
100
AcDbEntity
  8
Line
100
AcDbLine
 10
286.0404018379649
 20
387.3465045026637
 30
0.0
 11
299.4246493493812
 21
390.9328028146451
 31
0.0
1001
Sigma
1000

  0
LINE
  5
1C3
330
70
100
AcDbEntity
  8
Line
100
AcDbLine
 10
299.4246493493812
 20
390.9328028146451
 30
0.0
 11
301.495199645279
 21
383.205403911028
 31
0.0
1001
Sigma
1000

  0
LINE
  5
1C4
330
70
100
AcDbEntity
  8
Line
100
AcDbLine
 10
288.1109521338627
 20
379.6191055990366
 30
0.0
 11
301.495199645279
 21
383.205403911028
 31
0.0
1001
Sigma
1000

  0
LINE
  5
1C5
330
70
100
AcDbEntity
  8
Line
100
AcDbLine
 10
294.5988944087052
 20
382.1742704154086
 30
0.0
 11
292.7325255936731
 21
389.1396536586494
 31
0.0
1001
Sigma
1000

  0
ARC
  5
1C6
330
70
100
AcDbEntity
  8
Line
100
AcDbCircle
 10
289.386463715869
 20
388.2430790806516
 30
0.0
 40
7.999992021444388
100
AcDbArc
 50
259.3410937267478
 51
310.6589062732652
1001
Sigma
1000

  0
ARC
  5
1C7
330
70
100
AcDbEntity
  8
Line
100
AcDbCircle
 10
155.999348726966
 20
441.0209015783401
 30
0.0
 40
7.999992021444388
100
AcDbArc
 50
189.3410937267509
 51
240.6589062732657
1001
Sigma
1000

  0
LINE
  5
1C8
330
70
100
AcDbEntity
  8
Line
100
AcDbLine
 10
152.0792902999204
 20
434.0471641104011
 30
0.0
 11
157.986273804965
 21
438.1832784886996
 31
0.0
1001
Sigma
1000

  0
LINE
  5
1C9
330
70
100
AcDbEntity
  8
Line
100
AcDbLine
 10
147.4592138304171
 20
439.269917753492
 30
0.0
 11
155.4069141422131
 21
427.9194253949101
 31
0.0
1001
Sigma
1000

  0
LINE
  5
1CA
330
70
100
AcDbEntity
  8
Line
100
AcDbLine
 10
161.960123960863
 20
432.5080323094086
 30
0.0
 11
155.4069141422131
 21
427.9194253949101
 31
0.0
1001
Sigma
1000

  0
LINE
  5
1CB
330
70
100
AcDbEntity
  8
Line
100
AcDbLine
 10
154.012423649067
 20
443.8585246679906
 30
0.0
 11
161.960123960863
 21
432.5080323094086
 31
0.0
1001
Sigma
1000

  0
LINE
  5
1CC
330
70
100
AcDbEntity
  8
Line
100
AcDbLine
 10
147.4592138304171
 20
439.269917753492
 30
0.0
 11
154.012423649067
 21
443.8585246679906
 31
0.0
1001
Sigma
1000

  0
ARC
  5
1CD
330
70
100
AcDbEntity
  8
Line
100
AcDbCircle
 10
159.9731988829639
 20
435.3456553990492
 30
0.0
 40
7.999992021444388
100
AcDbArc
 50
189.3410937267509
 51
240.6589062732657
1001
Sigma
1000

  0
LINE
  5
1CE
330
70
100
AcDbEntity
  8
Hidden
 62
     3
100
AcDbLine
 10
209.5381475429273
 20
624.0733298459506
 30
0.0
 11
210.839703502659
 21
621.1499872970099
 31
0.0
1001
Sigma
1000

  0
LINE
  5
1CF
330
70
100
AcDbEntity
  8
Hidden
 62
     3
100
AcDbLine
 10
369.8531828811647
 20
563.273813956141
 30
0.0
 11
372.7293209608334
 21
564.6766002268334
 31
0.0
1001
Sigma
1000

  0
LINE
  5
1D0
330
70
100
AcDbEntity
  8
Hidden
 62
     3
100
AcDbLine
 10
309.9206509405042
 20
398.610535758415
 30
0.0
 11
311.2222069002358
 21
395.6871932094643
 31
0.0
1001
Sigma
1000

  0
LINE
  5
1D1
330
70
100
AcDbEntity
  8
Hidden
 62
     3
100
AcDbLine
 10
148.0310334822297
 20
455.0839228285814
 30
0.0
 11
150.9071715619984
 21
456.4867090992841
 31
0.0
1001
Sigma
1000

  0
ARC
  5
1D2
330
70
100
AcDbEntity
  8
Hidden
 62
     3
100
AcDbCircle
 10
260.3801772215315
 20
509.8802615277125
 30
0.0
 40
121.7998785264908
100
AcDbArc
 50
26.00000000000417
 51
113.999999999998
1001
Sigma
1000

  0
ARC
  5
1D3
330
70
100
AcDbEntity
  8
Hidden
 62
     3
100
AcDbCircle
 10
260.3801772215315
 20
509.8802615277125
 30
0.0
 40
121.7998785264908
100
AcDbArc
 50
206.0000000000041
 51
293.999999999998
1001
Sigma
1000

  0
LINE
  5
1D4
330
70
100
AcDbEntity
  8
Hidden
 62
     3
100
AcDbLine
 10
291.9301457561029
 20
646.6301251442776
 30
0.0
 11
291.9301457561029
 21
487.7602613990709
 31
0.0
1001
Sigma
1000

  0
LINE
  5
1D5
330
70
100
AcDbEntity
  8
Hidden
 62
     3
100
AcDbLine
 10
313.6301241142708
 20
646.6301251442776
 30
0.0
 11
313.6301241142708
 21
487.7602613990709
 31
0.0
1001
Sigma
1000

  0
CIRCLE
  5
1D6
330
70
100
AcDbEntity
  8
Hidden
 62
     3
100
AcDbCircle
 10
260.3801772215315
 20
509.8802615277125
 30
0.0
 40
157.4498429720523
1001
Sigma
1000

  0
ARC
  5
1D7
330
70
100
AcDbEntity
  8
Hidden
 62
     3
100
AcDbCircle
 10
302.7801349351868
 20
646.6301251442776
 30
0.0
 40
10.84998917908395
100
AcDbArc
 50
0.0
 51
180.0
1001
Sigma
1000

  0
LINE
  5
1D8
330
70
100
AcDbEntity
  8
Phantom
100
AcDbLine
 10
362.3702995070972
 20
551.0869457071939
 30
0.0
 11
397.6032508420546
 21
565.3219820601012
 31
0.0
1001
Sigma
1000

  0
LINE
  5
1D9
330
70
100
AcDbEntity
  8
Phantom
100
AcDbLine
 10
312.0219976245881
 20
412.7561231771115
 30
0.0
 11
329.8618992182897
 21
379.2041481105523
 31
0.0
1001
Sigma
1000

  0
ARC
  5
1DA
330
70
100
AcDbEntity
  8
Phantom
100
AcDbCircle
 10
260.3801772215315
 20
509.8802615277125
 30
0.0
 40
109.9998902948603
100
AcDbArc
 50
297.9999999999993
 51
22.00000000000043
1001
Sigma
1000

  0
ARC
  5
1DB
330
70
100
AcDbEntity
  8
Phantom
100
AcDbCircle
 10
260.3801772215315
 20
509.8802615277125
 30
0.0
 40
147.9998523967211
100
AcDbArc
 50
297.9999999999993
 51
22.00000000000043
1001
Sigma
1000

  0
LINE
  5
1DC
330
70
100
AcDbEntity
  8
Center
100
AcDbLine
 10
354.4995492070575
 20
475.6236116571698
 30
0.0
 11
431.7315785259755
 21
447.5134518531269
 31
0.0
1001
Sigma
1000

  0
LINE
  5
1DD
330
70
100
AcDbEntity
  8
Center
100
AcDbLine
 10
310.3801273555589
 20
544.147868923497
 30
0.0
 11
207.7266279573928
 21
544.147868923497
 31
0.0
1001
Sigma
1000

  0
CIRCLE
  5
1DE
330
70
100
AcDbEntity
  8
Line
100
AcDbCircle
 10
260.3801772215315
 20
544.147868923497
 30
0.0
 40
40.99995910990249
1001
Sigma
1000

  0
CIRCLE
  5
1DF
330
70
100
AcDbEntity
  8
Line
100
AcDbCircle
 10
260.3801772215315
 20
544.147868923497
 30
0.0
 40
25.49997456835399
1001
Sigma
1000

  0
CIRCLE
  5
1E0
330
70
100
AcDbEntity
  8
Line
100
AcDbCircle
 10
260.3801772215315
 20
544.147868923497
 30
0.0
 40
20.89997915602346
1001
Sigma
1000

  0
LINE
  5
1E1
330
70
100
AcDbEntity
  8
0
  6
Continuous
 62
     3
100
AcDbLine
 10
301.380136331434
 20
544.147868923497
 30
0.0
 11
301.380136331434
 21
537.2270526627786
 31
0.0
1001
Sigma
1000

  0
LINE
  5
1E2
330
70
100
AcDbEntity
  8
0
  6
Continuous
 62
     3
100
AcDbLine
 10
219.3802181116291
 20
544.147868923497
 30
0.0
 11
219.3802181116291
 21
537.2270526627786
 31
0.0
1001
Sigma
1000

  0
ARC
  5
1E3
330
70
100
AcDbEntity
  8
Line
100
AcDbCircle
 10
260.3801772215315
 20
537.2270526627786
 30
0.0
 40
40.99995910990249
100
AcDbArc
 50
180.0
 51
0.0
1001
Sigma
1000

  0
ARC
  5
1E4
330
70
100
AcDbEntity
  8
Line
100
AcDbCircle
 10
260.3801772215315
 20
537.0303522816218
 30
0.0
 40
20.28442212200108
100
AcDbArc
 50
5.028190252946675
 51
174.9718097470484
1001
Sigma
1000

  0
CIRCLE
  5
1E5
330
70
100
AcDbEntity
  8
Line
 62
     4
370
     9
100
AcDbCircle
 10
227.8802096344137
 20
544.147868923497
 30
0.0
 40
3.999996010722194
1001
Sigma
1000

  0
CIRCLE
  5
1E6
330
70
100
AcDbEntity
  8
Line
 62
     4
370
     9
100
AcDbCircle
 10
260.3801772215315
 20
576.6478365106149
 30
0.0
 40
3.999996010722194
1001
Sigma
1000

  0
CIRCLE
  5
1E7
330
70
100
AcDbEntity
  8
Line
 62
     4
370
     9
100
AcDbCircle
 10
292.8801448086494
 20
544.147868923497
 30
0.0
 40
3.999996010722194
1001
Sigma
1000

  0
CIRCLE
  5
1E8
330
70
100
AcDbEntity
  8
Line
 62
     4
370
     9
100
AcDbCircle
 10
260.3801772215315
 20
511.6479013363792
 30
0.0
 40
3.999996010722194
1001
Sigma
1000

  0
CIRCLE
  5
1E9
330
70
100
AcDbEntity
  8
Line
100
AcDbCircle
 10
260.3801772215315
 20
576.6478365106149
 30
0.0
 40
3.323496685408803
1001
Sigma
1000

  0
CIRCLE
  5
1EA
330
70
100
AcDbEntity
  8
Line
100
AcDbCircle
 10
227.8802096344137
 20
544.147868923497
 30
0.0
 40
3.323496685408803
1001
Sigma
1000

  0
CIRCLE
  5
1EB
330
70
100
AcDbEntity
  8
Line
100
AcDbCircle
 10
260.3801772215315
 20
511.6479013363792
 30
0.0
 40
3.323496685408803
1001
Sigma
1000

  0
CIRCLE
  5
1EC
330
70
100
AcDbEntity
  8
Line
100
AcDbCircle
 10
292.8801448086494
 20
544.147868923497
 30
0.0
 40
3.323496685408803
1001
Sigma
1000

  0
ARC
  5
1ED
330
70
100
AcDbEntity
  8
Hidden
 62
     4
100
AcDbCircle
 10
260.3801772215315
 20
361.7304092805893
 30
0.0
 40
8.649991373186745
100
AcDbArc
 50
205.3054043257102
 51
25.30540432571021
1001
Sigma
1000

  0
LINE
  5
1EE
330
70
100
AcDbEntity
  8
Center
100
AcDbLine
 10
210.3802270875041
 20
467.4803038140573
 30
0.0
 11
267.2639932171611
 21
347.1711384498096
 31
0.0
1001
Sigma
1000

  0
LINE
  5
1EF
330
70
100
AcDbEntity
  8
Hidden
 62
     4
100
AcDbLine
 10
268.200134762628
 20
365.4277887326241
 30
0.0
 11
224.9475204815446
 21
456.9070679370816
 31
0.0
1001
Sigma
1000

  0
LINE
  5
1F0
330
70
100
AcDbEntity
  8
Hidden
 62
     4
100
AcDbLine
 10
252.5602196804351
 20
358.0330298285544
 30
0.0
 11
209.3076053994517
 21
449.5123090330158
 31
0.0
1001
Sigma
1000

  0
LINE
  5
1F3
330
70
100
AcDbEntity
  8
Center
100
AcDbLine
 10
451.8689224014099
 20
509.8802615277125
 30
0.0
 11
71.52790655136239
 21
509.8802615277125
 31
0.0
1001
Sigma
1000

  0
LINE
  5
1F6
330
70
100
AcDbEntity
  8
0
  6
Continuous
 62
     4
370
     9
390
85
100
AcDbLine
 10
630.0
 20
36.74999999999992
 30
0.0
 11
630.0
 21
6.749999999999914
 31
0.0
  0
LINE
  5
1F7
330
70
100
AcDbEntity
  8
0
  6
Continuous
 62
     4
370
    40
390
85
100
AcDbLine
 10
52.5
 20
854.25
 30
0.0
 11
1207.5
 21
854.25
 31
0.0
  0
LINE
  5
1F8
330
70
100
AcDbEntity
  8
0
  6
Continuous
 62
     4
370
    40
390
85
100
AcDbLine
 10
52.5
 20
36.74999999999992
 30
0.0
 11
52.5
 21
854.25
 31
0.0
  0
LINE
  5
1F9
330
70
100
AcDbEntity
  8
0
  6
Continuous
 62
     4
370
    40
390
85
100
AcDbLine
 10
52.5
 20
36.74999999999992
 30
0.0
 11
1207.5
 21
36.74999999999992
 31
0.0
  0
LINE
  5
1FA
330
70
100
AcDbEntity
  8
0
  6
Continuous
 62
     4
370
    40
390
85
100
AcDbLine
 10
1207.5
 20
36.74999999999992
 30
0.0
 11
1207.5
 21
854.25
 31
0.0
  0
TEXT
  5
1FB
330
70
100
AcDbEntity
  8
0
 62
     7
370
    30
390
85
100
AcDbText
 10
915.8146430725404
 20
15.61587299999992
 30
0.0
 40
12.0
  1
中国工業株式会社
 41
1.258928571428571
 72
     5
 11
1056.81464307254
 21
15.61587299999992
 31
0.0
100
AcDbText
1001
AcDbBlockRepETag
1070
     1
1071
       26
1005
1FB
  0
TEXT
  5
1FC
330
70
100
AcDbEntity
  8
0
 62
     7
370
    30
390
85
100
AcDbText
 10
916.1146430725404
 20
15.61587299999992
 30
0.0
 40
12.0
  1
中国工業株式会社
 41
1.25892857142857
 72
     5
 11
1057.11464307254
 21
15.61587299999992
 31
0.0
100
AcDbText
1001
AcDbBlockRepETag
1070
     1
1071
       27
1005
1FC
  0
TEXT
  5
1FD
330
70
100
AcDbEntity
  8
0
 62
     7
370
    30
390
85
100
AcDbText
 10
916.41464307254
 20
15.61587299999992
 30
0.0
 40
12.0
  1
中国工業株式会社
 41
1.258928571428574
 72
     5
 11
1057.41464307254
 21
15.61587299999992
 31
0.0
100
AcDbText
1001
AcDbBlockRepETag
1070
     1
1071
       28
1005
1FD
  0
LINE
  5
1FE
330
70
100
AcDbEntity
  8
0
 62
     7
390
85
100
AcDbLine
 10
885.7540550725401
 20
25.34999999999991
 30
0.0
 11
889.0381100725402
 21
25.34999999999991
 31
0.0
1001
AcDbBlockRepETag
1070
     1
1071
       29
1005
1FE
  0
LINE
  5
1FF
330
70
100
AcDbEntity
  8
0
 62
     7
390
85
100
AcDbLine
 10
889.0381100725402
 20
18.14999999999991
 30
0.0
 11
885.7540550725401
 21
18.14999999999991
 31
0.0
1001
AcDbBlockRepETag
1070
     1
1071
       30
1005
1FF
  0
LINE
  5
200
330
70
100
AcDbEntity
  8
0
 62
     7
390
85
100
AcDbLine
 10
902.1971360725402
 20
18.14999999999991
 30
0.0
 11
905.4811940725404
 21
18.14999999999991
 31
0.0
1001
AcDbBlockRepETag
1070
     1
1071
       31
1005
200
  0
LINE
  5
201
330
70
100
AcDbEntity
  8
0
 62
     7
390
85
100
AcDbLine
 10
905.4811940725404
 20
25.34999999999991
 30
0.0
 11
902.1971360725402
 21
25.34999999999991
 31
0.0
1001
AcDbBlockRepETag
1070
     1
1071
       32
1005
201
  0
ARC
  5
202
330
70
100
AcDbEntity
  8
0
 62
     7
390
85
100
AcDbCircle
 10
895.6176237393725
 20
21.74999904548508
 30
0.0
 40
10.49999904632406
100
AcDbArc
 50
200.0510389212319
 51
339.9489606452732
1001
AcDbBlockRepETag
1070
     1
1071
       33
1005
202
  0
ARC
  5
203
330
70
100
AcDbEntity
  8
0
 62
     7
390
85
100
AcDbCircle
 10
895.6176230725402
 20
21.74999999999991
 30
0.0
 40
7.5
100
AcDbArc
 50
208.6854020000004
 51
331.3145979999994
1001
AcDbBlockRepETag
1070
     1
1071
       36
1005
203
  0
TEXT
  5
204
330
70
100
AcDbEntity
  8
0
 62
     7
370
    30
390
85
100
AcDbText
 10
883.4185060902818
 20
18.91587299999991
 30
0.0
 40
5.4
  1
ＣＫＫ
 41
1.475694444444444
 72
     5
 11
908.9185060902819
 21
18.91587299999991
 31
0.0
100
AcDbText
1001
AcDbBlockRepETag
1070
     1
1071
       38
1005
204
  0
TEXT
  5
205
330
70
100
AcDbEntity
  8
0
 62
     7
370
    30
390
85
100
AcDbText
 10
882.968506090282
 20
18.91587299999991
 30
0.0
 40
5.4
  1
ＣＫＫ
 41
1.475694444444444
 72
     5
 11
908.4685060902819
 21
18.91587299999991
 31
0.0
100
AcDbText
1001
AcDbBlockRepETag
1070
     1
1071
       39
1005
205
  0
TEXT
  5
206
330
70
100
AcDbEntity
  8
0
 62
     7
370
    30
390
85
100
AcDbText
 10
882.5185060902819
 20
18.91587299999991
 30
0.0
 40
5.4
  1
ＣＫＫ
 41
1.475694444444444
 72
     5
 11
908.018506090282
 21
18.91587299999991
 31
0.0
100
AcDbText
1001
AcDbBlockRepETag
1070
     1
1071
       40
1005
206
  0
TEXT
  5
207
330
70
100
AcDbEntity
  8
0
 62
     7
370
    30
390
85
100
AcDbText
 10
882.0685060902821
 20
18.91587299999991
 30
0.0
 40
5.4
  1
ＣＫＫ
 41
1.475694444444444
 72
     5
 11
907.568506090282
 21
18.91587299999991
 31
0.0
100
AcDbText
1001
AcDbBlockRepETag
1070
     1
1071
       41
1005
207
  0
ARC
  5
208
330
70
100
AcDbEntity
  8
0
 62
     7
390
85
100
AcDbCircle
 10
895.6176230725402
 20
21.74999999999991
 30
0.0
 40
10.5
100
AcDbArc
 50
20.05104300000026
 51
159.9489569999996
1001
AcDbBlockRepETag
1070
     1
1071
       42
1005
208
  0
ARC
  5
209
330
70
100
AcDbEntity
  8
0
 62
     7
390
85
100
AcDbCircle
 10
895.6176230725402
 20
21.74999999999991
 30
0.0
 40
7.5
100
AcDbArc
 50
28.68540200000055
 51
151.3145979999994
1001
AcDbBlockRepETag
1070
     1
1071
       43
1005
209
  0
TEXT
  5
20A
330
70
100
AcDbEntity
  8
0
 62
     7
370
    30
390
85
100
AcDbText
 10
916.7146430725402
 20
15.61587299999992
 30
0.0
 40
12.0
  1
中国工業株式会社
 41
1.258928571428571
 72
     5
 11
1057.71464307254
 21
15.61587299999992
 31
0.0
100
AcDbText
1001
AcDbBlockRepETag
1070
     1
1071
       45
1005
20A
  0
TEXT
  5
20B
330
70
100
AcDbEntity
  8
0
 62
     7
370
    30
390
85
100
AcDbText
 10
917.0146430725402
 20
15.61587299999992
 30
0.0
 40
12.0
  1
中国工業株式会社
 41
1.258928571428572
 72
     5
 11
1058.01464307254
 21
15.61587299999992
 31
0.0
100
AcDbText
1001
AcDbBlockRepETag
1070
     1
1071
       46
1005
20B
  0
TEXT
  5
20C
330
70
100
AcDbEntity
  8
0
 62
     7
370
    30
390
85
100
AcDbText
 10
917.3146430725402
 20
15.61587299999992
 30
0.0
 40
12.0
  1
中国工業株式会社
 41
1.258928571428571
 72
     5
 11
1058.31464307254
 21
15.61587299999992
 31
0.0
100
AcDbText
1001
AcDbBlockRepETag
1070
     1
1071
       47
1005
20C
  0
TEXT
  5
20D
330
70
100
AcDbEntity
  8
0
 62
     7
370
    30
390
85
100
AcDbText
 10
917.6146430725404
 20
15.61587299999992
 30
0.0
 40
12.0
  1
中国工業株式会社
 41
1.25892857142857
 72
     5
 11
1058.61464307254
 21
15.61587299999992
 31
0.0
100
AcDbText
1001
AcDbBlockRepETag
1070
     1
1071
       48
1005
20D
  0
TEXT
  5
20E
330
70
100
AcDbEntity
  8
0
 62
     7
370
    30
390
85
100
AcDbText
 10
917.9146430725401
 20
15.61587299999992
 30
0.0
 40
12.0
  1
中国工業株式会社
 41
1.258928571428574
 72
     5
 11
1058.91464307254
 21
15.61587299999992
 31
0.0
100
AcDbText
1001
AcDbBlockRepETag
1070
     1
1071
       49
1005
20E
  0
TEXT
  5
20F
330
70
100
AcDbEntity
  8
0
 62
     7
370
    30
390
85
100
AcDbText
 10
918.2146430725401
 20
15.61587299999992
 30
0.0
 40
12.0
  1
中国工業株式会社
 41
1.258928571428571
 72
     5
 11
1059.21464307254
 21
15.61587299999992
 31
0.0
100
AcDbText
1001
AcDbBlockRepETag
1070
     1
1071
       50
1005
20F
  0
TEXT
  5
210
330
70
100
AcDbEntity
  8
0
 62
     7
370
    30
390
85
100
AcDbText
 10
915.5146430725402
 20
15.61587299999992
 30
0.0
 40
12.0
  1
中国工業株式会社
 41
1.258928571428572
 72
     5
 11
1056.51464307254
 21
15.61587299999992
 31
0.0
100
AcDbText
1001
AcDbBlockRepETag
1070
     1
1071
       51
1005
210
  0
HATCH
  5
211
330
70
100
AcDbEntity
  8
0
 62
     7
390
85
100
AcDbHatch
 10
0.0
 20
0.0
 30
0.0
210
0.0
220
0.0
230
1.0
  2
SOLID
 70
     1
 71
     0
 91
        1
 92
        1
 93
        4
 72
     2
 10
895.6176230725402
 20
21.74999999999991
 40
7.5
 50
28.68540200000055
 51
151.3145979999994
 73
     1
 72
     1
 10
889.0381100725402
 20
25.34999999999991
 11
885.7540550725401
 21
25.34999999999991
 72
     2
 10
895.6176230725402
 20
21.74999999999991
 40
10.5
 50
200.0510430000003
 51
339.9489569999997
 73
     0
 72
     1
 10
905.4811940725404
 20
25.34999999999991
 11
902.1971360725402
 21
25.34999999999991
 97
        0
 75
     0
 76
     1
 98
        1
 10
657.7661330725402
 20
-3.750000000000085
450
        0
451
        0
460
0.0
461
0.0
452
        0
462
0.0
453
        0
470

1001
ACAD
1010
0.0
1020
0.0
1030
0.0
1001
AcDbBlockRepETag
1070
     1
1071
      139
1005
211
  0
HATCH
  5
212
330
70
100
AcDbEntity
  8
0
 62
     7
390
85
100
AcDbHatch
 10
0.0
 20
0.0
 30
0.0
210
0.0
220
0.0
230
1.0
  2
SOLID
 70
     1
 71
     0
 91
        1
 92
        1
 93
        4
 72
     2
 10
895.6176230725402
 20
21.74999999999991
 40
7.5
 50
208.6854020000005
 51
331.3145979999994
 73
     1
 72
     1
 10
902.1971360725402
 20
18.14999999999991
 11
905.4811940725404
 21
18.14999999999991
 72
     2
 10
895.6176237393725
 20
21.74999904548508
 40
10.49999904632406
 50
20.05103935472679
 51
159.948961078768
 73
     0
 72
     1
 10
885.7540550725401
 20
18.14999999999991
 11
889.0381100725402
 21
18.14999999999991
 97
        0
 75
     0
 76
     1
 98
        1
 10
657.7661330725402
 20
-3.750000000000085
450
        0
451
        0
460
0.0
461
0.0
452
        0
462
0.0
453
        0
470

1001
ACAD
1010
0.0
1020
0.0
1030
0.0
1001
AcDbBlockRepETag
1070
     1
1071
      140
1005
212
  0
LINE
  5
213
330
70
100
AcDbEntity
  8
Line
 62
     7
370
     9
100
AcDbLine
 10
70.5
 20
75.74999999999985
 30
0.0
 11
320.5819672500001
 21
75.74999999999985
 31
0.0
  0
LINE
  5
214
330
70
100
AcDbEntity
  8
Line
 62
     7
370
     9
100
AcDbLine
 10
70.5
 20
96.74999999999986
 30
0.0
 11
320.5819672500001
 21
96.74999999999986
 31
0.0
  0
LINE
  5
215
330
70
100
AcDbEntity
  8
Line
 62
     7
370
     9
100
AcDbLine
 10
70.5
 20
117.7499999999998
 30
0.0
 11
320.5819672500001
 21
117.7499999999998
 31
0.0
  0
LINE
  5
216
330
70
100
AcDbEntity
  8
Line
 62
     7
370
     9
100
AcDbLine
 10
70.50000000000034
 20
138.749999999999
 30
0.0
 11
320.5819672500004
 21
138.749999999999
 31
0.0
  0
LINE
  5
217
330
70
100
AcDbEntity
  8
Line
 62
     7
370
     9
100
AcDbLine
 10
70.50000000000034
 20
159.7499999999994
 30
0.0
 11
320.5819672500004
 21
159.7499999999994
 31
0.0
  0
LINE
  5
218
330
70
100
AcDbEntity
  8
Line
 62
     7
370
     9
100
AcDbLine
 10
136.1557372500004
 20
182.447271749999
 30
0.0
 11
254.9262292500005
 21
182.447271749999
 31
0.0
  0
LINE
  5
219
330
70
100
AcDbEntity
  8
Line
 62
     7
370
     9
100
AcDbLine
 10
136.1557372500004
 20
185.447271749999
 30
0.0
 11
254.9262292500005
 21
185.447271749999
 31
0.0
  0
LINE
  5
22E
330
70
100
AcDbEntity
  8
Line
 62
     7
370
     9
100
AcDbLine
 10
70.5
 20
54.74999999999991
 30
0.0
 11
320.5819672500001
 21
54.74999999999991
 31
0.0
  0
LINE
  5
232
330
70
100
AcDbEntity
  8
0
  6
Continuous
 62
     4
370
    40
390
85
100
AcDbLine
 10
895.5
 20
84.74999999999992
 30
0.0
 11
1207.5
 21
84.74999999999992
 31
0.0
  0
LINE
  5
233
330
70
100
AcDbEntity
  8
0
  6
Continuous
 62
     4
370
    40
390
85
100
AcDbLine
 10
895.5
 20
36.74999999999992
 30
0.0
 11
895.5
 21
84.74999999999992
 31
0.0
  0
TEXT
  5
234
330
70
100
AcDbEntity
  8
0
 62
     4
370
    30
390
85
100
AcDbText
 10
899.6999999999999
 20
67.94999999999991
 30
0.0
 40
9.600000000000001
  1
名
 41
1.08372288357531
 72
     5
 11
908.7165743913464
 21
67.94999999999991
 31
0.0
100
AcDbText
1001
AcDbBlockRepETag
1070
     1
1071
       22
1005
234
  0
TEXT
  5
235
330
70
100
AcDbEntity
  8
0
 62
     4
370
    30
390
85
100
AcDbText
 10
899.6999999999999
 20
43.94999999999991
 30
0.0
 40
9.600000000000001
  1
称
 41
1.071428571428586
 72
     5
 11
909.3000000000001
 21
43.94999999999991
 31
0.0
100
AcDbText
1001
AcDbBlockRepETag
1070
     1
1071
       23
1005
235
  0
LINE
  5
237
330
70
100
AcDbEntity
  8
0
  6
Continuous
 62
     4
370
     9
390
85
100
AcDbLine
 10
913.4999999999999
 20
36.74999999999992
 30
0.0
 11
913.4999999999999
 21
84.74999999999992
 31
0.0
  0
TEXT
  5
238
330
70
100
AcDbEntity
  8
Text
100
AcDbText
 10
1144.5
 20
18.74999999999992
 30
0.0
 40
12.0
  1
2022年6月
 72
     2
 11
1204.5
 21
18.74999999999992
 31
0.0
100
AcDbText
  0
LINE
  5
2B7
330
70
100
AcDbEntity
  8
0
  6
Continuous
 62
     4
370
     9
390
85
100
AcDbLine
 10
629.9999999999998
 20
854.25
 30
0.0
 11
629.9999999999998
 21
884.2499999999999
 31
0.0
  0
LINE
  5
2D9
330
70
100
AcDbEntity
  8
0
  6
Continuous
 62
     4
370
     9
390
85
100
AcDbLine
 10
1207.5
 20
445.5
 30
0.0
 11
1237.5
 21
445.5
 31
0.0
  0
LINE
  5
2DA
330
70
100
AcDbEntity
  8
0
  6
Continuous
 62
     4
370
     9
390
85
100
AcDbLine
 10
52.5
 20
445.5
 30
0.0
 11
22.5
 21
445.5
 31
0.0
  0
TEXT
  5
2EC
330
70
100
AcDbEntity
  8
Text
100
AcDbText
 10
72.23429164737247
 20
335.1882215513314
 30
0.0
 40
12.0
  1
(E.F.V付)
100
AcDbText
  0
TEXT
  5
6EA
330
70
100
AcDbEntity
  8
Text
 62
     7
100
AcDbText
 10
73.50000000000034
 20
78.74999999999985
 30
0.0
 40
12.0
  1
充填ガス
100
AcDbText
1001
ACAD
1000
ACAD_MTEXT_DEFINED_HEIGHT_BEGIN
1070
    46
1040
3.999999999999997
1000
ACAD_MTEXT_DEFINED_HEIGHT_END
  0
TEXT
  5
6EB
330
70
100
AcDbEntity
  8
Text
 62
     7
100
AcDbText
 10
71.50000000000034
 20
99.74999999999987
 30
0.0
 40
12.0
  1
計算刻印質量
100
AcDbText
1001
ACAD
1000
ACAD_MTEXT_DEFINED_HEIGHT_BEGIN
1070
    46
1040
0.0
1000
ACAD_MTEXT_DEFINED_HEIGHT_END
  0
TEXT
  5
6EC
330
70
100
AcDbEntity
  8
Text
 62
     7
100
AcDbText
 10
70.70000000000034
 20
120.7499999999998
 30
0.0
 40
12.0
  1
内容積
100
AcDbText
1001
ACAD
1000
ACAD_MTEXT_DEFINED_HEIGHT_BEGIN
1070
    46
1040
0.0
1000
ACAD_MTEXT_DEFINED_HEIGHT_END
  0
TEXT
  5
6ED
330
70
100
AcDbEntity
  8
Text
 62
     7
100
AcDbText
 10
71.50000000000068
 20
141.7499999999992
 30
0.0
 40
12.0
  1
耐圧試験圧力
100
AcDbText
1001
ACAD
1000
ACAD_MTEXT_DEFINED_HEIGHT_BEGIN
1070
    46
1040
3.644643982134057
1000
ACAD_MTEXT_DEFINED_HEIGHT_END
  0
TEXT
  5
6EE
330
70
100
AcDbEntity
  8
Text
 62
     7
100
AcDbText
 10
73.50000000000068
 20
162.7499999999995
 30
0.0
 40
12.0
  1
最高充填圧力
100
AcDbText
1001
ACAD
1000
ACAD_MTEXT_DEFINED_HEIGHT_BEGIN
1070
    46
1040
0.0
1000
ACAD_MTEXT_DEFINED_HEIGHT_END
  0
TEXT
  5
6EF
330
70
100
AcDbEntity
  8
Text
 62
     7
100
AcDbText
 10
154.7409832500005
 20
188.447271749999
 30
0.0
 40
12.0
  1
要　　　　目
100
AcDbText
1001
ACAD
1000
ACAD_MTEXT_DEFINED_HEIGHT_BEGIN
1070
    46
1040
0.0
1000
ACAD_MTEXT_DEFINED_HEIGHT_END
  0
TEXT
  5
6F0
330
70
100
AcDbEntity
  8
Text
 62
     7
100
AcDbText
 10
266.6406454462684
 20
141.749999999999
 30
0.0
 40
12.0
  1
MPa
100
AcDbText
  0
TEXT
  5
6F1
330
70
100
AcDbEntity
  8
Text
 62
     7
100
AcDbText
 10
266.6406454462684
 20
162.7499999999993
 30
0.0
 40
12.0
  1
MPa
100
AcDbText
  0
TEXT
  5
6F2
330
70
100
AcDbEntity
  8
Text
 62
     7
100
AcDbText
 10
266.640645446268
 20
99.74999999999978
 30
0.0
 40
12.0
  1
kg
100
AcDbText
1001
ACAD
1000
ACAD_MTEXT_DEFINED_HEIGHT_BEGIN
1070
    46
1040
0.0
1000
ACAD_MTEXT_DEFINED_HEIGHT_END
  0
TEXT
  5
6F3
330
70
100
AcDbEntity
  8
Text
 62
     7
100
AcDbText
 10
266.640645446268
 20
120.7499999999998
 30
0.0
 40
12.0
  1

100
AcDbText
1001
ACAD
1000
ACAD_MTEXT_DEFINED_HEIGHT_BEGIN
1070
    46
1040
0.0
1000
ACAD_MTEXT_DEFINED_HEIGHT_END
  0
TEXT
  5
6F4
330
70
100
AcDbEntity
  8
Text
 62
     7
100
AcDbText
 10
189.6432681769032
 20
162.7499999999993
 30
0.0
 40
12.0
  1
  1.74
100
AcDbText
1001
ACAD
1000
ACAD_MTEXT_DEFINED_HEIGHT_BEGIN
1070
    46
1040
0.0
1000
ACAD_MTEXT_DEFINED_HEIGHT_END
  0
TEXT
  5
6F5
330
70
100
AcDbEntity
  8
Text
 62
     7
100
AcDbText
 10
189.6432681769032
 20
141.749999999999
 30
0.0
 40
12.0
  1
  2.9
100
AcDbText
1001
ACAD
1000
ACAD_MTEXT_DEFINED_HEIGHT_BEGIN
1070
    46
1040
3.999999999999992
1000
ACAD_MTEXT_DEFINED_HEIGHT_END
  0
TEXT
  5
6F6
330
70
100
AcDbEntity
  8
Text
 62
     7
100
AcDbText
 10
189.6432681769028
 20
120.7499999999998
 30
0.0
 40
12.0
  1
 35.5
100
AcDbText
1001
ACAD
1000
ACAD_MTEXT_DEFINED_HEIGHT_BEGIN
1070
    46
1040
0.0
1000
ACAD_MTEXT_DEFINED_HEIGHT_END
  0
TEXT
  5
6F7
330
70
100
AcDbEntity
  8
Text
 62
     7
100
AcDbText
 10
175.0444845922338
 20
99.74999999999969
 30
0.0
 40
12.0
  1
約 15.5
100
AcDbText
1001
ACAD
1000
ACAD_MTEXT_DEFINED_HEIGHT_BEGIN
1070
    46
1040
0.0
1000
ACAD_MTEXT_DEFINED_HEIGHT_END
  0
TEXT
  5
6F8
330
70
100
AcDbEntity
  8
Text
 62
     7
100
AcDbText
 10
234.1661922937657
 20
127.825769672623
 30
0.0
 40
9.0
  1
+1
100
AcDbText
1001
ACAD
1000
ACAD_MTEXT_DEFINED_HEIGHT_BEGIN
1070
    46
1040
0.0
1000
ACAD_MTEXT_DEFINED_HEIGHT_END
  0
TEXT
  5
6F9
330
70
100
AcDbEntity
  8
Text
 62
     7
100
AcDbText
 10
234.1661922937657
 20
117.6955350737104
 30
0.0
 40
9.0
  1
-0
100
AcDbText
1001
ACAD
1000
ACAD_MTEXT_DEFINED_HEIGHT_BEGIN
1070
    46
1040
0.0
1000
ACAD_MTEXT_DEFINED_HEIGHT_END
  0
TEXT
  5
6FA
330
70
100
AcDbEntity
  8
Text
 62
     7
100
AcDbText
 10
173.4417625480829
 20
78.98091426584617
 30
0.0
 40
12.0
  1
ＬＰガス
100
AcDbText
1001
ACAD
1000
ACAD_MTEXT_DEFINED_HEIGHT_BEGIN
1070
    46
1040
4.000000000000028
1000
ACAD_MTEXT_DEFINED_HEIGHT_END
  0
TEXT
  5
6FB
330
70
100
AcDbEntity
  8
Text
 62
     7
100
AcDbText
 10
71.50000000000034
 20
57.74999999999986
 30
0.0
 40
12.0
  1
総質量
100
AcDbText
1001
ACAD
1000
ACAD_MTEXT_DEFINED_HEIGHT_BEGIN
1070
    46
1040
0.0
1000
ACAD_MTEXT_DEFINED_HEIGHT_END
  0
TEXT
  5
6FC
330
70
100
AcDbEntity
  8
Text
 62
     7
100
AcDbText
 10
266.640645446268
 20
57.74999999999977
 30
0.0
 40
12.0
  1
kg
100
AcDbText
1001
ACAD
1000
ACAD_MTEXT_DEFINED_HEIGHT_BEGIN
1070
    46
1040
0.0
1000
ACAD_MTEXT_DEFINED_HEIGHT_END
  0
TEXT
  5
6FD
330
70
100
AcDbEntity
  8
Text
 62
     7
100
AcDbText
 10
175.0444845922338
 20
57.74999999999969
 30
0.0
 40
12.0
  1
約 18
100
AcDbText
1001
ACAD
1000
ACAD_MTEXT_DEFINED_HEIGHT_BEGIN
1070
    46
1040
0.0
1000
ACAD_MTEXT_DEFINED_HEIGHT_END
  0
TEXT
  5
6FE
330
70
100
AcDbEntity
  8
Text
 62
     2
100
AcDbText
 10
977.3000000000001
 20
66.74999999999991
 30
0.0
 40
12.0
  1
１５ｋｇ型 ＬＰガス容器
100
AcDbText
1001
ACAD
1000
ACAD_MTEXT_DEFINED_HEIGHT_BEGIN
1070
    46
1040
8.0
1000
ACAD_MTEXT_DEFINED_HEIGHT_END
  0
LINE
  5
6FF
330
70
100
AcDbEntity
  8
Size
370
     9
100
AcDbLine
 10
1131.693964256273
 20
364.8804063598127
 30
0.0
 11
1189.481660704732
 21
364.8804063598128
 31
0.0
  0
LINE
  5
700
330
70
100
AcDbEntity
  8
Size
370
     9
100
AcDbLine
 10
1131.693964256273
 20
654.8801166956119
 30
0.0
 11
1189.481660704732
 21
654.8801166956119
 31
0.0
  0
LINE
  5
701
330
70
100
AcDbEntity
  8
Size
370
     9
100
AcDbLine
 10
1185.731660704732
 20
364.8834063598128
 30
0.0
 11
1185.731660704732
 21
654.8771166956119
 31
0.0
  0
INSERT
  5
702
330
70
100
AcDbEntity
  8
Size
370
     9
100
AcDbBlockReference
  2
30a
 10
1185.731660704732
 20
364.8804063598128
 30
0.0
 41
0.003
 42
0.003
 43
0.003
 50
270.0
  0
INSERT
  5
703
330
70
100
AcDbEntity
  8
Size
370
     9
100
AcDbBlockReference
  2
30a
 10
1185.731660704732
 20
654.8801166956119
 30
0.0
 41
0.003
 42
0.003
 43
0.003
 50
90.0
  0
MTEXT
  5
704
330
70
100
AcDbEntity
  8
Size
100
AcDbMText
 10
1177.856660704732
 20
509.8802615277119
 30
0.0
 40
12.0
 41
0.0
 71
     5
 72
     1
  1
φ290
 11
0.0000000000000001
 21
1.0
 31
0.0
 73
     1
 44
1.0
  0
LINE
  5
705
330
70
100
AcDbEntity
  8
Size
370
     9
100
AcDbLine
 10
921.7011411687879
 20
349.8834213424433
 30
0.0
 11
921.7011411687879
 21
669.8771017129806
 31
0.0
  0
INSERT
  5
706
330
70
100
AcDbEntity
  8
Size
370
     9
100
AcDbBlockReference
  2
30a
 10
921.7011411687879
 20
349.8804213424433
 30
0.0
 41
0.003
 42
0.003
 43
0.003
 50
270.0
  0
INSERT
  5
707
330
70
100
AcDbEntity
  8
Size
370
     9
100
AcDbBlockReference
  2
30a
 10
921.7011411687879
 20
669.8801017129807
 30
0.0
 41
0.003
 42
0.003
 43
0.003
 50
90.0
  0
MTEXT
  5
708
330
70
100
AcDbEntity
  8
Size
100
AcDbMText
 10
913.8261411687878
 20
465.735112583745
 30
0.0
 40
12.0
 41
0.0
 71
     5
 72
     1
  1
φ320
 11
0.0000000000000001
 21
1.0
 31
0.0
 73
     1
 44
1.0
  0
LINE
  5
709
330
70
100
AcDbEntity
  8
Size
370
     9
100
AcDbLine
 10
597.8194956397455
 20
511.7552615277121
 30
0.0
 11
597.8194956397455
 21
704.0197138866785
 31
0.0
  0
LINE
  5
70A
330
70
100
AcDbEntity
  8
Size
370
     9
100
AcDbLine
 10
1140.81895326901
 20
645.7551276828744
 30
0.0
 11
1140.81895326901
 21
704.0197138866785
 31
0.0
  0
LINE
  5
70B
330
70
100
AcDbEntity
  8
Size
370
     9
100
AcDbLine
 10
597.8224956397456
 20
700.2697138866786
 30
0.0
 11
1140.81595326901
 21
700.2697138866786
 31
0.0
  0
INSERT
  5
70C
330
70
100
AcDbEntity
  8
Size
370
     9
100
AcDbBlockReference
  2
30a
 10
597.8194956397455
 20
700.2697138866786
 30
0.0
 41
0.003
 42
0.003
 43
0.003
 50
180.0
  0
INSERT
  5
70D
330
70
100
AcDbEntity
  8
Size
370
     9
100
AcDbBlockReference
  2
30a
 10
1140.81895326901
 20
700.2697138866786
 30
0.0
 41
0.003
 42
0.003
 43
0.003
  0
MTEXT
  5
70E
330
70
100
AcDbEntity
  8
Size
100
AcDbMText
 10
869.3192244543778
 20
708.1447138866785
 30
0.0
 40
12.0
 41
0.0
 71
     5
 72
     1
  1
543
 73
     1
 44
1.0
  0
LINE
  5
70F
330
70
100
AcDbEntity
  8
Size
370
     9
100
AcDbLine
 10
498.1191938488652
 20
628.1051453124371
 30
0.0
 11
498.1191938488652
 21
722.0197138866786
 31
0.0
  0
LINE
  5
710
330
70
100
AcDbEntity
  8
Size
370
     9
100
AcDbLine
 10
1140.81895326901
 20
645.7551276828744
 30
0.0
 11
1140.81895326901
 21
722.0197138866786
 31
0.0
  0
LINE
  5
711
330
70
100
AcDbEntity
  8
Size
370
     9
100
AcDbLine
 10
498.1221938488651
 20
718.2697138866785
 30
0.0
 11
1140.815953269011
 21
718.2697138866785
 31
0.0
  0
INSERT
  5
712
330
70
100
AcDbEntity
  8
Size
370
     9
100
AcDbBlockReference
  2
30a
 10
498.1191938488652
 20
718.2697138866785
 30
0.0
 41
0.003
 42
0.003
 43
0.003
 50
180.0
  0
INSERT
  5
713
330
70
100
AcDbEntity
  8
Size
370
     9
100
AcDbBlockReference
  2
30a
 10
1140.81895326901
 20
718.2697138866785
 30
0.0
 41
0.003
 42
0.003
 43
0.003
  0
MTEXT
  5
714
330
70
100
AcDbEntity
  8
Size
100
AcDbMText
 10
819.469073558938
 20
726.1447138866786
 30
0.0
 40
12.0
 41
0.0
 71
     5
 72
     1
  1
約643
 73
     1
 44
1.0
  0
LINE
  5
715
330
70
100
AcDbEntity
  8
Size
370
     9
100
AcDbLine
 10
193.4122694915317
 20
461.4640127487584
 30
0.0
 11
193.4094419669571
 21
461.4630101996175
 31
0.0
  0
LINE
  5
716
330
70
100
AcDbEntity
  8
Size
370
     9
100
AcDbLine
 10
227.3481853653658
 20
473.4965954575965
 30
0.0
 11
255.5386576499122
 21
483.4920289277317
 31
0.0
  0
LINE
  5
717
330
70
100
AcDbEntity
  8
Size
370
     9
100
AcDbLine
 10
193.4150970161063
 20
461.4650152978994
 30
0.0
 11
227.3453578407912
 21
473.4955929084556
 31
0.0
  0
INSERT
  5
718
330
70
100
AcDbEntity
  8
Size
370
     9
100
AcDbBlockReference
  2
30a
 10
193.4150970161063
 20
461.4650152978994
 30
0.0
 41
0.003
 42
0.003
 43
0.003
 50
19.52286711715559
  0
INSERT
  5
719
330
70
100
AcDbEntity
  8
Size
370
     9
100
AcDbBlockReference
  2
30a
 10
227.3453578407912
 20
473.4955929084556
 30
0.0
 41
0.003
 42
0.003
 43
0.003
 50
199.5228671171556
  0
MTEXT
  5
71A
330
70
100
AcDbEntity
  8
Size
100
AcDbMText
 10
241.7146813804983
 20
486.9458572533264
 30
0.0
 40
12.0
 41
0.0
 71
     5
 72
     1
  1
φ36
 11
0.9425081915387337
 21
0.3341830469703473
 31
0.0
 73
     1
 44
1.0
  0
LINE
  5
71B
330
70
100
AcDbEntity
  8
Size
370
     9
100
AcDbLine
 10
282.7100490200911
 20
456.2407040458078
 30
0.0
 11
282.70743152162
 21
456.2392382007429
 31
0.0
  0
LINE
  5
71C
330
70
100
AcDbEntity
  8
Size
370
     9
100
AcDbLine
 10
322.8502202720421
 20
478.7199041605474
 30
0.0
 11
349.4584552096871
 21
493.6209825368451
 31
0.0
  0
LINE
  5
71D
330
70
100
AcDbEntity
  8
Size
370
     9
100
AcDbLine
 10
282.7126665185621
 20
456.2421698908726
 30
0.0
 11
322.847602773571
 21
478.7184383154825
 31
0.0
  0
INSERT
  5
71E
330
70
100
AcDbEntity
  8
Size
370
     9
100
AcDbBlockReference
  2
30a
 10
282.7126665185621
 20
456.2421698908726
 30
0.0
 41
0.003
 42
0.003
 43
0.003
 50
29.24959154799843
  0
INSERT
  5
71F
330
70
100
AcDbEntity
  8
Size
370
     9
100
AcDbBlockReference
  2
30a
 10
322.847602773571
 20
478.7184383154825
 30
0.0
 41
0.003
 42
0.003
 43
0.003
 50
209.2495915479984
  0
MTEXT
  5
720
330
70
100
AcDbEntity
  8
Size
100
AcDbMText
 10
335.2496804666329
 20
494.689612641766
 30
0.0
 40
12.0
 41
0.0
 71
     5
 72
     1
  1
φ46
 11
0.872499490349498
 21
0.4886150216068538
 31
0.0
 73
     1
 44
1.0
  0
LINE
  5
721
330
70
100
AcDbEntity
  8
Size
370
     9
100
AcDbLine
 10
175.882309366804
 20
467.4803041031777
 30
0.0
 11
80.82246472954871
 21
467.4803041031777
 31
0.0
  0
LINE
  5
722
330
70
100
AcDbEntity
  8
Size
370
     9
100
AcDbLine
 10
84.57246472954871
 20
467.4833041031777
 30
0.0
 11
84.57246472954869
 21
509.8772617031777
 31
0.0
  0
INSERT
  5
723
330
70
100
AcDbEntity
  8
Size
370
     9
100
AcDbBlockReference
  2
30a
 10
84.57246472954871
 20
467.4803041031777
 30
0.0
 41
0.003
 42
0.003
 43
0.003
 50
270.0
  0
INSERT
  5
724
330
70
100
AcDbEntity
  8
Size
370
     9
100
AcDbBlockReference
  2
30a
 10
84.57246472954869
 20
509.8802617031777
 30
0.0
 41
0.003
 42
0.003
 43
0.003
 50
90.0
  0
MTEXT
  5
725
330
70
100
AcDbEntity
  8
Size
100
AcDbMText
 10
76.69746472954883
 20
488.6802829031775
 30
0.0
 40
12.0
 41
0.0
 71
     5
 72
     1
  1
42.4
 11
0.0000000000000001
 21
1.0
 31
0.0
 73
     1
 44
1.0
  0
LINE
  5
726
330
70
100
AcDbEntity
  8
Size
370
     9
100
AcDbLine
 10
210.3802274284484
 20
435.6758891894105
 30
0.0
 11
210.3802274284484
 21
307.82078027617
 31
0.0
  0
LINE
  5
727
330
70
100
AcDbEntity
  8
Size
370
     9
100
AcDbLine
 10
260.3801774284484
 20
325.1696237673355
 30
0.0
 11
260.3801774284484
 21
307.82078027617
 31
0.0
  0
LINE
  5
728
330
70
100
AcDbEntity
  8
Size
370
     9
100
AcDbLine
 10
210.3832274284484
 20
311.57078027617
 30
0.0
 11
260.3771774284484
 21
311.57078027617
 31
0.0
  0
INSERT
  5
729
330
70
100
AcDbEntity
  8
Size
370
     9
100
AcDbBlockReference
  2
30a
 10
210.3802274284484
 20
311.57078027617
 30
0.0
 41
0.003
 42
0.003
 43
0.003
 50
180.0
  0
INSERT
  5
72A
330
70
100
AcDbEntity
  8
Size
370
     9
100
AcDbBlockReference
  2
30a
 10
260.3801774284484
 20
311.57078027617
 30
0.0
 41
0.003
 42
0.003
 43
0.003
  0
MTEXT
  5
72B
330
70
100
AcDbEntity
  8
Size
100
AcDbMText
 10
235.3802024284484
 20
319.44578027617
 30
0.0
 40
12.0
 41
0.0
 71
     5
 72
     1
  1
50
 73
     1
 44
1.0
  0
LINE
  5
72C
330
70
100
AcDbEntity
  8
Size
370
     9
100
AcDbLine
 10
260.3801772215318
 20
325.1696242246477
 30
0.0
 11
260.3801772215318
 21
307.8207802761704
 31
0.0
  0
LINE
  5
72D
330
70
100
AcDbEntity
  8
Size
370
     9
100
AcDbLine
 10
302.7801348215317
 20
432.7782760971692
 30
0.0
 11
302.7801348215317
 21
307.8207802761704
 31
0.0
  0
LINE
  5
72E
330
70
100
AcDbEntity
  8
Size
370
     9
100
AcDbLine
 10
260.3831772215317
 20
311.5707802761704
 30
0.0
 11
302.7771348215317
 21
311.5707802761704
 31
0.0
  0
INSERT
  5
72F
330
70
100
AcDbEntity
  8
Size
370
     9
100
AcDbBlockReference
  2
30a
 10
260.3801772215318
 20
311.5707802761704
 30
0.0
 41
0.003
 42
0.003
 43
0.003
 50
180.0
  0
INSERT
  5
730
330
70
100
AcDbEntity
  8
Size
370
     9
100
AcDbBlockReference
  2
30a
 10
302.7801348215317
 20
311.5707802761704
 30
0.0
 41
0.003
 42
0.003
 43
0.003
  0
MTEXT
  5
731
330
70
100
AcDbEntity
  8
Size
100
AcDbMText
 10
281.5801560215317
 20
319.4457802761704
 30
0.0
 40
12.0
 41
0.0
 71
     5
 72
     1
  1
42.4
 73
     1
 44
1.0
  0
LINE
  5
732
330
70
100
AcDbEntity
  8
Size
370
     9
100
AcDbLine
 10
597.3635666632231
 20
538.3802330607079
 30
0.0
 11
474.5594485925262
 21
538.3802330607079
 31
0.0
  0
LINE
  5
733
330
70
100
AcDbEntity
  8
Size
370
     9
100
AcDbLine
 10
478.3094485925261
 20
509.8832615277124
 30
0.0
 11
478.3094485925261
 21
538.3772330607079
 31
0.0
  0
MTEXT
  5
734
330
70
100
AcDbEntity
  8
Size
100
AcDbMText
 10
470.4344485925229
 20
532.5846781029736
 30
0.0
 40
12.0
 41
0.0
 71
     5
 72
     1
  1
28.5
 11
0.0000000000000001
 21
1.0
 31
0.0
 73
     1
 44
1.0
  0
INSERT
  5
735
330
70
100
AcDbEntity
  8
Size
370
     9
100
AcDbBlockReference
  2
30a
 10
478.3094485925261
 20
509.8802615277123
 30
0.0
 41
0.003
 42
0.003
 43
0.003
 50
90.0
  0
LINE
  5
736
330
70
100
AcDbEntity
  8
Size
370
     9
100
AcDbLine
 10
478.3094485925261
 20
509.8772615277123
 30
0.0
 11
478.3094485925261
 21
509.8742615277124
 31
0.0
  0
LINE
  5
737
330
70
100
AcDbEntity
  8
Size
370
     9
100
AcDbLine
 10
478.3094485925261
 20
509.8802615277123
 30
0.0
 11
478.3094485925261
 21
509.8832615277124
 31
0.0
  0
INSERT
  5
738
330
70
100
AcDbEntity
  8
Size
370
     9
100
AcDbBlockReference
  2
30a
 10
478.3094485925261
 20
538.3802330607079
 30
0.0
 41
0.003
 42
0.003
 43
0.003
 50
270.0
  0
LINE
  5
739
330
70
100
AcDbEntity
  8
Size
370
     9
100
AcDbLine
 10
478.3094485925261
 20
538.383233060708
 30
0.0
 11
478.3094485925261
 21
538.386233060708
 31
0.0
  0
LINE
  5
73A
330
70
100
AcDbEntity
  8
Size
370
     9
100
AcDbLine
 10
478.3094485925261
 20
538.3802330607079
 30
0.0
 11
478.3094485925261
 21
538.3772330607079
 31
0.0
  0
LINE
  5
73B
330
70
100
AcDbEntity
  8
Size
370
     9
100
AcDbLine
 10
564.6299439091215
 20
505.207304579194
 30
0.0
 11
520.8019748548298
 21
516.9509734931847
 31
0.0
  0
LINE
  5
73C
330
70
100
AcDbEntity
  8
Size
370
     9
100
AcDbLine
 10
585.8530844089348
 20
584.4131432206908
 30
0.0
 11
542.025115354643
 21
596.1568121346814
 31
0.0
  0
LINE
  5
73D
330
70
100
AcDbEntity
  8
Size
370
     9
100
AcDbLine
 10
524.4249731605492
 20
515.9832998515294
 30
0.0
 11
545.6465607460918
 21
595.1833429380683
 31
0.0
  0
INSERT
  5
73E
330
70
100
AcDbEntity
  8
Size
370
     9
100
AcDbBlockReference
  2
30a
 10
524.4241967034139
 20
515.9804020740505
 30
0.0
 41
0.003
 42
0.003
 43
0.003
 50
255.0000000000038
  0
INSERT
  5
73F
330
70
100
AcDbEntity
  8
Size
370
     9
100
AcDbBlockReference
  2
30a
 10
545.6473372032271
 20
595.1862407155472
 30
0.0
 41
0.003
 42
0.003
 43
0.003
 50
75.00000000000382
  0
MTEXT
  5
740
330
70
100
AcDbEntity
  8
Size
100
AcDbMText
 10
527.4291010712941
 20
557.6215213749807
 30
0.0
 40
12.0
 41
0.0
 71
     5
 72
     1
  1
φ82
 11
0.2588190451024564
 21
0.9659258262890855
 31
0.0
 73
     1
 44
1.0
  0
LINE
  5
741
330
70
100
AcDbEntity
  8
Size
370
     9
100
AcDbLine
 10
504.894185208882
 20
384.8803863829714
 30
0.0
 11
456.559448592527
 21
384.8803863829714
 31
0.0
  0
LINE
  5
742
330
70
100
AcDbEntity
  8
Size
370
     9
100
AcDbLine
 10
504.8941852088811
 20
634.8801366724535
 30
0.0
 11
456.559448592527
 21
634.8801366724535
 31
0.0
  0
LINE
  5
743
330
70
100
AcDbEntity
  8
Size
370
     9
100
AcDbLine
 10
460.3094485925271
 20
384.8833863829714
 30
0.0
 11
460.3094485925271
 21
634.8771366724535
 31
0.0
  0
INSERT
  5
744
330
70
100
AcDbEntity
  8
Size
370
     9
100
AcDbBlockReference
  2
30a
 10
460.3094485925271
 20
384.8803863829714
 30
0.0
 41
0.003
 42
0.003
 43
0.003
 50
270.0
  0
INSERT
  5
745
330
70
100
AcDbEntity
  8
Size
370
     9
100
AcDbBlockReference
  2
30a
 10
460.3094485925271
 20
634.8801366724535
 30
0.0
 41
0.003
 42
0.003
 43
0.003
 50
90.0
  0
MTEXT
  5
746
330
70
100
AcDbEntity
  8
Size
100
AcDbMText
 10
452.4344485925271
 20
507.8093751379051
 30
0.0
 40
12.0
 41
0.0
 71
     5
 72
     1
  1
φ250
 11
0.0000000000000001
 21
1.0
 31
0.0
 73
     1
 44
1.0
  0
TEXT
  5
747
330
70
100
AcDbEntity
  8
Text
 62
     2
100
AcDbText
 10
982.0999999999999
 20
42.74999999999992
 30
0.0
 40
12.0
  1
(構内フォークリフト用)
100
AcDbText
1001
ACAD
1000
ACAD_MTEXT_DEFINED_HEIGHT_BEGIN
1070
    46
1040
8.0
1000
ACAD_MTEXT_DEFINED_HEIGHT_END
  0
INSERT
  5
748
330
70
100
AcDbEntity
  8
Size
100
AcDbBlockReference
  2
30a
 10
316.2874357666909
 20
448.8644028397874
 30
0.0
 41
0.001
 42
0.001
 43
0.001
 50
118.3670776457987
1001
ACAD
1000
DSTYLE
1002
{
1070
    40
1040
1.0
1070
   147
1040
0.625
1070
    77
1070
     1
1070
   345
1005
5C
1070
   346
1005
5C
1070
   347
1005
5C
1002
}
  0
LWPOLYLINE
  5
749
330
70
100
AcDbEntity
  8
Size
100
AcDbPolyline
 90
        3
 70
     0
 43
0.0
 10
316.2879108853724
 20
448.8635229180644
 10
373.4470355397685
 20
343.0045924814225
 10
442.9116182169338
 20
343.0045924814225
1001
ACAD
1000
DSTYLE
1002
{
1070
    40
1040
1.0
1070
   147
1040
0.625
1070
    77
1070
     1
1070
   345
1005
5C
1070
   346
1005
5C
1070
   347
1005
5C
1002
}
  0
TEXT
  5
74A
330
70
100
AcDbEntity
  8
Size
100
AcDbText
 10
374.0730355397685
 20
343.6295924814225
 30
0.0
 40
12.0
  1
充填バルブ
100
AcDbText
  0
INSERT
  5
74B
330
70
100
AcDbEntity
  8
Size
100
AcDbBlockReference
  2
30a
 10
201.2002495094247
 20
451.9971721733562
 30
0.0
 41
0.001
 42
0.001
 43
0.001
 50
64.96979853765161
1001
ACAD
1000
DSTYLE
1002
{
1070
    40
1040
1.0
1070
   147
1040
0.625
1070
    77
1070
     1
1070
   345
1005
5C
1070
   346
1005
5C
1070
   347
1005
5C
1002
}
  0
LWPOLYLINE
  5
74C
330
70
100
AcDbEntity
  8
Size
100
AcDbPolyline
 90
        3
 70
     0
 43
0.0
 10
201.1998264134933
 20
451.9962660884635
 10
154.2711928545615
 20
351.4958293106133
 10
70.40661017739617
 20
351.4958293106133
1001
ACAD
1000
DSTYLE
1002
{
1070
    40
1040
1.0
1070
   147
1040
0.625
1070
    77
1070
     1
1070
   345
1005
5C
1070
   346
1005
5C
1070
   347
1005
5C
1002
}
  0
TEXT
  5
74D
330
70
100
AcDbEntity
  8
Size
100
AcDbText
 10
70.40661017739617
 20
352.1208293106133
 30
0.0
 40
12.0
  1
液取出バルブ
100
AcDbText
  0
INSERT
  5
74E
330
70
100
AcDbEntity
  8
Size
100
AcDbBlockReference
  2
30a
 10
232.390444742635
 20
574.1073669629072
 30
0.0
 41
0.001
 42
0.001
 43
0.001
 50
294.8572343530202
1001
ACAD
1000
DSTYLE
1002
{
1070
    40
1040
1.0
1070
   147
1040
0.625
1070
    77
1070
     1
1070
   345
1005
5C
1070
   346
1005
5C
1070
   347
1005
5C
1002
}
  0
LWPOLYLINE
  5
74F
330
70
100
AcDbEntity
  8
Size
100
AcDbPolyline
 90
        3
 70
     0
 43
0.0
 10
232.3900243839577
 20
574.1082743209305
 10
180.6543491562515
 20
685.7814300005856
 10
68.02834915625145
 20
685.7814300005856
1001
ACAD
1000
DSTYLE
1002
{
1070
    40
1040
1.0
1070
   147
1040
0.625
1070
    77
1070
     1
1070
   345
1005
5C
1070
   346
1005
5C
1070
   347
1005
5C
1002
}
  0
TEXT
  5
750
330
70
100
AcDbEntity
  8
Size
100
AcDbText
 10
68.02834915625145
 20
686.4064300005856
 30
0.0
 40
12.0
  1
フロート式液面計
100
AcDbText
  0
VIEWPORT
  5
6DC
102
{ACAD_XDICTIONARY
360
6DD
102
}
330
6C
100
AcDbEntity
 67
     1
  8
0
100
AcDbViewport
 10
148.5
 20
105.0
 30
0.0
 40
361.8936435868331
 41
222.18
 68
     1
 69
     1
 12
148.5
 22
105.0
 13
0.0
 23
0.0
 14
10.0
 24
10.0
 15
10.0
 25
10.0
 16
0.0
 26
0.0
 36
1.0
 17
0.0
 27
0.0
 37
0.0
 42
50.0
 43
0.0
 44
0.0
 45
222.18
 50
0.0
 51
0.0
 72
  1000
 90
   819232
  1

281
     0
 71
     1
 74
     0
110
0.0
120
0.0
130
0.0
111
1.0
121
0.0
131
0.0
112
0.0
122
1.0
132
0.0
 79
     0
146
0.0
170
     0
  0
ENDSEC
  0
SECTION
  2
OBJECTS
  0
DICTIONARY
  5
C
330
0
100
AcDbDictionary
281
     1
  3
ACAD_2007HEADERVARS_RT
350
759
  3
ACAD_CIP_PREVIOUS_PRODUCT_INFO
350
547
  3
ACAD_COLOR
350
63
  3
ACAD_DETAILVIEWSTYLE
350
6A
  3
ACAD_GROUP
350
D
  3
ACAD_LAST_SAVED_VERSION_INFO
350
532
  3
ACAD_LAYOUT
350
62
  3
ACAD_MATERIAL
350
10
  3
ACAD_MLEADERSTYLE
350
66
  3
ACAD_MLINESTYLE
350
5F
  3
ACAD_PLOTSETTINGS
350
61
  3
ACAD_PLOTSTYLENAME
350
E
  3
ACAD_SCALELIST
350
42
  3
ACAD_SECTIONVIEWSTYLE
350
68
  3
ACAD_TABLESTYLE
350
64
  3
ACAD_VISUALSTYLE
350
29
  3
ACDB_RECOMPOSE_DATA
350
758
  3
AcDbVariableDictionary
350
533
  3
AcDsDecomposeData
350
765
  0
DICTIONARY
  5
6C9
330
2
100
AcDbDictionary
280
     1
281
     1
  3
ACAD_LAYERSTATES
360
6CA
  0
DICTIONARY
  5
754
330
54
100
AcDbDictionary
280
     1
281
     1
  3
ADSK_XREC_LAYER_RECONCILED
360
755
  0
DICTIONARY
  5
99
330
98
100
AcDbDictionary
280
     1
281
     1
  3
ADSK_XREC_LAYER_RECONCILED
360
9A
  0
DICTIONARY
  5
9F
330
9E
100
AcDbDictionary
280
     1
281
     1
  3
ADSK_XREC_LAYER_RECONCILED
360
A0
  0
DICTIONARY
  5
AB
330
AA
100
AcDbDictionary
280
     1
281
     1
  3
ADSK_XREC_LAYER_RECONCILED
360
AC
  0
DICTIONARY
  5
FF
330
FE
100
AcDbDictionary
280
     1
281
     1
  3
ADSK_XREC_LAYER_RECONCILED
360
100
  0
DICTIONARY
  5
21C
330
21B
100
AcDbDictionary
280
     1
281
     1
  3
ADSK_XREC_LAYER_RECONCILED
360
21D
  0
DICTIONARY
  5
23D
330
23C
100
AcDbDictionary
280
     1
281
     1
  3
ADSK_XREC_LAYER_RECONCILED
360
23E
  0
DICTIONARY
  5
19C
330
70
100
AcDbDictionary
280
     1
281
     1
  3
ACAD_SORTENTS
360
4C7
  0
DICTIONARY
  5
82
330
81
100
AcDbDictionary
280
     1
281
     1
  3
ACAD_SORTENTS
360
4C6
  0
DICTIONARY
  5
7AF
330
659
100
AcDbDictionary
280
     1
281
     1
  3
ACAD_MTEXT_2008_RT
360
7B0
  0
DICTIONARY
  5
7AD
330
651
100
AcDbDictionary
280
     1
281
     1
  3
ACAD_MTEXT_2008_RT
360
7AE
  0
DICTIONARY
  5
6DD
330
6DC
100
AcDbDictionary
280
     1
281
     1
  3
ASDK_XREC_ANNOTATION_SCALE_INFO
360
6DE
  0
DICTIONARY
  5
759
102
{ACAD_REACTORS
330
C
102
}
330
C
100
AcDbDictionary
281
     1
  3
DIMARCSYM
350
75B
  3
DIMFXL
350
75A
  3
DIMJOGANG
350
75C
  3
DIMLTEX1
350
75E
  3
DIMLTEX2
350
75F
  3
DIMLTYPE
350
75D
  0
XRECORD
  5
547
102
{ACAD_REACTORS
330
C
102
}
330
C
100
AcDbXrecord
280
     1
300
ACD
300
2026
300

  0
DICTIONARY
  5
63
102
{ACAD_REACTORS
330
C
102
}
330
C
100
AcDbDictionary
281
     1
  0
DICTIONARY
  5
6A
102
{ACAD_REACTORS
330
C
102
}
330
C
100
AcDbDictionary
281
     1
  3
Imperial24
350
6B
  3
Metric50
350
540
  0
DICTIONARY
  5
D
102
{ACAD_REACTORS
330
C
102
}
330
C
100
AcDbDictionary
281
     1
  0
XRECORD
  5
532
102
{ACAD_REACTORS
330
C
102
}
330
C
100
AcDbXrecord
280
     1
300
{9F07136E-4DED-4240-9A8D-4F9904500358}
301
{42A4A2DE-818C-3649-9F08-09CC6C03EC4C}
302
{9F07136E-4DED-4240-9A8D-4F9904500358}
303
C:\Users\CKK004820\Desktop\HP掲載図_15ｋフォーク用容器(G付)_HP用.dxf
  0
DICTIONARY
  5
62
102
{ACAD_REACTORS
330
C
102
}
330
C
100
AcDbDictionary
281
     1
  3
Model
350
73
  3
レイアウト1
350
6F
  0
DICTIONARY
  5
10
102
{ACAD_REACTORS
330
C
102
}
330
C
100
AcDbDictionary
281
     1
  3
ByBlock
350
19
  3
ByLayer
350
11
  3
Global
350
21
  0
DICTIONARY
  5
66
102
{ACAD_REACTORS
330
C
102
}
330
C
100
AcDbDictionary
281
     1
  3
Standard
350
67
  0
DICTIONARY
  5
5F
102
{ACAD_REACTORS
330
C
102
}
330
C
100
AcDbDictionary
281
     1
  3
Standard
350
60
  0
DICTIONARY
  5
61
102
{ACAD_REACTORS
330
C
102
}
330
C
100
AcDbDictionary
281
     1
  0
ACDBDICTIONARYWDFLT
  5
E
102
{ACAD_REACTORS
330
C
102
}
330
C
100
AcDbDictionary
281
     1
  3
Normal
350
F
  3
Style_1
350
85
100
AcDbDictionaryWithDefault
340
F
  0
DICTIONARY
  5
42
102
{ACAD_REACTORS
330
C
102
}
330
C
100
AcDbDictionary
281
     1
  3
A0
350
43
  3
A1
350
44
  3
A2
350
45
  3
A3
350
46
  3
A4
350
47
  3
A5
350
48
  3
A6
350
49
  3
A7
350
4A
  3
A8
350
4B
  3
A9
350
4C
  3
B0
350
4D
  3
B1
350
4E
  3
B2
350
4F
  3
B3
350
50
  3
B4
350
51
  3
B5
350
52
  3
B6
350
53
  0
DICTIONARY
  5
68
102
{ACAD_REACTORS
330
C
102
}
330
C
100
AcDbDictionary
281
     1
  3
Imperial24
350
69
  3
Metric50
350
53F
  0
DICTIONARY
  5
64
102
{ACAD_REACTORS
330
C
102
}
330
C
100
AcDbDictionary
281
     1
  3
Standard
350
65
  0
DICTIONARY
  5
29
102
{ACAD_REACTORS
330
C
102
}
330
C
100
AcDbDictionary
281
     1
  3
2dWireframe
350
2F
  3
Basic
350
2E
  3
Brighten
350
35
  3
ColorChange
350
39
  3
Conceptual
350
32
  3
Dim
350
34
  3
EdgeColorOff
350
41
  3
Facepattern
350
38
  3
Flat
350
2A
  3
FlatWithEdges
350
2B
  3
Gouraud
350
2C
  3
GouraudWithEdges
350
2D
  3
Hidden
350
31
  3
JitterOff
350
3F
  3
Linepattern
350
37
  3
OverhangOff
350
40
  3
Realistic
350
33
  3
Shaded
350
3E
  3
Shaded with edges
350
3D
  3
Shades of Gray
350
3A
  3
Sketchy
350
3B
  3
Thicken
350
36
  3
Wireframe
350
30
  3
X-Ray
350
3C
  0
XRECORD
  5
758
102
{ACAD_REACTORS
330
C
102
}
330
C
100
AcDbXrecord
280
     1
 90
        1
330
65
  0
DICTIONARY
  5
533
102
{ACAD_REACTORS
330
C
102
}
330
C
100
AcDbDictionary
281
     1
  3
ANNOALLVISIBLE
350
539
  3
CANNOSCALE
350
53A
  3
CMLEADERSTYLE
350
535
  3
CTABLESTYLE
350
534
  3
CVIEWDETAILSTYLE
350
536
  3
CVIEWSECTIONSTYLE
350
537
  3
LAYEREVAL
350
53C
  3
LAYERNOTIFY
350
53D
  3
LIGHTINGUNITS
350
53B
  3
MSLTSCALE
350
538
  0
DICTIONARY
  5
765
102
{ACAD_REACTORS
330
C
102
}
330
C
100
AcDbDictionary
281
     1
  3
AcDsRecords
350
767
  3
AcDsSchemas
350
766
1001
ACAD
1070
     2
  0
DICTIONARY
  5
6CA
102
{ACAD_REACTORS
330
6C9
102
}
330
6C9
100
AcDbDictionary
281
     1
  0
XRECORD
  5
755
102
{ACAD_REACTORS
330
754
102
}
330
754
100
AcDbXrecord
280
     1
290
     1
  0
XRECORD
  5
9A
102
{ACAD_REACTORS
330
99
102
}
330
99
100
AcDbXrecord
280
     1
290
     1
  0
XRECORD
  5
A0
102
{ACAD_REACTORS
330
9F
102
}
330
9F
100
AcDbXrecord
280
     1
290
     1
  0
XRECORD
  5
AC
102
{ACAD_REACTORS
330
AB
102
}
330
AB
100
AcDbXrecord
280
     1
290
     1
  0
XRECORD
  5
100
102
{ACAD_REACTORS
330
FF
102
}
330
FF
100
AcDbXrecord
280
     1
290
     1
  0
XRECORD
  5
21D
102
{ACAD_REACTORS
330
21C
102
}
330
21C
100
AcDbXrecord
280
     1
290
     1
  0
XRECORD
  5
23E
102
{ACAD_REACTORS
330
23D
102
}
330
23D
100
AcDbXrecord
280
     1
290
     1
  0
SORTENTSTABLE
  5
4C7
102
{ACAD_REACTORS
330
19C
102
}
330
19C
100
AcDbSortentsTable
330
70
331
105
  5
106
331
106
  5
107
331
107
  5
108
331
108
  5
109
331
109
  5
10A
331
10A
  5
10B
331
10B
  5
10C
331
10C
  5
10D
331
10D
  5
10E
331
10E
  5
10F
331
10F
  5
110
331
110
  5
111
331
111
  5
112
331
112
  5
113
331
113
  5
114
331
114
  5
115
331
115
  5
116
331
116
  5
117
331
117
  5
118
331
118
  5
119
331
119
  5
11A
331
11A
  5
11B
331
11B
  5
11C
331
11C
  5
11D
331
11D
  5
11E
331
11E
  5
11F
331
11F
  5
120
331
120
  5
121
331
121
  5
122
331
122
  5
123
331
123
  5
124
331
124
  5
125
331
125
  5
126
331
126
  5
127
331
127
  5
128
331
128
  5
129
331
129
  5
12A
331
12A
  5
12B
331
12B
  5
12C
331
12C
  5
12D
331
12D
  5
12E
331
12E
  5
12F
331
12F
  5
130
331
130
  5
131
331
131
  5
132
331
132
  5
133
331
133
  5
134
331
134
  5
135
331
135
  5
136
331
136
  5
137
331
137
  5
138
331
138
  5
139
331
139
  5
13A
331
13A
  5
13B
331
13B
  5
13C
331
13C
  5
13D
331
13D
  5
13E
331
13E
  5
13F
331
13F
  5
140
331
140
  5
141
331
141
  5
142
331
142
  5
143
331
143
  5
144
331
144
  5
145
331
145
  5
146
331
146
  5
147
331
147
  5
148
331
148
  5
149
331
149
  5
14A
331
14A
  5
14B
331
14B
  5
14C
331
14C
  5
14D
331
14D
  5
14E
331
14E
  5
14F
331
14F
  5
150
331
150
  5
151
331
151
  5
152
331
152
  5
153
331
153
  5
154
331
154
  5
155
331
155
  5
156
331
156
  5
157
331
157
  5
158
331
158
  5
159
331
159
  5
15A
331
15A
  5
15B
331
15B
  5
15C
331
15C
  5
15D
331
15D
  5
15E
331
15E
  5
15F
331
15F
  5
160
331
160
  5
161
331
161
  5
162
331
162
  5
163
331
163
  5
164
331
164
  5
165
331
165
  5
166
331
166
  5
167
331
167
  5
168
331
168
  5
169
331
169
  5
16A
331
16A
  5
16B
331
16B
  5
16C
331
16C
  5
16D
331
16D
  5
16E
331
16E
  5
16F
331
16F
  5
170
331
170
  5
171
331
171
  5
172
331
172
  5
173
331
173
  5
174
331
174
  5
175
331
175
  5
176
331
176
  5
177
331
177
  5
178
331
178
  5
179
331
179
  5
17A
331
17A
  5
17B
331
17B
  5
17C
331
17C
  5
17D
331
17D
  5
17E
331
17E
  5
17F
331
17F
  5
180
331
180
  5
181
331
181
  5
182
331
182
  5
183
331
183
  5
184
331
184
  5
185
331
185
  5
186
331
186
  5
187
331
187
  5
188
331
188
  5
189
331
189
  5
18A
331
18A
  5
18B
331
18B
  5
18C
331
18C
  5
18D
331
18D
  5
18E
331
18E
  5
18F
331
18F
  5
190
331
190
  5
191
331
191
  5
192
331
192
  5
193
331
193
  5
194
331
194
  5
195
331
195
  5
196
331
196
  5
197
331
197
  5
198
331
198
  5
199
331
199
  5
19A
331
19A
  5
105
331
19F
  5
1A1
331
1A0
  5
1A2
331
1A1
  5
1A3
331
1A2
  5
1A4
331
1A3
  5
1A5
331
1A4
  5
1A6
331
1A5
  5
1A7
331
1A6
  5
1A8
331
1A7
  5
1A9
331
1A8
  5
1AA
331
1A9
  5
1AB
331
1AA
  5
1AC
331
1AB
  5
1AD
331
1AC
  5
1AE
331
1AD
  5
1AF
331
1AE
  5
1B0
331
1AF
  5
1B1
331
1B0
  5
1B2
331
1B1
  5
1B3
331
1B2
  5
1B4
331
1B3
  5
1B5
331
1B4
  5
1B6
331
1B5
  5
1B7
331
1B6
  5
1B8
331
1B7
  5
1B9
331
1B8
  5
1BA
331
1B9
  5
1BB
331
1BA
  5
1BC
331
1BB
  5
1BD
331
1BC
  5
1BE
331
1BD
  5
1BF
331
1BE
  5
1C0
331
1BF
  5
1C1
331
1C0
  5
1C2
331
1C1
  5
1C3
331
1C2
  5
1C4
331
1C3
  5
1C5
331
1C4
  5
1C6
331
1C5
  5
1C7
331
1C6
  5
1C8
331
1C7
  5
1C9
331
1C8
  5
1CA
331
1C9
  5
1CB
331
1CA
  5
1CC
331
1CB
  5
1CD
331
1CC
  5
1CE
331
1CD
  5
1CF
331
1CE
  5
1D0
331
1CF
  5
1D1
331
1D0
  5
1D2
331
1D1
  5
1D3
331
1D2
  5
1D4
331
1D3
  5
1D5
331
1D4
  5
1D6
331
1D5
  5
1D7
331
1D6
  5
1D8
331
1D7
  5
1D9
331
1D8
  5
1DA
331
1D9
  5
1DB
331
1DA
  5
1DC
331
1DB
  5
1DD
331
1DC
  5
1DE
331
1DD
  5
1DF
331
1DE
  5
1E0
331
1DF
  5
1E1
331
1E0
  5
1E2
331
1E1
  5
1E3
331
1E2
  5
1E4
331
1E3
  5
1E5
331
1E4
  5
1E6
331
1E5
  5
1E7
331
1E6
  5
1E8
331
1E7
  5
1E9
331
1E8
  5
1EA
331
1E9
  5
1EB
331
1EA
  5
1EC
331
1EB
  5
1ED
331
1EC
  5
1EE
331
1ED
  5
1EF
331
1EE
  5
1F0
331
1EF
  5
1F1
331
1F0
  5
1F2
331
1F6
  5
736
331
1F7
  5
737
331
1F8
  5
738
331
1F9
  5
739
331
1FA
  5
73A
331
1FB
  5
73B
331
1FC
  5
73C
331
1FD
  5
73D
331
1FE
  5
73E
331
1FF
  5
73F
331
200
  5
740
331
201
  5
741
331
202
  5
742
331
203
  5
743
331
204
  5
744
331
205
  5
745
331
206
  5
746
331
207
  5
747
331
208
  5
748
331
209
  5
749
331
20A
  5
74A
331
20B
  5
74B
331
20C
  5
74C
331
20D
  5
74D
331
20E
  5
74E
331
20F
  5
74F
331
210
  5
750
331
211
  5
2F6
331
212
  5
2F7
331
213
  5
1F6
331
214
  5
1F7
331
215
  5
1F8
331
216
  5
1F9
331
217
  5
1FA
331
218
  5
1FB
331
219
  5
1FC
331
22E
  5
25B
331
232
  5
291
331
233
  5
29D
331
234
  5
2AA
331
235
  5
2B7
331
237
  5
2CA
331
238
  5
2D9
331
2B7
  5
713
331
2D9
  5
723
331
2DA
  5
724
331
2EC
  5
72C
331
6EA
  5
20E
331
6EB
  5
212
331
6EC
  5
213
331
6ED
  5
214
331
6EE
  5
215
331
6EF
  5
217
331
6F0
  5
218
331
6F1
  5
225
331
6F2
  5
228
331
6F3
  5
229
331
6F4
  5
22D
331
6F5
  5
235
331
6F6
  5
236
331
6F7
  5
237
331
6F8
  5
238
331
6F9
  5
239
331
6FA
  5
24E
331
6FB
  5
26A
331
6FC
  5
279
331
6FD
  5
285
331
6FE
  5
2B8
331
6FF
  5
2DA
331
700
  5
2DB
331
701
  5
2EA
331
702
  5
2EB
331
703
  5
2EC
331
704
  5
2ED
331
705
  5
2F0
331
706
  5
2F1
331
707
  5
2F2
331
708
  5
2F3
331
709
  5
6EA
331
70A
  5
6EB
331
70B
  5
6EC
331
70C
  5
6ED
331
70D
  5
6EE
331
70E
  5
6EF
331
70F
  5
6F0
331
710
  5
6F1
331
711
  5
6F2
331
712
  5
6F3
331
713
  5
6F4
331
714
  5
6F5
331
715
  5
6F6
331
716
  5
6F7
331
717
  5
6F8
331
718
  5
6F9
331
719
  5
6FA
331
71A
  5
6FB
331
71B
  5
6FC
331
71C
  5
6FD
331
71D
  5
6FE
331
71E
  5
6FF
331
71F
  5
700
331
720
  5
701
331
721
  5
702
331
722
  5
703
331
723
  5
704
331
724
  5
705
331
725
  5
706
331
726
  5
707
331
727
  5
708
331
728
  5
709
331
729
  5
70A
331
72A
  5
70B
331
72B
  5
70C
331
72C
  5
70D
331
72D
  5
70E
331
72E
  5
70F
331
72F
  5
710
331
730
  5
711
331
731
  5
712
331
732
  5
714
331
733
  5
715
331
734
  5
716
331
735
  5
717
331
736
  5
718
331
737
  5
719
331
738
  5
71A
331
739
  5
71B
331
73A
  5
71C
331
73B
  5
71D
331
73C
  5
71E
331
73D
  5
71F
331
73E
  5
720
331
73F
  5
721
331
740
  5
722
331
741
  5
725
331
742
  5
726
331
743
  5
727
331
744
  5
728
331
745
  5
729
331
746
  5
72A
331
747
  5
72B
331
748
  5
72D
331
749
  5
72E
331
74A
  5
72F
331
74B
  5
730
331
74C
  5
731
331
74D
  5
732
331
74E
  5
733
331
74F
  5
734
331
750
  5
735
  0
SORTENTSTABLE
  5
4C6
102
{ACAD_REACTORS
330
82
102
}
330
82
100
AcDbSortentsTable
330
81
  0
XRECORD
  5
7B0
102
{ACAD_REACTORS
330
7AF
102
}
330
7AF
100
AcDbXrecord
280
     1
 40
2394.0
  1
\U+220536
  0
XRECORD
  5
7AE
102
{ACAD_REACTORS
330
7AD
102
}
330
7AD
100
AcDbXrecord
280
     1
 40
2402.0
  1
\U+220546
  0
XRECORD
  5
6DE
102
{ACAD_REACTORS
330
6DD
102
}
330
6DD
100
AcDbXrecord
280
     1
 90
        1
340
43
  0
XRECORD
  5
75B
102
{ACAD_REACTORS
330
759
102
}
330
759
100
AcDbXrecord
280
     1
 70
     1
  0
XRECORD
  5
75A
102
{ACAD_REACTORS
330
759
102
}
330
759
100
AcDbXrecord
280
     1
 40
1.25
  0
XRECORD
  5
75C
102
{ACAD_REACTORS
330
759
102
}
330
759
100
AcDbXrecord
280
     1
 40
1.570796326794896
  0
XRECORD
  5
75E
102
{ACAD_REACTORS
330
759
102
}
330
759
100
AcDbXrecord
280
     1
340
5C
  0
XRECORD
  5
75F
102
{ACAD_REACTORS
330
759
102
}
330
759
100
AcDbXrecord
280
     1
340
5C
  0
XRECORD
  5
75D
102
{ACAD_REACTORS
330
759
102
}
330
759
100
AcDbXrecord
280
     1
340
5C
  0
ACDBDETAILVIEWSTYLE
  5
6B
102
{ACAD_XDICTIONARY
360
7A1
102
}
102
{ACAD_REACTORS
330
6A
102
}
330
6A
100
AcDbModelDocViewStyle
 70
     0
  3
Imperial24
290
     0
100
AcDbDetailViewStyle
 70
     0
 71
     0
 90
        3
 71
     1
340
55
 62
   256
 40
0.24
340
0
 62
   256
 40
0.24
300

 40
0.36
280
     3
 71
     2
340
5D
 90
       25
 62
   256
 71
     3
340
55
 62
   256
 40
0.24
 90
        1
 40
0.75
 90
        1
300
%<\AcVar ViewType \f "%tc1">% %<\AcVar ViewDetailId>%\PSCALE %<\AcVar ViewScale \f "%sn">%
 71
     4
340
5D
 90
       25
 62
   256
340
5D
 90
       25
 62
   256
280
     0
  0
ACDBDETAILVIEWSTYLE
  5
540
102
{ACAD_XDICTIONARY
360
7AB
102
}
102
{ACAD_REACTORS
330
6A
102
}
330
6A
100
AcDbModelDocViewStyle
 70
     0
  3
Metric50
290
     0
100
AcDbDetailViewStyle
 70
     0
 71
     0
 90
        3
 71
     1
340
55
 62
   256
 40
5.0
340
0
 62
   256
 40
5.0
300

 40
0.0
280
     1
 71
     2
340
5D
 90
       25
 62
   256
 71
     3
340
55
 62
   256
 40
5.0
 90
        0
 40
15.0
 90
        1
300
%<\AcVar ViewDetailId>% (%<\AcVar ViewScale \f "%sn">%)
 71
     4
340
5D
 90
       25
 62
   256
340
5D
 90
       25
 62
   256
280
     0
  0
LAYOUT
  5
73
102
{ACAD_REACTORS
330
62
102
}
330
62
100
AcDbPlotSettings
  1

  2
FF W001 for DocuWide 3037
  4
psk:ISOA3
  6

 40
0.0
 41
0.0
 42
0.0
 43
0.0
 44
297.0
 45
420.0
 46
0.0
 47
0.0
 48
0.0
 49
0.0
140
0.0
141
0.0
142
1.0
143
1.159682212614535
 70
 11952
 72
     1
 73
     1
 74
     0
  7
印刷_1.stb
 75
     0
147
0.8623051980296157
 76
     0
 77
     2
 78
   300
148
33.53326491995208
149
1.014150798149955
100
AcDbLayout
  1
Model
 70
     1
 71
     0
 10
0.0
 20
0.0
 11
12.0
 21
9.0
 12
0.0
 22
0.0
 32
0.0
 14
0.0
 24
0.0
 34
0.0
 15
0.0
 25
0.0
 35
0.0
146
0.0
 13
0.0
 23
0.0
 33
0.0
 16
1.0
 26
0.0
 36
0.0
 17
0.0
 27
1.0
 37
0.0
 76
     0
330
70
331
57
1001
ACAD_PSEXT
1000
FF W001 for DocuWide 3037
1000
FF W001 for DocuWide 3037
1000
192.168.5.100:plt00t
1000

1070
     0
  0
LAYOUT
  5
6F
102
{ACAD_REACTORS
330
62
102
}
330
62
100
AcDbPlotSettings
  1

  2
FF W001 for DocuWide 3037
  4
psk:ISOA4
  6

 40
0.0
 41
0.0
 42
0.0
 43
0.0
 44
210.0
 45
297.0
 46
0.0
 47
0.0
 48
0.0
 49
0.0
140
0.0
141
0.0
142
1.0
143
1.0
 70
   688
 72
     1
 73
     1
 74
     5
  7

 75
    16
147
1.0
 76
     0
 77
     2
 78
   300
148
0.0
149
0.0
100
AcDbLayout
  1
レイアウト1
 70
     1
 71
     1
 10
0.0
 20
0.0
 11
297.0
 21
210.0
 12
0.0
 22
0.0
 32
0.0
 14
29.69999999999999
 24
21.0
 34
0.0
 15
267.3
 25
189.0
 35
0.0
146
0.0
 13
0.0
 23
0.0
 33
0.0
 16
1.0
 26
0.0
 36
0.0
 17
0.0
 27
1.0
 37
0.0
 76
     0
330
6C
331
6DC
1001
ACAD_PSEXT
1000
FF W001 for DocuWide 3037
1000
FF W001 for DocuWide 3037
1000
192.168.5.100:plt00t
1000

1070
     0
  0
MATERIAL
  5
19
102
{ACAD_XDICTIONARY
360
1A
102
}
102
{ACAD_REACTORS
330
10
102
}
330
10
100
AcDbMaterial
  1
ByBlock
 72
     0
 43
0.0208333333333333
 43
0.0
 43
0.0
 43
0.0
 43
0.0
 43
0.0208333333333333
 43
0.0
 43
0.0
 43
0.0
 43
0.0
 43
1.0
 43
0.0
 43
0.0
 43
0.0
 43
0.0
 43
1.0
 77
     0
 47
0.0208333333333333
 47
0.0
 47
0.0
 47
0.0
 47
0.0
 47
0.0208333333333333
 47
0.0
 47
0.0
 47
0.0
 47
0.0
 47
1.0
 47
0.0
 47
0.0
 47
0.0
 47
0.0
 47
1.0
171
     0
 49
0.0208333333333333
 49
0.0
 49
0.0
 49
0.0
 49
0.0
 49
0.0208333333333333
 49
0.0
 49
0.0
 49
0.0
 49
0.0
 49
1.0
 49
0.0
 49
0.0
 49
0.0
 49
0.0
 49
1.0
175
     0
142
0.0208333333333333
142
0.0
142
0.0
142
0.0
142
0.0
142
0.0208333333333333
142
0.0
142
0.0
142
0.0
142
0.0
142
1.0
142
0.0
142
0.0
142
0.0
142
0.0
142
1.0
179
     0
144
0.0208333333333333
144
0.0
144
0.0
144
0.0
144
0.0
144
0.0208333333333333
144
0.0
144
0.0
144
0.0
144
0.0
144
1.0
144
0.0
144
0.0
144
0.0
144
0.0
144
1.0
147
0.0208333333333333
147
0.0
147
0.0
147
0.0
147
0.0
147
0.0208333333333333
147
0.0
147
0.0
147
0.0
147
0.0
147
1.0
147
0.0
147
0.0
147
0.0
147
0.0
147
1.0
  0
MATERIAL
  5
11
102
{ACAD_XDICTIONARY
360
12
102
}
102
{ACAD_REACTORS
330
10
102
}
330
10
100
AcDbMaterial
  1
ByLayer
 72
     0
 43
0.0208333333333333
 43
0.0
 43
0.0
 43
0.0
 43
0.0
 43
0.0208333333333333
 43
0.0
 43
0.0
 43
0.0
 43
0.0
 43
1.0
 43
0.0
 43
0.0
 43
0.0
 43
0.0
 43
1.0
 77
     0
 47
0.0208333333333333
 47
0.0
 47
0.0
 47
0.0
 47
0.0
 47
0.0208333333333333
 47
0.0
 47
0.0
 47
0.0
 47
0.0
 47
1.0
 47
0.0
 47
0.0
 47
0.0
 47
0.0
 47
1.0
171
     0
 49
0.0208333333333333
 49
0.0
 49
0.0
 49
0.0
 49
0.0
 49
0.0208333333333333
 49
0.0
 49
0.0
 49
0.0
 49
0.0
 49
1.0
 49
0.0
 49
0.0
 49
0.0
 49
0.0
 49
1.0
175
     0
142
0.0208333333333333
142
0.0
142
0.0
142
0.0
142
0.0
142
0.0208333333333333
142
0.0
142
0.0
142
0.0
142
0.0
142
1.0
142
0.0
142
0.0
142
0.0
142
0.0
142
1.0
179
     0
144
0.0208333333333333
144
0.0
144
0.0
144
0.0
144
0.0
144
0.0208333333333333
144
0.0
144
0.0
144
0.0
144
0.0
144
1.0
144
0.0
144
0.0
144
0.0
144
0.0
144
1.0
147
0.0208333333333333
147
0.0
147
0.0
147
0.0
147
0.0
147
0.0208333333333333
147
0.0
147
0.0
147
0.0
147
0.0
147
1.0
147
0.0
147
0.0
147
0.0
147
0.0
147
1.0
  0
MATERIAL
  5
21
102
{ACAD_XDICTIONARY
360
22
102
}
102
{ACAD_REACTORS
330
10
102
}
330
10
100
AcDbMaterial
  1
Global
 72
     0
 43
0.0208333333333333
 43
0.0
 43
0.0
 43
0.0
 43
0.0
 43
0.0208333333333333
 43
0.0
 43
0.0
 43
0.0
 43
0.0
 43
1.0
 43
0.0
 43
0.0
 43
0.0
 43
0.0
 43
1.0
 77
     0
 47
0.0208333333333333
 47
0.0
 47
0.0
 47
0.0
 47
0.0
 47
0.0208333333333333
 47
0.0
 47
0.0
 47
0.0
 47
0.0
 47
1.0
 47
0.0
 47
0.0
 47
0.0
 47
0.0
 47
1.0
171
     0
 49
0.0208333333333333
 49
0.0
 49
0.0
 49
0.0
 49
0.0
 49
0.0208333333333333
 49
0.0
 49
0.0
 49
0.0
 49
0.0
 49
1.0
 49
0.0
 49
0.0
 49
0.0
 49
0.0
 49
1.0
175
     0
142
0.0208333333333333
142
0.0
142
0.0
142
0.0
142
0.0
142
0.0208333333333333
142
0.0
142
0.0
142
0.0
142
0.0
142
1.0
142
0.0
142
0.0
142
0.0
142
0.0
142
1.0
179
     0
144
0.0208333333333333
144
0.0
144
0.0
144
0.0
144
0.0
144
0.0208333333333333
144
0.0
144
0.0
144
0.0
144
0.0
144
1.0
144
0.0
144
0.0
144
0.0
144
0.0
144
1.0
147
0.0208333333333333
147
0.0
147
0.0
147
0.0
147
0.0
147
0.0208333333333333
147
0.0
147
0.0
147
0.0
147
0.0
147
1.0
147
0.0
147
0.0
147
0.0
147
0.0
147
1.0
  0
MLEADERSTYLE
  5
67
102
{ACAD_XDICTIONARY
360
79D
102
}
102
{ACAD_REACTORS
330
66
102
}
330
66
100
AcDbMLeaderStyle
170
     2
171
     1
172
     0
 90
        2
 40
0.0
 41
0.0
173
     1
 91
-1056964608
340
5B
 92
       -2
290
     1
 42
0.09
291
     1
 43
0.36
  3
Standard
 44
0.18
300

342
55
174
     1
178
     6
175
     1
176
     0
 93
-1056964608
 45
0.18
292
     0
297
     0
 46
0.18
 94
-1056964608
 47
1.0
 49
1.0
140
1.0
293
     1
141
0.0
294
     1
177
     0
142
1.0
295
     0
296
     0
143
0.125
1001
ACAD_MLEADERVER
1070
     2
  0
MLINESTYLE
  5
60
102
{ACAD_REACTORS
330
5F
102
}
330
5F
100
AcDbMlineStyle
  2
STANDARD
 70
     0
  3

 62
   256
 51
90.0
 52
90.0
 71
     2
 49
0.5
 62
   256
  6
BYLAYER
 49
-0.5
 62
   256
  6
BYLAYER
  0
ACDBPLACEHOLDER
  5
F
102
{ACAD_REACTORS
330
E
102
}
330
E
  0
ACDBPLACEHOLDER
  5
85
102
{ACAD_REACTORS
330
E
102
}
330
E
  0
SCALE
  5
43
102
{ACAD_REACTORS
330
42
102
}
330
42
100
AcDbScale
 70
     0
300
1:1
140
1.0
141
1.0
290
     1
  0
SCALE
  5
44
102
{ACAD_REACTORS
330
42
102
}
330
42
100
AcDbScale
 70
     0
300
1:2
140
1.0
141
2.0
290
     0
  0
SCALE
  5
45
102
{ACAD_REACTORS
330
42
102
}
330
42
100
AcDbScale
 70
     0
300
1:4
140
1.0
141
4.0
290
     0
  0
SCALE
  5
46
102
{ACAD_REACTORS
330
42
102
}
330
42
100
AcDbScale
 70
     0
300
1:5
140
1.0
141
5.0
290
     0
  0
SCALE
  5
47
102
{ACAD_REACTORS
330
42
102
}
330
42
100
AcDbScale
 70
     0
300
1:8
140
1.0
141
8.0
290
     0
  0
SCALE
  5
48
102
{ACAD_REACTORS
330
42
102
}
330
42
100
AcDbScale
 70
     0
300
1:10
140
1.0
141
10.0
290
     0
  0
SCALE
  5
49
102
{ACAD_REACTORS
330
42
102
}
330
42
100
AcDbScale
 70
     0
300
1:16
140
1.0
141
16.0
290
     0
  0
SCALE
  5
4A
102
{ACAD_REACTORS
330
42
102
}
330
42
100
AcDbScale
 70
     0
300
1:20
140
1.0
141
20.0
290
     0
  0
SCALE
  5
4B
102
{ACAD_REACTORS
330
42
102
}
330
42
100
AcDbScale
 70
     0
300
1:30
140
1.0
141
30.0
290
     0
  0
SCALE
  5
4C
102
{ACAD_REACTORS
330
42
102
}
330
42
100
AcDbScale
 70
     0
300
1:40
140
1.0
141
40.0
290
     0
  0
SCALE
  5
4D
102
{ACAD_REACTORS
330
42
102
}
330
42
100
AcDbScale
 70
     0
300
1:50
140
1.0
141
50.0
290
     0
  0
SCALE
  5
4E
102
{ACAD_REACTORS
330
42
102
}
330
42
100
AcDbScale
 70
     0
300
1:100
140
1.0
141
100.0
290
     0
  0
SCALE
  5
4F
102
{ACAD_REACTORS
330
42
102
}
330
42
100
AcDbScale
 70
     0
300
2:1
140
2.0
141
1.0
290
     0
  0
SCALE
  5
50
102
{ACAD_REACTORS
330
42
102
}
330
42
100
AcDbScale
 70
     0
300
4:1
140
4.0
141
1.0
290
     0
  0
SCALE
  5
51
102
{ACAD_REACTORS
330
42
102
}
330
42
100
AcDbScale
 70
     0
300
8:1
140
8.0
141
1.0
290
     0
  0
SCALE
  5
52
102
{ACAD_REACTORS
330
42
102
}
330
42
100
AcDbScale
 70
     0
300
10:1
140
10.0
141
1.0
290
     0
  0
SCALE
  5
53
102
{ACAD_REACTORS
330
42
102
}
330
42
100
AcDbScale
 70
     0
300
100:1
140
100.0
141
1.0
290
     0
  0
ACDBSECTIONVIEWSTYLE
  5
69
102
{ACAD_XDICTIONARY
360
79F
102
}
102
{ACAD_REACTORS
330
68
102
}
330
68
100
AcDbModelDocViewStyle
 70
     0
  3
Imperial24
290
     0
100
AcDbSectionViewStyle
 70
     0
 71
     0
 90
       78
 71
     1
340
55
 62
   256
 40
0.24
340
0
340
0
 62
   256
 40
0.24
300
I, O, Q, S, X, Z
 40
0.48
 90
        3
 40
0.18
 90
        1
 71
     2
340
5D
 90
       25
 62
   256
340
5D
 90
       50
 62
   256
 40
0.24
 40
0.0
 40
0.24
 71
     3
340
55
 62
   256
 40
0.24
 90
        1
 40
0.75
 90
        1
300
%<\AcVar ViewType \f "%tc1">% %<\AcVar ViewSectionStartId>%-%<\AcVar ViewSectionEndId>%\PSCALE %<\AcVar ViewScale \f "%sn">%
 71
     4
 62
   256
 62
   257
300
ANSI31
 40
1.0
 90
        0
290
     0
290
     0
 90
        6
 40
0.0
 40
1.570796326794896
 40
0.2617993877991494
 40
1.308996938995747
 40
-0.2617993877991494
 40
1.832595714594046
  0
ACDBSECTIONVIEWSTYLE
  5
53F
102
{ACAD_XDICTIONARY
360
7A9
102
}
102
{ACAD_REACTORS
330
68
102
}
330
68
100
AcDbModelDocViewStyle
 70
     0
  3
Metric50
290
     0
100
AcDbSectionViewStyle
 70
     0
 71
     0
 90
      102
 71
     1
340
55
 62
   256
 40
5.0
340
0
340
0
 62
   256
 40
5.0
300
I, O, Q, S, X, Z
 40
10.0
 90
        0
 40
2.5
 90
        0
 71
     2
340
5D
 90
       25
 62
   256
340
5D
 90
       50
 62
   256
 40
5.0
 40
2.5
 40
5.0
 71
     3
340
55
 62
   256
 40
5.0
 90
        0
 40
15.0
 90
        1
300
%<\AcVar ViewSectionStartId>%-%<\AcVar ViewSectionEndId>% (%<\AcVar ViewScale \f "%sn">%)
 71
     4
 62
   256
 62
   257
300
ANSI31
 40
1.0
 90
        0
290
     0
290
     0
 90
        6
 40
0.0
 40
1.570796326794896
 40
0.2617993877991494
 40
1.308996938995747
 40
-0.2617993877991494
 40
1.832595714594046
  0
TABLESTYLE
  5
65
102
{ACAD_XDICTIONARY
360
756
102
}
102
{ACAD_REACTORS
330
64
102
}
330
64
100
AcDbTableStyle
  3
Standard
 70
     0
 71
     3
 40
1.5
 41
1.5
280
     0
281
     0
  7
Standard
140
4.5
170
     2
 62
     0
 63
     7
283
     0
274
    -2
284
     1
 64
     0
275
    -2
285
     1
 65
     0
276
    -2
286
     1
 66
     0
277
    -2
287
     1
 67
     0
278
    -2
288
     1
 68
     0
279
    -2
289
     1
 69
     0
  7
Standard
140
6.0
170
     5
 62
     0
 63
     7
283
     0
274
    -2
284
     1
 64
     0
275
    -2
285
     1
 65
     0
276
    -2
286
     1
 66
     0
277
    -2
287
     1
 67
     0
278
    -2
288
     1
 68
     0
279
    -2
289
     1
 69
     0
  7
Standard
140
4.5
170
     5
 62
     0
 63
     7
283
     0
274
    -2
284
     1
 64
     0
275
    -2
285
     1
 65
     0
276
    -2
286
     1
 66
     0
277
    -2
287
     1
 67
     0
278
    -2
288
     1
 68
     0
279
    -2
289
     1
 69
     0
  0
VISUALSTYLE
  5
2F
102
{ACAD_XDICTIONARY
360
775
102
}
102
{ACAD_REACTORS
330
29
102
}
330
29
100
AcDbVisualStyle
  2
2dWireframe
 70
     4
 71
     0
 72
     2
 73
     0
 90
        0
 40
-0.6
 41
-30.0
 62
     5
 63
     7
421
 16777215
 74
     1
 91
        4
 64
     7
 65
   257
 75
     1
175
     1
 42
1.0
 92
        0
 66
   257
 43
1.0
 76
     1
 77
     6
 78
     2
 67
     7
 79
     5
170
     0
171
     0
290
     0
174
     0
 93
        1
 44
0.0
173
     0
291
     0
 45
0.0
1001
ACAD
1000
AcDbSavedByObjectVersion
1070
     0
  0
VISUALSTYLE
  5
2E
102
{ACAD_XDICTIONARY
360
773
102
}
102
{ACAD_REACTORS
330
29
102
}
330
29
100
AcDbVisualStyle
  2
Basic
 70
     7
 71
     1
 72
     0
 73
     1
 90
        0
 40
-0.6
 41
-30.0
 62
     5
 63
     7
421
 16777215
 74
     0
 91
        4
 64
     7
 65
   257
 75
     1
175
     1
 42
1.0
 92
        8
 66
     7
 43
1.0
 76
     1
 77
     6
 78
     2
 67
     7
 79
     5
170
     0
171
     0
290
     0
174
     0
 93
        1
 44
0.0
173
     0
291
     1
 45
0.0
1001
ACAD
1000
AcDbSavedByObjectVersion
1070
     0
  0
VISUALSTYLE
  5
35
102
{ACAD_XDICTIONARY
360
781
102
}
102
{ACAD_REACTORS
330
29
102
}
330
29
100
AcDbVisualStyle
  2
Brighten
 70
    12
 71
     2
 72
     2
 73
     0
 90
        0
 40
-0.6
 41
-30.0
 62
     5
 63
     7
421
 16777215
 74
     1
 91
        4
 64
     7
 65
   257
 75
     1
175
     1
 42
1.0
 92
        8
 66
     7
 43
1.0
 76
     1
 77
     6
 78
     2
 67
     7
 79
     5
170
     0
171
     0
290
     0
174
     0
 93
        1
 44
50.0
173
     0
291
     1
 45
0.0
1001
ACAD
1000
AcDbSavedByObjectVersion
1070
     0
  0
VISUALSTYLE
  5
39
102
{ACAD_XDICTIONARY
360
789
102
}
102
{ACAD_REACTORS
330
29
102
}
330
29
100
AcDbVisualStyle
  2
ColorChange
 70
    16
 71
     2
 72
     2
 73
     3
 90
        0
 40
-0.6
 41
-30.0
 62
     5
 63
     8
421
  8421504
 74
     1
 91
        4
 64
     7
 65
   257
 75
     1
175
     1
 42
1.0
 92
        8
 66
     8
424
  8421504
 43
1.0
 76
     1
 77
     6
 78
     2
 67
     7
 79
     5
170
     0
171
     0
290
     0
174
     0
 93
        1
 44
0.0
173
     0
291
     1
 45
0.0
1001
ACAD
1000
AcDbSavedByObjectVersion
1070
     0
  0
VISUALSTYLE
  5
32
102
{ACAD_XDICTIONARY
360
77B
102
}
102
{ACAD_REACTORS
330
29
102
}
330
29
100
AcDbVisualStyle
  2
Conceptual
 70
     9
 71
     3
 72
     2
 73
     0
 90
        0
 40
-0.6
 41
-30.0
 62
     5
 63
     7
421
 16777215
 74
     2
 91
        2
 64
     7
 65
   257
 75
     1
175
     1
 42
179.0
 92
        8
 66
     7
 43
1.0
 76
     1
 77
     6
 78
     2
 67
     7
 79
     3
170
     0
171
     0
290
     0
174
     0
 93
        1
 44
0.0
173
     0
291
     0
 45
0.0
1001
ACAD
1000
AcDbSavedByObjectVersion
1070
     0
  0
VISUALSTYLE
  5
34
102
{ACAD_XDICTIONARY
360
77F
102
}
102
{ACAD_REACTORS
330
29
102
}
330
29
100
AcDbVisualStyle
  2
Dim
 70
    11
 71
     2
 72
     2
 73
     0
 90
        0
 40
-0.6
 41
-30.0
 62
     5
 63
     7
421
 16777215
 74
     1
 91
        4
 64
     7
 65
   257
 75
     1
175
     1
 42
1.0
 92
        8
 66
     7
 43
1.0
 76
     1
 77
     6
 78
     2
 67
     7
 79
     5
170
     0
171
     0
290
     0
174
     0
 93
        1
 44
-50.0
173
     0
291
     1
 45
0.0
1001
ACAD
1000
AcDbSavedByObjectVersion
1070
     0
  0
VISUALSTYLE
  5
41
102
{ACAD_XDICTIONARY
360
799
102
}
102
{ACAD_REACTORS
330
29
102
}
330
29
100
AcDbVisualStyle
  2
EdgeColorOff
 70
    22
 71
     2
 72
     2
 73
     0
 90
        0
 40
-0.6
 41
-30.0
 62
     5
 63
     7
421
 16777215
 74
     1
 91
        4
 64
     7
 65
   257
 75
     1
175
     1
 42
1.0
 92
        8
 66
     7
 43
1.0
 76
     1
 77
     6
 78
     2
 67
     7
 79
     5
170
     0
171
     0
290
     0
174
     0
 93
        1
 44
0.0
173
     0
291
     1
 45
0.0
1001
ACAD
1000
AcDbSavedByObjectVersion
1070
     0
  0
VISUALSTYLE
  5
38
102
{ACAD_XDICTIONARY
360
787
102
}
102
{ACAD_REACTORS
330
29
102
}
330
29
100
AcDbVisualStyle
  2
Facepattern
 70
    15
 71
     2
 72
     2
 73
     0
 90
        0
 40
-0.6
 41
-30.0
 62
     5
 63
     7
421
 16777215
 74
     1
 91
        4
 64
     7
 65
   257
 75
     1
175
     1
 42
1.0
 92
        8
 66
     7
 43
1.0
 76
     1
 77
     6
 78
     2
 67
     7
 79
     5
170
     0
171
     0
290
     0
174
     0
 93
        1
 44
0.0
173
     0
291
     1
 45
0.0
1001
ACAD
1000
AcDbSavedByObjectVersion
1070
     0
  0
VISUALSTYLE
  5
2A
102
{ACAD_XDICTIONARY
360
76B
102
}
102
{ACAD_REACTORS
330
29
102
}
330
29
100
AcDbVisualStyle
  2
Flat
 70
     0
 71
     2
 72
     1
 73
     1
 90
        2
 40
-0.6
 41
30.0
 62
     5
 63
     7
421
 16777215
 74
     0
 91
        0
 64
     7
 65
   257
 75
     1
175
     1
 42
1.0
 92
        8
 66
     7
 43
1.0
 76
     1
 77
     6
 78
     2
 67
     7
 79
     5
170
     0
171
     0
290
     0
174
     0
 93
       13
 44
0.0
173
     0
291
     1
 45
0.0
1001
ACAD
1000
AcDbSavedByObjectVersion
1070
     0
  0
VISUALSTYLE
  5
2B
102
{ACAD_XDICTIONARY
360
76D
102
}
102
{ACAD_REACTORS
330
29
102
}
330
29
100
AcDbVisualStyle
  2
FlatWithEdges
 70
     1
 71
     2
 72
     1
 73
     1
 90
        2
 40
-0.6
 41
30.0
 62
     5
 63
     7
421
 16777215
 74
     1
 91
        0
 64
     7
 65
   257
 75
     1
175
     1
 42
1.0
 92
        0
 66
   257
 43
1.0
 76
     1
 77
     6
 78
     2
 67
     7
 79
     5
170
     0
171
     0
290
     0
174
     0
 93
       13
 44
0.0
173
     0
291
     1
 45
0.0
1001
ACAD
1000
AcDbSavedByObjectVersion
1070
     0
  0
VISUALSTYLE
  5
2C
102
{ACAD_XDICTIONARY
360
76F
102
}
102
{ACAD_REACTORS
330
29
102
}
330
29
100
AcDbVisualStyle
  2
Gouraud
 70
     2
 71
     2
 72
     2
 73
     1
 90
        2
 40
-0.6
 41
30.0
 62
     5
 63
     7
421
 16777215
 74
     0
 91
        0
 64
     7
 65
   257
 75
     1
175
     1
 42
1.0
 92
        0
 66
     7
 43
1.0
 76
     1
 77
     6
 78
     2
 67
     7
 79
     5
170
     0
171
     0
290
     0
174
     0
 93
       13
 44
0.0
173
     0
291
     1
 45
0.0
1001
ACAD
1000
AcDbSavedByObjectVersion
1070
     0
  0
VISUALSTYLE
  5
2D
102
{ACAD_XDICTIONARY
360
771
102
}
102
{ACAD_REACTORS
330
29
102
}
330
29
100
AcDbVisualStyle
  2
GouraudWithEdges
 70
     3
 71
     2
 72
     2
 73
     1
 90
        2
 40
-0.6
 41
30.0
 62
     5
 63
     7
421
 16777215
 74
     1
 91
        0
 64
     7
 65
   257
 75
     1
175
     1
 42
1.0
 92
        0
 66
   257
 43
1.0
 76
     1
 77
     6
 78
     2
 67
     7
 79
     5
170
     0
171
     0
290
     0
174
     0
 93
       13
 44
0.0
173
     0
291
     1
 45
0.0
1001
ACAD
1000
AcDbSavedByObjectVersion
1070
     0
  0
VISUALSTYLE
  5
31
102
{ACAD_XDICTIONARY
360
779
102
}
102
{ACAD_REACTORS
330
29
102
}
330
29
100
AcDbVisualStyle
  2
Hidden
 70
     6
 71
     1
 72
     2
 73
     2
 90
        0
 40
-0.6
 41
-30.0
 62
     5
 63
     7
421
 16777215
 74
     2
 91
        2
 64
     7
 65
   257
 75
     2
175
     1
 42
40.0
 92
        0
 66
   257
 43
1.0
 76
     1
 77
     6
 78
     2
 67
     7
 79
     3
170
     0
171
     0
290
     0
174
     0
 93
        1
 44
0.0
173
     0
291
     0
 45
0.0
1001
ACAD
1000
AcDbSavedByObjectVersion
1070
     0
  0
VISUALSTYLE
  5
3F
102
{ACAD_XDICTIONARY
360
795
102
}
102
{ACAD_REACTORS
330
29
102
}
330
29
100
AcDbVisualStyle
  2
JitterOff
 70
    20
 71
     2
 72
     2
 73
     0
 90
        0
 40
-0.6
 41
-30.0
 62
     5
 63
     7
421
 16777215
 74
     1
 91
        4
 64
     7
 65
   257
 75
     1
175
     1
 42
1.0
 92
       10
 66
     7
 43
1.0
 76
     1
 77
     6
 78
     2
 67
     7
 79
     5
170
     0
171
     0
290
     0
174
     0
 93
        1
 44
0.0
173
     0
291
     1
 45
0.0
1001
ACAD
1000
AcDbSavedByObjectVersion
1070
     0
  0
VISUALSTYLE
  5
37
102
{ACAD_XDICTIONARY
360
785
102
}
102
{ACAD_REACTORS
330
29
102
}
330
29
100
AcDbVisualStyle
  2
Linepattern
 70
    14
 71
     2
 72
     2
 73
     0
 90
        0
 40
-0.6
 41
-30.0
 62
     5
 63
     7
421
 16777215
 74
     1
 91
        4
 64
     7
 65
   257
 75
     7
175
     7
 42
1.0
 92
        8
 66
     7
 43
1.0
 76
     1
 77
     6
 78
     2
 67
     7
 79
     5
170
     0
171
     0
290
     0
174
     0
 93
        1
 44
0.0
173
     0
291
     1
 45
0.0
1001
ACAD
1000
AcDbSavedByObjectVersion
1070
     0
  0
VISUALSTYLE
  5
40
102
{ACAD_XDICTIONARY
360
797
102
}
102
{ACAD_REACTORS
330
29
102
}
330
29
100
AcDbVisualStyle
  2
OverhangOff
 70
    21
 71
     2
 72
     2
 73
     0
 90
        0
 40
-0.6
 41
-30.0
 62
     5
 63
     7
421
 16777215
 74
     1
 91
        4
 64
     7
 65
   257
 75
     1
175
     1
 42
1.0
 92
        9
 66
     7
 43
1.0
 76
     1
 77
     6
 78
     2
 67
     7
 79
     5
170
     0
171
     0
290
     0
174
     0
 93
        1
 44
0.0
173
     0
291
     1
 45
0.0
1001
ACAD
1000
AcDbSavedByObjectVersion
1070
     0
  0
VISUALSTYLE
  5
33
102
{ACAD_XDICTIONARY
360
77D
102
}
102
{ACAD_REACTORS
330
29
102
}
330
29
100
AcDbVisualStyle
  2
Realistic
 70
     8
 71
     2
 72
     3
 73
     0
 90
        2
 40
-0.6
 41
30.0
 62
     5
 63
     7
421
 16777215
 74
     0
 91
        0
 64
     7
 65
   257
 75
     1
175
     1
 42
1.0
 92
        8
 66
   257
 43
1.0
 76
     1
 77
     6
 78
     2
 67
     7
 79
     3
170
     0
171
     0
290
     0
174
     0
 93
       13
 44
0.0
173
     0
291
     0
 45
0.0
1001
ACAD
1000
AcDbSavedByObjectVersion
1070
     0
  0
VISUALSTYLE
  5
3E
102
{ACAD_XDICTIONARY
360
793
102
}
102
{ACAD_REACTORS
330
29
102
}
330
29
100
AcDbVisualStyle
  2
Shaded
 70
    27
 71
     2
 72
     2
 73
     1
 90
        2
 40
-0.6
 41
30.0
 62
     5
 63
     7
421
 16777215
 74
     0
 91
        4
 64
     7
 65
   257
 75
     1
175
     1
 42
1.0
 92
        8
 66
   257
 43
1.0
 76
     1
 77
     6
 78
     2
 67
     8
425
  7895160
 79
     3
170
     0
171
     0
290
     0
174
     0
 93
        5
 44
0.0
173
     0
291
     0
 45
0.0
1001
ACAD
1000
AcDbSavedByObjectVersion
1070
     0
  0
VISUALSTYLE
  5
3D
102
{ACAD_XDICTIONARY
360
791
102
}
102
{ACAD_REACTORS
330
29
102
}
330
29
100
AcDbVisualStyle
  2
Shaded with edges
 70
    26
 71
     2
 72
     2
 73
     1
 90
        2
 40
-0.6
 41
30.0
 62
     5
 63
     7
421
 16777215
 74
     1
 91
        2
 64
     7
 65
   257
 75
     2
175
     1
 42
1.0
 92
        8
 66
   257
 43
1.0
 76
     1
 77
     6
 78
     2
 67
     7
 79
     3
170
     0
171
     0
290
     0
174
     0
 93
        5
 44
0.0
173
     0
291
     0
 45
0.0
1001
ACAD
1000
AcDbSavedByObjectVersion
1070
     0
  0
VISUALSTYLE
  5
3A
102
{ACAD_XDICTIONARY
360
78B
102
}
102
{ACAD_REACTORS
330
29
102
}
330
29
100
AcDbVisualStyle
  2
Shades of Gray
 70
    23
 71
     2
 72
     2
 73
     3
 90
        0
 40
-0.6
 41
-30.0
 62
     5
 63
     7
421
 16777215
 74
     2
 91
        2
 64
     7
 65
     7
 75
     1
175
     1
 42
40.0
 92
        8
 66
     7
 43
1.0
 76
     1
 77
     6
 78
     2
 67
     7
 79
     3
170
     0
171
     0
290
     0
174
     0
 93
        1
 44
0.0
173
     0
291
     0
 45
0.0
1001
ACAD
1000
AcDbSavedByObjectVersion
1070
     0
  0
VISUALSTYLE
  5
3B
102
{ACAD_XDICTIONARY
360
78D
102
}
102
{ACAD_REACTORS
330
29
102
}
330
29
100
AcDbVisualStyle
  2
Sketchy
 70
    24
 71
     1
 72
     2
 73
     2
 90
        0
 40
-0.6
 41
-30.0
 62
     5
 63
     7
421
 16777215
 74
     2
 91
        2
 64
     7
 65
     7
 75
     1
175
     1
 42
40.0
 92
       11
 66
     7
 43
1.0
 76
     1
 77
     6
 78
     2
 67
     7
 79
     6
170
     0
171
     0
290
     0
174
     0
 93
        1
 44
0.0
173
     0
291
     0
 45
0.0
1001
ACAD
1000
AcDbSavedByObjectVersion
1070
     0
  0
VISUALSTYLE
  5
36
102
{ACAD_XDICTIONARY
360
783
102
}
102
{ACAD_REACTORS
330
29
102
}
330
29
100
AcDbVisualStyle
  2
Thicken
 70
    13
 71
     2
 72
     2
 73
     0
 90
        0
 40
-0.6
 41
-30.0
 62
     5
 63
     7
421
 16777215
 74
     1
 91
        4
 64
     7
 65
   257
 75
     1
175
     1
 42
1.0
 92
       12
 66
     7
 43
1.0
 76
     1
 77
     6
 78
     2
 67
     7
 79
     5
170
     0
171
     0
290
     0
174
     0
 93
        1
 44
0.0
173
     0
291
     1
 45
0.0
1001
ACAD
1000
AcDbSavedByObjectVersion
1070
     0
  0
VISUALSTYLE
  5
30
102
{ACAD_XDICTIONARY
360
777
102
}
102
{ACAD_REACTORS
330
29
102
}
330
29
100
AcDbVisualStyle
  2
Wireframe
 70
     5
 71
     0
 72
     2
 73
     0
 90
        0
 40
-0.6
 41
-30.0
 62
     5
 63
     7
421
 16777215
 74
     1
 91
        4
 64
     7
 65
   257
 75
     1
175
     1
 42
1.0
 92
        0
 66
   257
 43
1.0
 76
     1
 77
     6
 78
     2
 67
     7
 79
     3
170
     0
171
     0
290
     0
174
     0
 93
        1
 44
0.0
173
     0
291
     0
 45
0.0
1001
ACAD
1000
AcDbSavedByObjectVersion
1070
     0
  0
VISUALSTYLE
  5
3C
102
{ACAD_XDICTIONARY
360
78F
102
}
102
{ACAD_REACTORS
330
29
102
}
330
29
100
AcDbVisualStyle
  2
X-Ray
 70
    25
 71
     2
 72
     2
 73
     1
 90
        1
 40
0.5
 41
-30.0
 62
     5
 63
     7
421
 16777215
 74
     1
 91
        0
 64
     7
 65
   257
 75
     1
175
     1
 42
1.0
 92
        8
 66
     7
 43
1.0
 76
     1
 77
     6
 78
     2
 67
     7
 79
     3
170
     0
171
     0
290
     0
174
     0
 93
       13
 44
0.0
173
     0
291
     0
 45
0.0
1001
ACAD
1000
AcDbSavedByObjectVersion
1070
     0
  0
DICTIONARYVAR
  5
539
102
{ACAD_REACTORS
330
533
102
}
330
533
100
DictionaryVariables
280
     0
  1
0
  0
DICTIONARYVAR
  5
53A
102
{ACAD_REACTORS
330
533
102
}
330
533
100
DictionaryVariables
280
     0
  1
1:1
  0
DICTIONARYVAR
  5
535
102
{ACAD_REACTORS
330
533
102
}
330
533
100
DictionaryVariables
280
     0
  1
STANDARD
  0
DICTIONARYVAR
  5
534
102
{ACAD_REACTORS
330
533
102
}
330
533
100
DictionaryVariables
280
     0
  1
STANDARD
  0
DICTIONARYVAR
  5
536
102
{ACAD_REACTORS
330
533
102
}
330
533
100
DictionaryVariables
280
     0
  1
Imperial24
  0
DICTIONARYVAR
  5
537
102
{ACAD_REACTORS
330
533
102
}
330
533
100
DictionaryVariables
280
     0
  1
Imperial24
  0
DICTIONARYVAR
  5
53C
102
{ACAD_REACTORS
330
533
102
}
330
533
100
DictionaryVariables
280
     0
  1
1
  0
DICTIONARYVAR
  5
53D
102
{ACAD_REACTORS
330
533
102
}
330
533
100
DictionaryVariables
280
     0
  1
15
  0
DICTIONARYVAR
  5
53B
102
{ACAD_REACTORS
330
533
102
}
330
533
100
DictionaryVariables
280
     0
  1
0
  0
DICTIONARYVAR
  5
538
102
{ACAD_REACTORS
330
533
102
}
330
533
100
DictionaryVariables
280
     0
  1
0
  0
DICTIONARY
  5
767
102
{ACAD_REACTORS
330
765
102
}
330
765
100
AcDbDictionary
281
     1
  0
DICTIONARY
  5
766
102
{ACAD_REACTORS
330
765
102
}
330
765
100
AcDbDictionary
281
     1
  3
3392360636032
350
760
  3
3392360636048
350
761
  3
3392360636064
350
762
  3
3392360636080
350
763
  3
3392360636096
350
764
  0
DICTIONARY
  5
7A1
330
6B
100
AcDbDictionary
280
     1
281
     1
  3
ACAD_XREC_ROUNDTRIP
360
7A2
  0
DICTIONARY
  5
7AB
330
540
100
AcDbDictionary
280
     1
281
     1
  3
ACAD_XREC_ROUNDTRIP
360
7AC
  0
DICTIONARY
  5
1A
330
19
100
AcDbDictionary
280
     1
281
     1
  3
ACAD_XREC_ROUNDTRIP
360
769
  3
BUMPTILE
360
1C
  3
DIFFUSETILE
360
1B
  3
OPACITYTILE
360
1F
  3
REFLECTIONTILE
360
1E
  3
REFRACTIONTILE
360
20
  3
SPECULARTILE
360
1D
  0
DICTIONARY
  5
12
330
11
100
AcDbDictionary
280
     1
281
     1
  3
ACAD_XREC_ROUNDTRIP
360
768
  3
BUMPTILE
360
14
  3
DIFFUSETILE
360
13
  3
OPACITYTILE
360
17
  3
REFLECTIONTILE
360
16
  3
REFRACTIONTILE
360
18
  3
SPECULARTILE
360
15
  0
DICTIONARY
  5
22
330
21
100
AcDbDictionary
280
     1
281
     1
  3
ACAD_XREC_ROUNDTRIP
360
76A
  3
BUMPTILE
360
24
  3
DIFFUSETILE
360
23
  3
OPACITYTILE
360
27
  3
REFLECTIONTILE
360
26
  3
REFRACTIONTILE
360
28
  3
SPECULARTILE
360
25
  0
DICTIONARY
  5
79D
330
67
100
AcDbDictionary
280
     1
281
     1
  3
ACAD_XREC_ROUNDTRIP
360
79E
  0
DICTIONARY
  5
79F
330
69
100
AcDbDictionary
280
     1
281
     1
  3
ACAD_XREC_ROUNDTRIP
360
7A0
  0
DICTIONARY
  5
7A9
330
53F
100
AcDbDictionary
280
     1
281
     1
  3
ACAD_XREC_ROUNDTRIP
360
7AA
  0
DICTIONARY
  5
756
330
65
100
AcDbDictionary
280
     1
281
     1
  3
ACAD_ROUNDTRIP_2008_TABLESTYLE_CELLSTYLEMAP
360
757
  3
ACAD_XREC_ROUNDTRIP
360
79B
  0
DICTIONARY
  5
775
330
2F
100
AcDbDictionary
280
     1
281
     1
  3
ACAD_XREC_ROUNDTRIP
360
776
  0
DICTIONARY
  5
773
330
2E
100
AcDbDictionary
280
     1
281
     1
  3
ACAD_XREC_ROUNDTRIP
360
774
  0
DICTIONARY
  5
781
330
35
100
AcDbDictionary
280
     1
281
     1
  3
ACAD_XREC_ROUNDTRIP
360
782
  0
DICTIONARY
  5
789
330
39
100
AcDbDictionary
280
     1
281
     1
  3
ACAD_XREC_ROUNDTRIP
360
78A
  0
DICTIONARY
  5
77B
330
32
100
AcDbDictionary
280
     1
281
     1
  3
ACAD_XREC_ROUNDTRIP
360
77C
  0
DICTIONARY
  5
77F
330
34
100
AcDbDictionary
280
     1
281
     1
  3
ACAD_XREC_ROUNDTRIP
360
780
  0
DICTIONARY
  5
799
330
41
100
AcDbDictionary
280
     1
281
     1
  3
ACAD_XREC_ROUNDTRIP
360
79A
  0
DICTIONARY
  5
787
330
38
100
AcDbDictionary
280
     1
281
     1
  3
ACAD_XREC_ROUNDTRIP
360
788
  0
DICTIONARY
  5
76B
330
2A
100
AcDbDictionary
280
     1
281
     1
  3
ACAD_XREC_ROUNDTRIP
360
76C
  0
DICTIONARY
  5
76D
330
2B
100
AcDbDictionary
280
     1
281
     1
  3
ACAD_XREC_ROUNDTRIP
360
76E
  0
DICTIONARY
  5
76F
330
2C
100
AcDbDictionary
280
     1
281
     1
  3
ACAD_XREC_ROUNDTRIP
360
770
  0
DICTIONARY
  5
771
330
2D
100
AcDbDictionary
280
     1
281
     1
  3
ACAD_XREC_ROUNDTRIP
360
772
  0
DICTIONARY
  5
779
330
31
100
AcDbDictionary
280
     1
281
     1
  3
ACAD_XREC_ROUNDTRIP
360
77A
  0
DICTIONARY
  5
795
330
3F
100
AcDbDictionary
280
     1
281
     1
  3
ACAD_XREC_ROUNDTRIP
360
796
  0
DICTIONARY
  5
785
330
37
100
AcDbDictionary
280
     1
281
     1
  3
ACAD_XREC_ROUNDTRIP
360
786
  0
DICTIONARY
  5
797
330
40
100
AcDbDictionary
280
     1
281
     1
  3
ACAD_XREC_ROUNDTRIP
360
798
  0
DICTIONARY
  5
77D
330
33
100
AcDbDictionary
280
     1
281
     1
  3
ACAD_XREC_ROUNDTRIP
360
77E
  0
DICTIONARY
  5
793
330
3E
100
AcDbDictionary
280
     1
281
     1
  3
ACAD_XREC_ROUNDTRIP
360
794
  0
DICTIONARY
  5
791
330
3D
100
AcDbDictionary
280
     1
281
     1
  3
ACAD_XREC_ROUNDTRIP
360
792
  0
DICTIONARY
  5
78B
330
3A
100
AcDbDictionary
280
     1
281
     1
  3
ACAD_XREC_ROUNDTRIP
360
78C
  0
DICTIONARY
  5
78D
330
3B
100
AcDbDictionary
280
     1
281
     1
  3
ACAD_XREC_ROUNDTRIP
360
78E
  0
DICTIONARY
  5
783
330
36
100
AcDbDictionary
280
     1
281
     1
  3
ACAD_XREC_ROUNDTRIP
360
784
  0
DICTIONARY
  5
777
330
30
100
AcDbDictionary
280
     1
281
     1
  3
ACAD_XREC_ROUNDTRIP
360
778
  0
DICTIONARY
  5
78F
330
3C
100
AcDbDictionary
280
     1
281
     1
  3
ACAD_XREC_ROUNDTRIP
360
790
  0
XRECORD
  5
760
102
{ACAD_REACTORS
330
766
102
}
330
766
100
AcDbXrecord
280
     1
  1
AcDb_Thumbnail_Schema
102
{ATTRRECORD
341
761
  2
AcDbDs::TreatedAsObjectData
280
     1
291
     1
102
ATTRRECORD}
102
{ATTRRECORD
341
762
  2
AcDbDs::Legacy
280
     1
291
     1
102
ATTRRECORD}
  2
AcDbDs::ID
280
    10
 91
        8
102
{ATTRRECORD
341
763
  2
AcDs:Indexable
280
     1
291
     1
102
ATTRRECORD}
102
{ATTRRECORD
341
764
  2
AcDbDs::HandleAttribute
280
     7
282
     1
102
ATTRRECORD}
  2
Thumbnail_Data
280
    15
 91
        0
  0
XRECORD
  5
761
102
{ACAD_REACTORS
330
766
102
}
330
766
100
AcDbXrecord
280
     1
  1
AcDbDs::TreatedAsObjectDataSchema
  2
AcDbDs::TreatedAsObjectData
280
     1
 91
        0
  0
XRECORD
  5
762
102
{ACAD_REACTORS
330
766
102
}
330
766
100
AcDbXrecord
280
     1
  1
AcDbDs::LegacySchema
  2
AcDbDs::Legacy
280
     1
 91
        0
  0
XRECORD
  5
763
102
{ACAD_REACTORS
330
766
102
}
330
766
100
AcDbXrecord
280
     1
  1
AcDbDs::IndexedPropertySchema
  2
AcDs:Indexable
280
     1
 91
        0
  0
XRECORD
  5
764
102
{ACAD_REACTORS
330
766
102
}
330
766
100
AcDbXrecord
280
     1
  1
AcDbDs::HandleAttributeSchema
  2
AcDbDs::HandleAttribute
280
     7
 91
        1
284
     1
  0
XRECORD
  5
7A2
102
{ACAD_REACTORS
330
7A1
102
}
330
7A1
100
AcDbXrecord
280
     1
102
DISPLAYNAME
  1
Imperial24
102
FLAGS
 90
        0
  0
XRECORD
  5
7AC
102
{ACAD_REACTORS
330
7AB
102
}
330
7AB
100
AcDbXrecord
280
     1
102
DISPLAYNAME
  1
Metric50
102
FLAGS
 90
        0
  0
XRECORD
  5
769
102
{ACAD_REACTORS
330
1A
102
}
330
1A
100
AcDbXrecord
280
     1
102
MATERIAL
148
0.0
149
0.0
149
0.0
 93
        0
 94
      127
282
     0
 72
     0
 77
     0
171
     0
175
     0
179
     0
273
     0
  0
XRECORD
  5
1C
102
{ACAD_REACTORS
330
1A
102
}
330
1A
100
AcDbXrecord
280
     1
270
     1
271
     1
  0
XRECORD
  5
1B
102
{ACAD_REACTORS
330
1A
102
}
330
1A
100
AcDbXrecord
280
     1
270
     1
271
     1
  0
XRECORD
  5
1F
102
{ACAD_REACTORS
330
1A
102
}
330
1A
100
AcDbXrecord
280
     1
270
     1
271
     1
  0
XRECORD
  5
1E
102
{ACAD_REACTORS
330
1A
102
}
330
1A
100
AcDbXrecord
280
     1
270
     1
271
     1
  0
XRECORD
  5
20
102
{ACAD_REACTORS
330
1A
102
}
330
1A
100
AcDbXrecord
280
     1
270
     1
271
     1
  0
XRECORD
  5
1D
102
{ACAD_REACTORS
330
1A
102
}
330
1A
100
AcDbXrecord
280
     1
270
     1
271
     1
  0
XRECORD
  5
768
102
{ACAD_REACTORS
330
12
102
}
330
12
100
AcDbXrecord
280
     1
102
MATERIAL
148
0.0
149
0.0
149
0.0
 93
        0
 94
      127
282
     0
 72
     0
 77
     0
171
     0
175
     0
179
     0
273
     0
  0
XRECORD
  5
14
102
{ACAD_REACTORS
330
12
102
}
330
12
100
AcDbXrecord
280
     1
270
     1
271
     1
  0
XRECORD
  5
13
102
{ACAD_REACTORS
330
12
102
}
330
12
100
AcDbXrecord
280
     1
270
     1
271
     1
  0
XRECORD
  5
17
102
{ACAD_REACTORS
330
12
102
}
330
12
100
AcDbXrecord
280
     1
270
     1
271
     1
  0
XRECORD
  5
16
102
{ACAD_REACTORS
330
12
102
}
330
12
100
AcDbXrecord
280
     1
270
     1
271
     1
  0
XRECORD
  5
18
102
{ACAD_REACTORS
330
12
102
}
330
12
100
AcDbXrecord
280
     1
270
     1
271
     1
  0
XRECORD
  5
15
102
{ACAD_REACTORS
330
12
102
}
330
12
100
AcDbXrecord
280
     1
270
     1
271
     1
  0
XRECORD
  5
76A
102
{ACAD_REACTORS
330
22
102
}
330
22
100
AcDbXrecord
280
     1
102
MATERIAL
148
0.0
149
0.0
149
0.0
 93
        0
 94
      127
282
     0
 72
     0
 77
     0
171
     0
175
     0
179
     0
273
     0
  0
XRECORD
  5
24
102
{ACAD_REACTORS
330
22
102
}
330
22
100
AcDbXrecord
280
     1
270
     1
271
     1
  0
XRECORD
  5
23
102
{ACAD_REACTORS
330
22
102
}
330
22
100
AcDbXrecord
280
     1
270
     1
271
     1
  0
XRECORD
  5
27
102
{ACAD_REACTORS
330
22
102
}
330
22
100
AcDbXrecord
280
     1
270
     1
271
     1
  0
XRECORD
  5
26
102
{ACAD_REACTORS
330
22
102
}
330
22
100
AcDbXrecord
280
     1
270
     1
271
     1
  0
XRECORD
  5
28
102
{ACAD_REACTORS
330
22
102
}
330
22
100
AcDbXrecord
280
     1
270
     1
271
     1
  0
XRECORD
  5
25
102
{ACAD_REACTORS
330
22
102
}
330
22
100
AcDbXrecord
280
     1
270
     1
271
     1
  0
XRECORD
  5
79E
102
{ACAD_REACTORS
330
79D
102
}
330
79D
100
AcDbXrecord
280
     1
102
ACAD_ROUNDTRIP_2012_MLEADER_STYLE
298
     1
  0
XRECORD
  5
7A0
102
{ACAD_REACTORS
330
79F
102
}
330
79F
100
AcDbXrecord
280
     1
102
DISPLAYNAME
  1
Imperial24
102
FLAGS
 90
        0
  0
XRECORD
  5
7AA
102
{ACAD_REACTORS
330
7A9
102
}
330
7A9
100
AcDbXrecord
280
     1
102
DISPLAYNAME
  1
Metric50
102
FLAGS
 90
        0
  0
CELLSTYLEMAP
  5
757
102
{ACAD_REACTORS
330
756
102
}
330
756
100
AcDbCellStyleMap
 90
        3
300
CELLSTYLE
  1
TABLEFORMAT_BEGIN
 90
        5
170
     1
 91
        0
 92
    32768
 62
   257
 93
        1
300
CONTENTFORMAT
  1
CONTENTFORMAT_BEGIN
 90
        0
 91
        0
 92
        4
 93
        0
300

 40
0.0
140
1.0
 94
        5
 62
     0
340
55
144
6.0
309
CONTENTFORMAT_END
171
     1
301
MARGIN
  1
CELLMARGIN_BEGIN
 40
1.5
 40
1.5
 40
1.5
 40
1.5
 40
0.18
 40
0.18
309
CELLMARGIN_END
 94
        6
 95
        1
302
GRIDFORMAT
  1
GRIDFORMAT_BEGIN
 90
        0
 91
        1
 62
     0
 92
       -2
340
0
 93
        0
 40
0.045
309
GRIDFORMAT_END
 95
        2
302
GRIDFORMAT
  1
GRIDFORMAT_BEGIN
 90
        0
 91
        1
 62
     0
 92
       -2
340
0
 93
        0
 40
0.045
309
GRIDFORMAT_END
 95
        4
302
GRIDFORMAT
  1
GRIDFORMAT_BEGIN
 90
        0
 91
        1
 62
     0
 92
       -2
340
0
 93
        0
 40
0.045
309
GRIDFORMAT_END
 95
        8
302
GRIDFORMAT
  1
GRIDFORMAT_BEGIN
 90
        0
 91
        1
 62
     0
 92
       -2
340
0
 93
        0
 40
0.045
309
GRIDFORMAT_END
 95
       16
302
GRIDFORMAT
  1
GRIDFORMAT_BEGIN
 90
        0
 91
        1
 62
     0
 92
       -2
340
0
 93
        0
 40
0.045
309
GRIDFORMAT_END
 95
       32
302
GRIDFORMAT
  1
GRIDFORMAT_BEGIN
 90
        0
 91
        1
 62
     0
 92
       -2
340
0
 93
        0
 40
0.045
309
GRIDFORMAT_END
309
TABLEFORMAT_END
  1
CELLSTYLE_BEGIN
 90
        1
 91
        1
300
_TITLE
309
CELLSTYLE_END
300
CELLSTYLE
  1
TABLEFORMAT_BEGIN
 90
        5
170
     1
 91
        0
 92
        0
 62
   257
 93
        1
300
CONTENTFORMAT
  1
CONTENTFORMAT_BEGIN
 90
        0
 91
        0
 92
        4
 93
        0
300

 40
0.0
140
1.0
 94
        5
 62
     0
340
55
144
4.5
309
CONTENTFORMAT_END
171
     1
301
MARGIN
  1
CELLMARGIN_BEGIN
 40
1.5
 40
1.5
 40
1.5
 40
1.5
 40
0.18
 40
0.18
309
CELLMARGIN_END
 94
        6
 95
        1
302
GRIDFORMAT
  1
GRIDFORMAT_BEGIN
 90
        0
 91
        1
 62
     0
 92
       -2
340
0
 93
        0
 40
0.045
309
GRIDFORMAT_END
 95
        2
302
GRIDFORMAT
  1
GRIDFORMAT_BEGIN
 90
        0
 91
        1
 62
     0
 92
       -2
340
0
 93
        0
 40
0.045
309
GRIDFORMAT_END
 95
        4
302
GRIDFORMAT
  1
GRIDFORMAT_BEGIN
 90
        0
 91
        1
 62
     0
 92
       -2
340
0
 93
        0
 40
0.045
309
GRIDFORMAT_END
 95
        8
302
GRIDFORMAT
  1
GRIDFORMAT_BEGIN
 90
        0
 91
        1
 62
     0
 92
       -2
340
0
 93
        0
 40
0.045
309
GRIDFORMAT_END
 95
       16
302
GRIDFORMAT
  1
GRIDFORMAT_BEGIN
 90
        0
 91
        1
 62
     0
 92
       -2
340
0
 93
        0
 40
0.045
309
GRIDFORMAT_END
 95
       32
302
GRIDFORMAT
  1
GRIDFORMAT_BEGIN
 90
        0
 91
        1
 62
     0
 92
       -2
340
0
 93
        0
 40
0.045
309
GRIDFORMAT_END
309
TABLEFORMAT_END
  1
CELLSTYLE_BEGIN
 90
        2
 91
        1
300
_HEADER
309
CELLSTYLE_END
300
CELLSTYLE
  1
TABLEFORMAT_BEGIN
 90
        5
170
     1
 91
        0
 92
        0
 62
   257
 93
        1
300
CONTENTFORMAT
  1
CONTENTFORMAT_BEGIN
 90
        0
 91
        0
 92
        4
 93
        0
300

 40
0.0
140
1.0
 94
        2
 62
     0
340
55
144
4.5
309
CONTENTFORMAT_END
171
     1
301
MARGIN
  1
CELLMARGIN_BEGIN
 40
1.5
 40
1.5
 40
1.5
 40
1.5
 40
0.18
 40
0.18
309
CELLMARGIN_END
 94
        6
 95
        1
302
GRIDFORMAT
  1
GRIDFORMAT_BEGIN
 90
        0
 91
        1
 62
     0
 92
       -2
340
0
 93
        0
 40
0.045
309
GRIDFORMAT_END
 95
        2
302
GRIDFORMAT
  1
GRIDFORMAT_BEGIN
 90
        0
 91
        1
 62
     0
 92
       -2
340
0
 93
        0
 40
0.045
309
GRIDFORMAT_END
 95
        4
302
GRIDFORMAT
  1
GRIDFORMAT_BEGIN
 90
        0
 91
        1
 62
     0
 92
       -2
340
0
 93
        0
 40
0.045
309
GRIDFORMAT_END
 95
        8
302
GRIDFORMAT
  1
GRIDFORMAT_BEGIN
 90
        0
 91
        1
 62
     0
 92
       -2
340
0
 93
        0
 40
0.045
309
GRIDFORMAT_END
 95
       16
302
GRIDFORMAT
  1
GRIDFORMAT_BEGIN
 90
        0
 91
        1
 62
     0
 92
       -2
340
0
 93
        0
 40
0.045
309
GRIDFORMAT_END
 95
       32
302
GRIDFORMAT
  1
GRIDFORMAT_BEGIN
 90
        0
 91
        1
 62
     0
 92
       -2
340
0
 93
        0
 40
0.045
309
GRIDFORMAT_END
309
TABLEFORMAT_END
  1
CELLSTYLE_BEGIN
 90
        3
 91
        2
300
_DATA
309
CELLSTYLE_END
  0
XRECORD
  5
79B
102
{ACAD_REACTORS
330
756
102
}
330
756
100
AcDbXrecord
280
     1
102
ACAD_ROUNDTRIP_PRE2007_TABLESTYLE
 90
        4
 91
        0
  1

 92
        4
 93
        0
  2

 94
        4
 95
        0
  3

  0
XRECORD
  5
776
102
{ACAD_REACTORS
330
775
102
}
330
775
100
AcDbXrecord
280
     1
102
RTVSPost2010Prop28
280
     1
102
RTVSPost2010PropOp28
 70
     1
102
RTVSPost2010Prop29
280
     1
102
RTVSPost2010PropOp29
 70
     1
102
RTVSPost2010Prop30
280
     0
102
RTVSPost2010PropOp30
 70
     1
102
RTVSPost2010Prop31
280
     0
102
RTVSPost2010PropOp31
 70
     1
102
RTVSPost2010Prop32
280
     0
102
RTVSPost2010PropOp32
 70
     1
102
RTVSPost2010Prop33
280
     0
102
RTVSPost2010PropOp33
 70
     1
102
RTVSPost2010Prop34
280
     0
102
RTVSPost2010PropOp34
 70
     1
102
RTVSPost2010Prop35
280
     0
102
RTVSPost2010PropOp35
 70
     1
102
RTVSPost2010Prop36
280
     0
102
RTVSPost2010PropOp36
 70
     1
102
RTVSPost2010Prop37
 90
       50
102
RTVSPost2010PropOp37
 70
     1
102
RTVSPost2010Prop38
140
0.0
102
RTVSPost2010PropOp38
 70
     1
102
RTVSPost2010Prop39
140
1.0
102
RTVSPost2010PropOp39
 70
     1
102
RTVSPost2010Prop40
 90
        0
102
RTVSPost2010PropOp40
 70
     1
102
RTVSPost2010Prop41ColorIndex
 90
       18
102
RTVSPost2010Prop41ColorRGB
 90
        0
102
RTVSPost2010PropOp41
 70
     1
102
RTVSPost2010Prop42
 90
       50
102
RTVSPost2010PropOp42
 70
     1
102
RTVSPost2010Prop43
 90
        3
102
RTVSPost2010PropOp43
 70
     1
102
RTVSPost2010Prop44ColorIndex
 90
        5
102
RTVSPost2010Prop44ColorRGB
 90
      255
102
RTVSPost2010PropOp44
 70
     1
102
RTVSPost2010Prop45
280
     0
102
RTVSPost2010PropOp45
 70
     1
102
RTVSPost2010Prop46
 90
       50
102
RTVSPost2010PropOp46
 70
     1
102
RTVSPost2010Prop47
 90
       50
102
RTVSPost2010PropOp47
 70
     1
102
RTVSPost2010Prop48
 90
       50
102
RTVSPost2010PropOp48
 70
     1
102
RTVSPost2010Prop49
280
     0
102
RTVSPost2010PropOp49
 70
     1
102
RTVSPost2010Prop50
 90
       50
102
RTVSPost2010PropOp50
 70
     1
102
RTVSPost2010Prop51ColorIndex
 90
      256
102
RTVSPost2010Prop51ColorRGB
 90
-16777216
102
RTVSPost2010PropOp51
 70
     0
102
RTVSPost2010Prop52
140
1.0
102
RTVSPost2010PropOp52
 70
     0
102
RTVSPost2010Prop53
 90
        2
102
RTVSPost2010PropOp53
 70
     1
102
RTVSPost2010Prop54
  1
strokes_ogs.tif
102
RTVSPost2010PropOp54
 70
     1
102
RTVSPost2010Prop55
280
     0
102
RTVSPost2010PropOp55
 70
     1
102
RTVSPost2010Prop56
140
1.0
102
RTVSPost2010PropOp56
 70
     1
102
RTVSPost2010Prop57
140
1.0
102
RTVSPost2010PropOp57
 70
     1
102
RTVSPropertyOp0
 70
     1
102
RTVSPropertyOp1
 70
     1
102
RTVSPropertyOp2
 70
     1
102
RTVSPropertyOp3
 70
     1
102
RTVSPropertyOp4
 70
     1
102
RTVSPropertyOp5
 70
     1
102
RTVSPropertyOp6
 70
     1
102
RTVSPropertyOp7
 70
     1
102
RTVSPropertyOp8
 70
     1
102
RTVSPropertyOp9
 70
     1
102
RTVSPropertyOp10
 70
     1
102
RTVSPropertyOp11
 70
     1
102
RTVSPropertyOp12
 70
     1
102
RTVSPropertyOp13
 70
     1
102
RTVSPropertyOp14
 70
     1
102
RTVSPropertyOp15
 70
     1
102
RTVSPropertyOp16
 70
     1
102
RTVSPropertyOp17
 70
     1
102
RTVSPropertyOp18
 70
     1
102
RTVSPropertyOp19
 70
     1
102
RTVSPropertyOp20
 70
     1
102
RTVSPropertyOp21
 70
     1
102
RTVSPropertyOp22
 70
     1
102
RTVSPropertyOp23
 70
     1
102
RTVSPropertyOp24
 70
     1
102
RTVSPropertyOp25
 70
     1
102
RTVSPropertyOp26
 70
     1
102
RTVSPropertyOp27
 70
     1
102
RTVSPropertyOp28
 70
     1
102
RTVSPropertyOp29
 70
     1
102
RTVSPropertyOp30
 70
     1
102
RTVSPropertyOp31
 70
     1
102
RTVSPropertyOp32
 70
     1
102
RTVSPropertyOp33
 70
     1
102
RTVSPropertyOp34
 70
     1
102
RTVSPropertyOp35
 70
     1
102
RTVSPropertyOp36
 70
     1
102
RTVSPropertyOp37
 70
     1
102
RTVSPropertyOp38
 70
     1
102
RTVSPropertyOp39
 70
     1
102
RTVSPropertyOp40
 70
     1
102
RTVSPropertyOp41
 70
     1
102
RTVSPropertyOp42
 70
     1
102
RTVSPropertyOp43
 70
     1
102
RTVSPropertyOp44
 70
     1
102
RTVSPropertyOp45
 70
     1
102
RTVSPropertyOp46
 70
     1
102
RTVSPropertyOp47
 70
     1
102
RTVSPropertyOp48
 70
     1
102
RTVSPropertyOp49
 70
     1
102
RTVSPropertyOp50
 70
     1
102
RTVSPropertyOp51
 70
     0
102
RTVSPropertyOp52
 70
     0
102
RTVSPropertyOp53
 70
     1
102
RTVSPropertyOp54
 70
     1
102
RTVSPropertyOp55
 70
     1
102
RTVSPropertyOp56
 70
     1
102
RTVSPropertyOp57
 70
     1
102
RTVSPropertyOp58
 70
     1
102
RTVSPropertyOp59
 70
     1
102
RTVSPropertyOp60
 70
     1
102
RTVSPropertyOp61
 70
     1
102
RTVSPropertyOp62
 70
     1
  0
XRECORD
  5
774
102
{ACAD_REACTORS
330
773
102
}
330
773
100
AcDbXrecord
280
     1
102
RTVSPost2010Prop28
280
     0
102
RTVSPost2010PropOp28
 70
     1
102
RTVSPost2010Prop29
280
     1
102
RTVSPost2010PropOp29
 70
     1
102
RTVSPost2010Prop30
280
     1
102
RTVSPost2010PropOp30
 70
     1
102
RTVSPost2010Prop31
280
     0
102
RTVSPost2010PropOp31
 70
     1
102
RTVSPost2010Prop32
280
     0
102
RTVSPost2010PropOp32
 70
     1
102
RTVSPost2010Prop33
280
     0
102
RTVSPost2010PropOp33
 70
     1
102
RTVSPost2010Prop34
280
     0
102
RTVSPost2010PropOp34
 70
     1
102
RTVSPost2010Prop35
280
     0
102
RTVSPost2010PropOp35
 70
     1
102
RTVSPost2010Prop36
280
     0
102
RTVSPost2010PropOp36
 70
     1
102
RTVSPost2010Prop37
 90
       50
102
RTVSPost2010PropOp37
 70
     1
102
RTVSPost2010Prop38
140
0.0
102
RTVSPost2010PropOp38
 70
     1
102
RTVSPost2010Prop39
140
1.0
102
RTVSPost2010PropOp39
 70
     1
102
RTVSPost2010Prop40
 90
        0
102
RTVSPost2010PropOp40
 70
     1
102
RTVSPost2010Prop41ColorIndex
 90
       18
102
RTVSPost2010Prop41ColorRGB
 90
        0
102
RTVSPost2010PropOp41
 70
     1
102
RTVSPost2010Prop42
 90
       50
102
RTVSPost2010PropOp42
 70
     1
102
RTVSPost2010Prop43
 90
        3
102
RTVSPost2010PropOp43
 70
     1
102
RTVSPost2010Prop44ColorIndex
 90
        5
102
RTVSPost2010Prop44ColorRGB
 90
      255
102
RTVSPost2010PropOp44
 70
     1
102
RTVSPost2010Prop45
280
     0
102
RTVSPost2010PropOp45
 70
     1
102
RTVSPost2010Prop46
 90
       50
102
RTVSPost2010PropOp46
 70
     1
102
RTVSPost2010Prop47
 90
       50
102
RTVSPost2010PropOp47
 70
     1
102
RTVSPost2010Prop48
 90
       50
102
RTVSPost2010PropOp48
 70
     1
102
RTVSPost2010Prop49
280
     0
102
RTVSPost2010PropOp49
 70
     1
102
RTVSPost2010Prop50
 90
       50
102
RTVSPost2010PropOp50
 70
     1
102
RTVSPost2010Prop51ColorIndex
 90
      256
102
RTVSPost2010Prop51ColorRGB
 90
-16777216
102
RTVSPost2010PropOp51
 70
     0
102
RTVSPost2010Prop52
140
1.0
102
RTVSPost2010PropOp52
 70
     0
102
RTVSPost2010Prop53
 90
        2
102
RTVSPost2010PropOp53
 70
     1
102
RTVSPost2010Prop54
  1
strokes_ogs.tif
102
RTVSPost2010PropOp54
 70
     1
102
RTVSPost2010Prop55
280
     0
102
RTVSPost2010PropOp55
 70
     1
102
RTVSPost2010Prop56
140
1.0
102
RTVSPost2010PropOp56
 70
     1
102
RTVSPost2010Prop57
140
1.0
102
RTVSPost2010PropOp57
 70
     1
102
RTVSPropertyOp0
 70
     1
102
RTVSPropertyOp1
 70
     1
102
RTVSPropertyOp2
 70
     1
102
RTVSPropertyOp3
 70
     1
102
RTVSPropertyOp4
 70
     1
102
RTVSPropertyOp5
 70
     1
102
RTVSPropertyOp6
 70
     1
102
RTVSPropertyOp7
 70
     1
102
RTVSPropertyOp8
 70
     1
102
RTVSPropertyOp9
 70
     1
102
RTVSPropertyOp10
 70
     1
102
RTVSPropertyOp11
 70
     1
102
RTVSPropertyOp12
 70
     1
102
RTVSPropertyOp13
 70
     1
102
RTVSPropertyOp14
 70
     1
102
RTVSPropertyOp15
 70
     1
102
RTVSPropertyOp16
 70
     1
102
RTVSPropertyOp17
 70
     1
102
RTVSPropertyOp18
 70
     1
102
RTVSPropertyOp19
 70
     1
102
RTVSPropertyOp20
 70
     1
102
RTVSPropertyOp21
 70
     1
102
RTVSPropertyOp22
 70
     1
102
RTVSPropertyOp23
 70
     1
102
RTVSPropertyOp24
 70
     1
102
RTVSPropertyOp25
 70
     1
102
RTVSPropertyOp26
 70
     1
102
RTVSPropertyOp27
 70
     1
102
RTVSPropertyOp28
 70
     1
102
RTVSPropertyOp29
 70
     1
102
RTVSPropertyOp30
 70
     1
102
RTVSPropertyOp31
 70
     1
102
RTVSPropertyOp32
 70
     1
102
RTVSPropertyOp33
 70
     1
102
RTVSPropertyOp34
 70
     1
102
RTVSPropertyOp35
 70
     1
102
RTVSPropertyOp36
 70
     1
102
RTVSPropertyOp37
 70
     1
102
RTVSPropertyOp38
 70
     1
102
RTVSPropertyOp39
 70
     1
102
RTVSPropertyOp40
 70
     1
102
RTVSPropertyOp41
 70
     1
102
RTVSPropertyOp42
 70
     1
102
RTVSPropertyOp43
 70
     1
102
RTVSPropertyOp44
 70
     1
102
RTVSPropertyOp45
 70
     1
102
RTVSPropertyOp46
 70
     1
102
RTVSPropertyOp47
 70
     1
102
RTVSPropertyOp48
 70
     1
102
RTVSPropertyOp49
 70
     1
102
RTVSPropertyOp50
 70
     1
102
RTVSPropertyOp51
 70
     0
102
RTVSPropertyOp52
 70
     0
102
RTVSPropertyOp53
 70
     1
102
RTVSPropertyOp54
 70
     1
102
RTVSPropertyOp55
 70
     1
102
RTVSPropertyOp56
 70
     1
102
RTVSPropertyOp57
 70
     1
102
RTVSPropertyOp58
 70
     1
102
RTVSPropertyOp59
 70
     1
102
RTVSPropertyOp60
 70
     1
102
RTVSPropertyOp61
 70
     1
102
RTVSPropertyOp62
 70
     1
  0
XRECORD
  5
782
102
{ACAD_REACTORS
330
781
102
}
330
781
100
AcDbXrecord
280
     1
102
RTVSPost2010Prop28
280
     0
102
RTVSPost2010PropOp28
 70
     1
102
RTVSPost2010Prop29
280
     1
102
RTVSPost2010PropOp29
 70
     1
102
RTVSPost2010Prop30
280
     1
102
RTVSPost2010PropOp30
 70
     1
102
RTVSPost2010Prop31
280
     0
102
RTVSPost2010PropOp31
 70
     1
102
RTVSPost2010Prop32
280
     0
102
RTVSPost2010PropOp32
 70
     1
102
RTVSPost2010Prop33
280
     0
102
RTVSPost2010PropOp33
 70
     1
102
RTVSPost2010Prop34
280
     0
102
RTVSPost2010PropOp34
 70
     1
102
RTVSPost2010Prop35
280
     0
102
RTVSPost2010PropOp35
 70
     1
102
RTVSPost2010Prop36
280
     0
102
RTVSPost2010PropOp36
 70
     1
102
RTVSPost2010Prop37
 90
       50
102
RTVSPost2010PropOp37
 70
     1
102
RTVSPost2010Prop38
140
0.0
102
RTVSPost2010PropOp38
 70
     1
102
RTVSPost2010Prop39
140
1.0
102
RTVSPost2010PropOp39
 70
     1
102
RTVSPost2010Prop40
 90
        0
102
RTVSPost2010PropOp40
 70
     1
102
RTVSPost2010Prop41ColorIndex
 90
       18
102
RTVSPost2010Prop41ColorRGB
 90
        0
102
RTVSPost2010PropOp41
 70
     1
102
RTVSPost2010Prop42
 90
       50
102
RTVSPost2010PropOp42
 70
     1
102
RTVSPost2010Prop43
 90
        3
102
RTVSPost2010PropOp43
 70
     1
102
RTVSPost2010Prop44ColorIndex
 90
        5
102
RTVSPost2010Prop44ColorRGB
 90
      255
102
RTVSPost2010PropOp44
 70
     1
102
RTVSPost2010Prop45
280
     0
102
RTVSPost2010PropOp45
 70
     1
102
RTVSPost2010Prop46
 90
       50
102
RTVSPost2010PropOp46
 70
     1
102
RTVSPost2010Prop47
 90
       50
102
RTVSPost2010PropOp47
 70
     1
102
RTVSPost2010Prop48
 90
       50
102
RTVSPost2010PropOp48
 70
     1
102
RTVSPost2010Prop49
280
     0
102
RTVSPost2010PropOp49
 70
     1
102
RTVSPost2010Prop50
 90
       50
102
RTVSPost2010PropOp50
 70
     1
102
RTVSPost2010Prop51ColorIndex
 90
      256
102
RTVSPost2010Prop51ColorRGB
 90
-16777216
102
RTVSPost2010PropOp51
 70
     0
102
RTVSPost2010Prop52
140
1.0
102
RTVSPost2010PropOp52
 70
     0
102
RTVSPost2010Prop53
 90
        2
102
RTVSPost2010PropOp53
 70
     1
102
RTVSPost2010Prop54
  1
strokes_ogs.tif
102
RTVSPost2010PropOp54
 70
     1
102
RTVSPost2010Prop55
280
     0
102
RTVSPost2010PropOp55
 70
     1
102
RTVSPost2010Prop56
140
1.0
102
RTVSPost2010PropOp56
 70
     1
102
RTVSPost2010Prop57
140
1.0
102
RTVSPost2010PropOp57
 70
     1
102
RTVSPropertyOp0
 70
     1
102
RTVSPropertyOp1
 70
     1
102
RTVSPropertyOp2
 70
     1
102
RTVSPropertyOp3
 70
     1
102
RTVSPropertyOp4
 70
     1
102
RTVSPropertyOp5
 70
     1
102
RTVSPropertyOp6
 70
     1
102
RTVSPropertyOp7
 70
     1
102
RTVSPropertyOp8
 70
     1
102
RTVSPropertyOp9
 70
     1
102
RTVSPropertyOp10
 70
     1
102
RTVSPropertyOp11
 70
     1
102
RTVSPropertyOp12
 70
     1
102
RTVSPropertyOp13
 70
     1
102
RTVSPropertyOp14
 70
     1
102
RTVSPropertyOp15
 70
     1
102
RTVSPropertyOp16
 70
     1
102
RTVSPropertyOp17
 70
     1
102
RTVSPropertyOp18
 70
     1
102
RTVSPropertyOp19
 70
     1
102
RTVSPropertyOp20
 70
     1
102
RTVSPropertyOp21
 70
     1
102
RTVSPropertyOp22
 70
     1
102
RTVSPropertyOp23
 70
     1
102
RTVSPropertyOp24
 70
     1
102
RTVSPropertyOp25
 70
     1
102
RTVSPropertyOp26
 70
     1
102
RTVSPropertyOp27
 70
     1
102
RTVSPropertyOp28
 70
     1
102
RTVSPropertyOp29
 70
     1
102
RTVSPropertyOp30
 70
     1
102
RTVSPropertyOp31
 70
     1
102
RTVSPropertyOp32
 70
     1
102
RTVSPropertyOp33
 70
     1
102
RTVSPropertyOp34
 70
     1
102
RTVSPropertyOp35
 70
     1
102
RTVSPropertyOp36
 70
     1
102
RTVSPropertyOp37
 70
     1
102
RTVSPropertyOp38
 70
     1
102
RTVSPropertyOp39
 70
     1
102
RTVSPropertyOp40
 70
     1
102
RTVSPropertyOp41
 70
     1
102
RTVSPropertyOp42
 70
     1
102
RTVSPropertyOp43
 70
     1
102
RTVSPropertyOp44
 70
     1
102
RTVSPropertyOp45
 70
     1
102
RTVSPropertyOp46
 70
     1
102
RTVSPropertyOp47
 70
     1
102
RTVSPropertyOp48
 70
     1
102
RTVSPropertyOp49
 70
     1
102
RTVSPropertyOp50
 70
     1
102
RTVSPropertyOp51
 70
     0
102
RTVSPropertyOp52
 70
     0
102
RTVSPropertyOp53
 70
     1
102
RTVSPropertyOp54
 70
     1
102
RTVSPropertyOp55
 70
     1
102
RTVSPropertyOp56
 70
     1
102
RTVSPropertyOp57
 70
     1
102
RTVSPropertyOp58
 70
     1
102
RTVSPropertyOp59
 70
     1
102
RTVSPropertyOp60
 70
     1
102
RTVSPropertyOp61
 70
     1
102
RTVSPropertyOp62
 70
     1
  0
XRECORD
  5
78A
102
{ACAD_REACTORS
330
789
102
}
330
789
100
AcDbXrecord
280
     1
102
RTVSPost2010Prop28
280
     0
102
RTVSPost2010PropOp28
 70
     1
102
RTVSPost2010Prop29
280
     1
102
RTVSPost2010PropOp29
 70
     1
102
RTVSPost2010Prop30
280
     1
102
RTVSPost2010PropOp30
 70
     1
102
RTVSPost2010Prop31
280
     0
102
RTVSPost2010PropOp31
 70
     1
102
RTVSPost2010Prop32
280
     0
102
RTVSPost2010PropOp32
 70
     1
102
RTVSPost2010Prop33
280
     0
102
RTVSPost2010PropOp33
 70
     1
102
RTVSPost2010Prop34
280
     0
102
RTVSPost2010PropOp34
 70
     1
102
RTVSPost2010Prop35
280
     0
102
RTVSPost2010PropOp35
 70
     1
102
RTVSPost2010Prop36
280
     0
102
RTVSPost2010PropOp36
 70
     1
102
RTVSPost2010Prop37
 90
       50
102
RTVSPost2010PropOp37
 70
     1
102
RTVSPost2010Prop38
140
0.0
102
RTVSPost2010PropOp38
 70
     1
102
RTVSPost2010Prop39
140
1.0
102
RTVSPost2010PropOp39
 70
     1
102
RTVSPost2010Prop40
 90
        0
102
RTVSPost2010PropOp40
 70
     1
102
RTVSPost2010Prop41ColorIndex
 90
       18
102
RTVSPost2010Prop41ColorRGB
 90
        0
102
RTVSPost2010PropOp41
 70
     1
102
RTVSPost2010Prop42
 90
       50
102
RTVSPost2010PropOp42
 70
     1
102
RTVSPost2010Prop43
 90
        3
102
RTVSPost2010PropOp43
 70
     1
102
RTVSPost2010Prop44ColorIndex
 90
        5
102
RTVSPost2010Prop44ColorRGB
 90
      255
102
RTVSPost2010PropOp44
 70
     1
102
RTVSPost2010Prop45
280
     0
102
RTVSPost2010PropOp45
 70
     1
102
RTVSPost2010Prop46
 90
       50
102
RTVSPost2010PropOp46
 70
     1
102
RTVSPost2010Prop47
 90
       50
102
RTVSPost2010PropOp47
 70
     1
102
RTVSPost2010Prop48
 90
       50
102
RTVSPost2010PropOp48
 70
     1
102
RTVSPost2010Prop49
280
     0
102
RTVSPost2010PropOp49
 70
     1
102
RTVSPost2010Prop50
 90
       50
102
RTVSPost2010PropOp50
 70
     1
102
RTVSPost2010Prop51ColorIndex
 90
      256
102
RTVSPost2010Prop51ColorRGB
 90
-16777216
102
RTVSPost2010PropOp51
 70
     0
102
RTVSPost2010Prop52
140
1.0
102
RTVSPost2010PropOp52
 70
     0
102
RTVSPost2010Prop53
 90
        2
102
RTVSPost2010PropOp53
 70
     1
102
RTVSPost2010Prop54
  1
strokes_ogs.tif
102
RTVSPost2010PropOp54
 70
     1
102
RTVSPost2010Prop55
280
     0
102
RTVSPost2010PropOp55
 70
     1
102
RTVSPost2010Prop56
140
1.0
102
RTVSPost2010PropOp56
 70
     1
102
RTVSPost2010Prop57
140
1.0
102
RTVSPost2010PropOp57
 70
     1
102
RTVSPropertyOp0
 70
     1
102
RTVSPropertyOp1
 70
     1
102
RTVSPropertyOp2
 70
     1
102
RTVSPropertyOp3
 70
     1
102
RTVSPropertyOp4
 70
     1
102
RTVSPropertyOp5
 70
     1
102
RTVSPropertyOp6
 70
     1
102
RTVSPropertyOp7
 70
     1
102
RTVSPropertyOp8
 70
     1
102
RTVSPropertyOp9
 70
     1
102
RTVSPropertyOp10
 70
     1
102
RTVSPropertyOp11
 70
     1
102
RTVSPropertyOp12
 70
     1
102
RTVSPropertyOp13
 70
     1
102
RTVSPropertyOp14
 70
     1
102
RTVSPropertyOp15
 70
     1
102
RTVSPropertyOp16
 70
     1
102
RTVSPropertyOp17
 70
     1
102
RTVSPropertyOp18
 70
     1
102
RTVSPropertyOp19
 70
     1
102
RTVSPropertyOp20
 70
     1
102
RTVSPropertyOp21
 70
     1
102
RTVSPropertyOp22
 70
     1
102
RTVSPropertyOp23
 70
     1
102
RTVSPropertyOp24
 70
     1
102
RTVSPropertyOp25
 70
     1
102
RTVSPropertyOp26
 70
     1
102
RTVSPropertyOp27
 70
     1
102
RTVSPropertyOp28
 70
     1
102
RTVSPropertyOp29
 70
     1
102
RTVSPropertyOp30
 70
     1
102
RTVSPropertyOp31
 70
     1
102
RTVSPropertyOp32
 70
     1
102
RTVSPropertyOp33
 70
     1
102
RTVSPropertyOp34
 70
     1
102
RTVSPropertyOp35
 70
     1
102
RTVSPropertyOp36
 70
     1
102
RTVSPropertyOp37
 70
     1
102
RTVSPropertyOp38
 70
     1
102
RTVSPropertyOp39
 70
     1
102
RTVSPropertyOp40
 70
     1
102
RTVSPropertyOp41
 70
     1
102
RTVSPropertyOp42
 70
     1
102
RTVSPropertyOp43
 70
     1
102
RTVSPropertyOp44
 70
     1
102
RTVSPropertyOp45
 70
     1
102
RTVSPropertyOp46
 70
     1
102
RTVSPropertyOp47
 70
     1
102
RTVSPropertyOp48
 70
     1
102
RTVSPropertyOp49
 70
     1
102
RTVSPropertyOp50
 70
     1
102
RTVSPropertyOp51
 70
     0
102
RTVSPropertyOp52
 70
     0
102
RTVSPropertyOp53
 70
     1
102
RTVSPropertyOp54
 70
     1
102
RTVSPropertyOp55
 70
     1
102
RTVSPropertyOp56
 70
     1
102
RTVSPropertyOp57
 70
     1
102
RTVSPropertyOp58
 70
     1
102
RTVSPropertyOp59
 70
     1
102
RTVSPropertyOp60
 70
     1
102
RTVSPropertyOp61
 70
     1
102
RTVSPropertyOp62
 70
     1
  0
XRECORD
  5
77C
102
{ACAD_REACTORS
330
77B
102
}
330
77B
100
AcDbXrecord
280
     1
102
RTVSPost2010Prop28
280
     0
102
RTVSPost2010PropOp28
 70
     1
102
RTVSPost2010Prop29
280
     1
102
RTVSPost2010PropOp29
 70
     1
102
RTVSPost2010Prop30
280
     1
102
RTVSPost2010PropOp30
 70
     1
102
RTVSPost2010Prop31
280
     0
102
RTVSPost2010PropOp31
 70
     1
102
RTVSPost2010Prop32
280
     0
102
RTVSPost2010PropOp32
 70
     1
102
RTVSPost2010Prop33
280
     0
102
RTVSPost2010PropOp33
 70
     1
102
RTVSPost2010Prop34
280
     0
102
RTVSPost2010PropOp34
 70
     1
102
RTVSPost2010Prop35
280
     0
102
RTVSPost2010PropOp35
 70
     1
102
RTVSPost2010Prop36
280
     0
102
RTVSPost2010PropOp36
 70
     1
102
RTVSPost2010Prop37
 90
       50
102
RTVSPost2010PropOp37
 70
     1
102
RTVSPost2010Prop38
140
0.0
102
RTVSPost2010PropOp38
 70
     1
102
RTVSPost2010Prop39
140
1.0
102
RTVSPost2010PropOp39
 70
     1
102
RTVSPost2010Prop40
 90
        0
102
RTVSPost2010PropOp40
 70
     1
102
RTVSPost2010Prop41ColorIndex
 90
       18
102
RTVSPost2010Prop41ColorRGB
 90
        0
102
RTVSPost2010PropOp41
 70
     1
102
RTVSPost2010Prop42
 90
       50
102
RTVSPost2010PropOp42
 70
     1
102
RTVSPost2010Prop43
 90
        3
102
RTVSPost2010PropOp43
 70
     1
102
RTVSPost2010Prop44ColorIndex
 90
        5
102
RTVSPost2010Prop44ColorRGB
 90
      255
102
RTVSPost2010PropOp44
 70
     1
102
RTVSPost2010Prop45
280
     0
102
RTVSPost2010PropOp45
 70
     1
102
RTVSPost2010Prop46
 90
       50
102
RTVSPost2010PropOp46
 70
     1
102
RTVSPost2010Prop47
 90
       50
102
RTVSPost2010PropOp47
 70
     1
102
RTVSPost2010Prop48
 90
       50
102
RTVSPost2010PropOp48
 70
     1
102
RTVSPost2010Prop49
280
     0
102
RTVSPost2010PropOp49
 70
     1
102
RTVSPost2010Prop50
 90
       50
102
RTVSPost2010PropOp50
 70
     1
102
RTVSPost2010Prop51ColorIndex
 90
      256
102
RTVSPost2010Prop51ColorRGB
 90
-16777216
102
RTVSPost2010PropOp51
 70
     0
102
RTVSPost2010Prop52
140
1.0
102
RTVSPost2010PropOp52
 70
     0
102
RTVSPost2010Prop53
 90
        2
102
RTVSPost2010PropOp53
 70
     1
102
RTVSPost2010Prop54
  1
strokes_ogs.tif
102
RTVSPost2010PropOp54
 70
     1
102
RTVSPost2010Prop55
280
     0
102
RTVSPost2010PropOp55
 70
     1
102
RTVSPost2010Prop56
140
1.0
102
RTVSPost2010PropOp56
 70
     1
102
RTVSPost2010Prop57
140
1.0
102
RTVSPost2010PropOp57
 70
     1
102
RTVSPropertyOp0
 70
     1
102
RTVSPropertyOp1
 70
     1
102
RTVSPropertyOp2
 70
     1
102
RTVSPropertyOp3
 70
     1
102
RTVSPropertyOp4
 70
     1
102
RTVSPropertyOp5
 70
     1
102
RTVSPropertyOp6
 70
     1
102
RTVSPropertyOp7
 70
     1
102
RTVSPropertyOp8
 70
     1
102
RTVSPropertyOp9
 70
     1
102
RTVSPropertyOp10
 70
     1
102
RTVSPropertyOp11
 70
     1
102
RTVSPropertyOp12
 70
     1
102
RTVSPropertyOp13
 70
     1
102
RTVSPropertyOp14
 70
     1
102
RTVSPropertyOp15
 70
     1
102
RTVSPropertyOp16
 70
     1
102
RTVSPropertyOp17
 70
     1
102
RTVSPropertyOp18
 70
     1
102
RTVSPropertyOp19
 70
     1
102
RTVSPropertyOp20
 70
     1
102
RTVSPropertyOp21
 70
     1
102
RTVSPropertyOp22
 70
     1
102
RTVSPropertyOp23
 70
     1
102
RTVSPropertyOp24
 70
     1
102
RTVSPropertyOp25
 70
     1
102
RTVSPropertyOp26
 70
     1
102
RTVSPropertyOp27
 70
     1
102
RTVSPropertyOp28
 70
     1
102
RTVSPropertyOp29
 70
     1
102
RTVSPropertyOp30
 70
     1
102
RTVSPropertyOp31
 70
     1
102
RTVSPropertyOp32
 70
     1
102
RTVSPropertyOp33
 70
     1
102
RTVSPropertyOp34
 70
     1
102
RTVSPropertyOp35
 70
     1
102
RTVSPropertyOp36
 70
     1
102
RTVSPropertyOp37
 70
     1
102
RTVSPropertyOp38
 70
     1
102
RTVSPropertyOp39
 70
     1
102
RTVSPropertyOp40
 70
     1
102
RTVSPropertyOp41
 70
     1
102
RTVSPropertyOp42
 70
     1
102
RTVSPropertyOp43
 70
     1
102
RTVSPropertyOp44
 70
     1
102
RTVSPropertyOp45
 70
     1
102
RTVSPropertyOp46
 70
     1
102
RTVSPropertyOp47
 70
     1
102
RTVSPropertyOp48
 70
     1
102
RTVSPropertyOp49
 70
     1
102
RTVSPropertyOp50
 70
     1
102
RTVSPropertyOp51
 70
     0
102
RTVSPropertyOp52
 70
     0
102
RTVSPropertyOp53
 70
     1
102
RTVSPropertyOp54
 70
     1
102
RTVSPropertyOp55
 70
     1
102
RTVSPropertyOp56
 70
     1
102
RTVSPropertyOp57
 70
     1
102
RTVSPropertyOp58
 70
     1
102
RTVSPropertyOp59
 70
     1
102
RTVSPropertyOp60
 70
     1
102
RTVSPropertyOp61
 70
     1
102
RTVSPropertyOp62
 70
     1
  0
XRECORD
  5
780
102
{ACAD_REACTORS
330
77F
102
}
330
77F
100
AcDbXrecord
280
     1
102
RTVSPost2010Prop28
280
     0
102
RTVSPost2010PropOp28
 70
     1
102
RTVSPost2010Prop29
280
     1
102
RTVSPost2010PropOp29
 70
     1
102
RTVSPost2010Prop30
280
     1
102
RTVSPost2010PropOp30
 70
     1
102
RTVSPost2010Prop31
280
     0
102
RTVSPost2010PropOp31
 70
     1
102
RTVSPost2010Prop32
280
     0
102
RTVSPost2010PropOp32
 70
     1
102
RTVSPost2010Prop33
280
     0
102
RTVSPost2010PropOp33
 70
     1
102
RTVSPost2010Prop34
280
     0
102
RTVSPost2010PropOp34
 70
     1
102
RTVSPost2010Prop35
280
     0
102
RTVSPost2010PropOp35
 70
     1
102
RTVSPost2010Prop36
280
     0
102
RTVSPost2010PropOp36
 70
     1
102
RTVSPost2010Prop37
 90
       50
102
RTVSPost2010PropOp37
 70
     1
102
RTVSPost2010Prop38
140
0.0
102
RTVSPost2010PropOp38
 70
     1
102
RTVSPost2010Prop39
140
1.0
102
RTVSPost2010PropOp39
 70
     1
102
RTVSPost2010Prop40
 90
        0
102
RTVSPost2010PropOp40
 70
     1
102
RTVSPost2010Prop41ColorIndex
 90
       18
102
RTVSPost2010Prop41ColorRGB
 90
        0
102
RTVSPost2010PropOp41
 70
     1
102
RTVSPost2010Prop42
 90
       50
102
RTVSPost2010PropOp42
 70
     1
102
RTVSPost2010Prop43
 90
        3
102
RTVSPost2010PropOp43
 70
     1
102
RTVSPost2010Prop44ColorIndex
 90
        5
102
RTVSPost2010Prop44ColorRGB
 90
      255
102
RTVSPost2010PropOp44
 70
     1
102
RTVSPost2010Prop45
280
     0
102
RTVSPost2010PropOp45
 70
     1
102
RTVSPost2010Prop46
 90
       50
102
RTVSPost2010PropOp46
 70
     1
102
RTVSPost2010Prop47
 90
       50
102
RTVSPost2010PropOp47
 70
     1
102
RTVSPost2010Prop48
 90
       50
102
RTVSPost2010PropOp48
 70
     1
102
RTVSPost2010Prop49
280
     0
102
RTVSPost2010PropOp49
 70
     1
102
RTVSPost2010Prop50
 90
       50
102
RTVSPost2010PropOp50
 70
     1
102
RTVSPost2010Prop51ColorIndex
 90
      256
102
RTVSPost2010Prop51ColorRGB
 90
-16777216
102
RTVSPost2010PropOp51
 70
     0
102
RTVSPost2010Prop52
140
1.0
102
RTVSPost2010PropOp52
 70
     0
102
RTVSPost2010Prop53
 90
        2
102
RTVSPost2010PropOp53
 70
     1
102
RTVSPost2010Prop54
  1
strokes_ogs.tif
102
RTVSPost2010PropOp54
 70
     1
102
RTVSPost2010Prop55
280
     0
102
RTVSPost2010PropOp55
 70
     1
102
RTVSPost2010Prop56
140
1.0
102
RTVSPost2010PropOp56
 70
     1
102
RTVSPost2010Prop57
140
1.0
102
RTVSPost2010PropOp57
 70
     1
102
RTVSPropertyOp0
 70
     1
102
RTVSPropertyOp1
 70
     1
102
RTVSPropertyOp2
 70
     1
102
RTVSPropertyOp3
 70
     1
102
RTVSPropertyOp4
 70
     1
102
RTVSPropertyOp5
 70
     1
102
RTVSPropertyOp6
 70
     1
102
RTVSPropertyOp7
 70
     1
102
RTVSPropertyOp8
 70
     1
102
RTVSPropertyOp9
 70
     1
102
RTVSPropertyOp10
 70
     1
102
RTVSPropertyOp11
 70
     1
102
RTVSPropertyOp12
 70
     1
102
RTVSPropertyOp13
 70
     1
102
RTVSPropertyOp14
 70
     1
102
RTVSPropertyOp15
 70
     1
102
RTVSPropertyOp16
 70
     1
102
RTVSPropertyOp17
 70
     1
102
RTVSPropertyOp18
 70
     1
102
RTVSPropertyOp19
 70
     1
102
RTVSPropertyOp20
 70
     1
102
RTVSPropertyOp21
 70
     1
102
RTVSPropertyOp22
 70
     1
102
RTVSPropertyOp23
 70
     1
102
RTVSPropertyOp24
 70
     1
102
RTVSPropertyOp25
 70
     1
102
RTVSPropertyOp26
 70
     1
102
RTVSPropertyOp27
 70
     1
102
RTVSPropertyOp28
 70
     1
102
RTVSPropertyOp29
 70
     1
102
RTVSPropertyOp30
 70
     1
102
RTVSPropertyOp31
 70
     1
102
RTVSPropertyOp32
 70
     1
102
RTVSPropertyOp33
 70
     1
102
RTVSPropertyOp34
 70
     1
102
RTVSPropertyOp35
 70
     1
102
RTVSPropertyOp36
 70
     1
102
RTVSPropertyOp37
 70
     1
102
RTVSPropertyOp38
 70
     1
102
RTVSPropertyOp39
 70
     1
102
RTVSPropertyOp40
 70
     1
102
RTVSPropertyOp41
 70
     1
102
RTVSPropertyOp42
 70
     1
102
RTVSPropertyOp43
 70
     1
102
RTVSPropertyOp44
 70
     1
102
RTVSPropertyOp45
 70
     1
102
RTVSPropertyOp46
 70
     1
102
RTVSPropertyOp47
 70
     1
102
RTVSPropertyOp48
 70
     1
102
RTVSPropertyOp49
 70
     1
102
RTVSPropertyOp50
 70
     1
102
RTVSPropertyOp51
 70
     0
102
RTVSPropertyOp52
 70
     0
102
RTVSPropertyOp53
 70
     1
102
RTVSPropertyOp54
 70
     1
102
RTVSPropertyOp55
 70
     1
102
RTVSPropertyOp56
 70
     1
102
RTVSPropertyOp57
 70
     1
102
RTVSPropertyOp58
 70
     1
102
RTVSPropertyOp59
 70
     1
102
RTVSPropertyOp60
 70
     1
102
RTVSPropertyOp61
 70
     1
102
RTVSPropertyOp62
 70
     1
  0
XRECORD
  5
79A
102
{ACAD_REACTORS
330
799
102
}
330
799
100
AcDbXrecord
280
     1
102
RTVSPost2010Prop28
280
     0
102
RTVSPost2010PropOp28
 70
     0
102
RTVSPost2010Prop29
280
     1
102
RTVSPost2010PropOp29
 70
     0
102
RTVSPost2010Prop30
280
     1
102
RTVSPost2010PropOp30
 70
     0
102
RTVSPost2010Prop31
280
     0
102
RTVSPost2010PropOp31
 70
     0
102
RTVSPost2010Prop32
280
     0
102
RTVSPost2010PropOp32
 70
     0
102
RTVSPost2010Prop33
280
     0
102
RTVSPost2010PropOp33
 70
     0
102
RTVSPost2010Prop34
280
     0
102
RTVSPost2010PropOp34
 70
     0
102
RTVSPost2010Prop35
280
     0
102
RTVSPost2010PropOp35
 70
     0
102
RTVSPost2010Prop36
280
     0
102
RTVSPost2010PropOp36
 70
     0
102
RTVSPost2010Prop37
 90
       50
102
RTVSPost2010PropOp37
 70
     0
102
RTVSPost2010Prop38
140
0.0
102
RTVSPost2010PropOp38
 70
     0
102
RTVSPost2010Prop39
140
1.0
102
RTVSPost2010PropOp39
 70
     0
102
RTVSPost2010Prop40
 90
        0
102
RTVSPost2010PropOp40
 70
     0
102
RTVSPost2010Prop41ColorIndex
 90
       18
102
RTVSPost2010Prop41ColorRGB
 90
        0
102
RTVSPost2010PropOp41
 70
     0
102
RTVSPost2010Prop42
 90
       50
102
RTVSPost2010PropOp42
 70
     0
102
RTVSPost2010Prop43
 90
        3
102
RTVSPost2010PropOp43
 70
     0
102
RTVSPost2010Prop44ColorIndex
 90
        5
102
RTVSPost2010Prop44ColorRGB
 90
      255
102
RTVSPost2010PropOp44
 70
     0
102
RTVSPost2010Prop45
280
     0
102
RTVSPost2010PropOp45
 70
     0
102
RTVSPost2010Prop46
 90
       50
102
RTVSPost2010PropOp46
 70
     0
102
RTVSPost2010Prop47
 90
       50
102
RTVSPost2010PropOp47
 70
     0
102
RTVSPost2010Prop48
 90
       50
102
RTVSPost2010PropOp48
 70
     0
102
RTVSPost2010Prop49
280
     0
102
RTVSPost2010PropOp49
 70
     0
102
RTVSPost2010Prop50
 90
       50
102
RTVSPost2010PropOp50
 70
     0
102
RTVSPost2010Prop51ColorIndex
 90
      256
102
RTVSPost2010Prop51ColorRGB
 90
-16777216
102
RTVSPost2010PropOp51
 70
     0
102
RTVSPost2010Prop52
140
1.0
102
RTVSPost2010PropOp52
 70
     0
102
RTVSPost2010Prop53
 90
        2
102
RTVSPost2010PropOp53
 70
     0
102
RTVSPost2010Prop54
  1
strokes_ogs.tif
102
RTVSPost2010PropOp54
 70
     0
102
RTVSPost2010Prop55
280
     0
102
RTVSPost2010PropOp55
 70
     0
102
RTVSPost2010Prop56
140
1.0
102
RTVSPost2010PropOp56
 70
     0
102
RTVSPost2010Prop57
140
1.0
102
RTVSPost2010PropOp57
 70
     0
102
RTVSPropertyOp0
 70
     0
102
RTVSPropertyOp1
 70
     0
102
RTVSPropertyOp2
 70
     0
102
RTVSPropertyOp3
 70
     0
102
RTVSPropertyOp4
 70
     0
102
RTVSPropertyOp5
 70
     0
102
RTVSPropertyOp6
 70
     0
102
RTVSPropertyOp7
 70
     0
102
RTVSPropertyOp8
 70
     0
102
RTVSPropertyOp9
 70
     0
102
RTVSPropertyOp10
 70
     0
102
RTVSPropertyOp11
 70
     0
102
RTVSPropertyOp12
 70
     0
102
RTVSPropertyOp13
 70
     0
102
RTVSPropertyOp14
 70
     2
102
RTVSPropertyOp15
 70
     0
102
RTVSPropertyOp16
 70
     0
102
RTVSPropertyOp17
 70
     0
102
RTVSPropertyOp18
 70
     0
102
RTVSPropertyOp19
 70
     0
102
RTVSPropertyOp20
 70
     0
102
RTVSPropertyOp21
 70
     0
102
RTVSPropertyOp22
 70
     0
102
RTVSPropertyOp23
 70
     0
102
RTVSPropertyOp24
 70
     0
102
RTVSPropertyOp25
 70
     0
102
RTVSPropertyOp26
 70
     0
102
RTVSPropertyOp27
 70
     0
102
RTVSPropertyOp28
 70
     0
102
RTVSPropertyOp29
 70
     0
102
RTVSPropertyOp30
 70
     0
102
RTVSPropertyOp31
 70
     0
102
RTVSPropertyOp32
 70
     0
102
RTVSPropertyOp33
 70
     0
102
RTVSPropertyOp34
 70
     0
102
RTVSPropertyOp35
 70
     0
102
RTVSPropertyOp36
 70
     0
102
RTVSPropertyOp37
 70
     0
102
RTVSPropertyOp38
 70
     0
102
RTVSPropertyOp39
 70
     0
102
RTVSPropertyOp40
 70
     0
102
RTVSPropertyOp41
 70
     0
102
RTVSPropertyOp42
 70
     0
102
RTVSPropertyOp43
 70
     0
102
RTVSPropertyOp44
 70
     0
102
RTVSPropertyOp45
 70
     0
102
RTVSPropertyOp46
 70
     0
102
RTVSPropertyOp47
 70
     0
102
RTVSPropertyOp48
 70
     0
102
RTVSPropertyOp49
 70
     0
102
RTVSPropertyOp50
 70
     0
102
RTVSPropertyOp51
 70
     0
102
RTVSPropertyOp52
 70
     0
102
RTVSPropertyOp53
 70
     0
102
RTVSPropertyOp54
 70
     0
102
RTVSPropertyOp55
 70
     0
102
RTVSPropertyOp56
 70
     0
102
RTVSPropertyOp57
 70
     0
102
RTVSPropertyOp58
 70
     1
102
RTVSPropertyOp59
 70
     1
102
RTVSPropertyOp60
 70
     1
102
RTVSPropertyOp61
 70
     1
102
RTVSPropertyOp62
 70
     1
  0
XRECORD
  5
788
102
{ACAD_REACTORS
330
787
102
}
330
787
100
AcDbXrecord
280
     1
102
RTVSPost2010Prop28
280
     0
102
RTVSPost2010PropOp28
 70
     1
102
RTVSPost2010Prop29
280
     1
102
RTVSPost2010PropOp29
 70
     1
102
RTVSPost2010Prop30
280
     1
102
RTVSPost2010PropOp30
 70
     1
102
RTVSPost2010Prop31
280
     0
102
RTVSPost2010PropOp31
 70
     1
102
RTVSPost2010Prop32
280
     0
102
RTVSPost2010PropOp32
 70
     1
102
RTVSPost2010Prop33
280
     0
102
RTVSPost2010PropOp33
 70
     1
102
RTVSPost2010Prop34
280
     0
102
RTVSPost2010PropOp34
 70
     1
102
RTVSPost2010Prop35
280
     0
102
RTVSPost2010PropOp35
 70
     1
102
RTVSPost2010Prop36
280
     0
102
RTVSPost2010PropOp36
 70
     1
102
RTVSPost2010Prop37
 90
       50
102
RTVSPost2010PropOp37
 70
     1
102
RTVSPost2010Prop38
140
0.0
102
RTVSPost2010PropOp38
 70
     1
102
RTVSPost2010Prop39
140
1.0
102
RTVSPost2010PropOp39
 70
     1
102
RTVSPost2010Prop40
 90
        0
102
RTVSPost2010PropOp40
 70
     1
102
RTVSPost2010Prop41ColorIndex
 90
       18
102
RTVSPost2010Prop41ColorRGB
 90
        0
102
RTVSPost2010PropOp41
 70
     1
102
RTVSPost2010Prop42
 90
       50
102
RTVSPost2010PropOp42
 70
     1
102
RTVSPost2010Prop43
 90
        3
102
RTVSPost2010PropOp43
 70
     1
102
RTVSPost2010Prop44ColorIndex
 90
        5
102
RTVSPost2010Prop44ColorRGB
 90
      255
102
RTVSPost2010PropOp44
 70
     1
102
RTVSPost2010Prop45
280
     0
102
RTVSPost2010PropOp45
 70
     1
102
RTVSPost2010Prop46
 90
       50
102
RTVSPost2010PropOp46
 70
     1
102
RTVSPost2010Prop47
 90
       50
102
RTVSPost2010PropOp47
 70
     1
102
RTVSPost2010Prop48
 90
       50
102
RTVSPost2010PropOp48
 70
     1
102
RTVSPost2010Prop49
280
     0
102
RTVSPost2010PropOp49
 70
     1
102
RTVSPost2010Prop50
 90
       50
102
RTVSPost2010PropOp50
 70
     1
102
RTVSPost2010Prop51ColorIndex
 90
      256
102
RTVSPost2010Prop51ColorRGB
 90
-16777216
102
RTVSPost2010PropOp51
 70
     0
102
RTVSPost2010Prop52
140
1.0
102
RTVSPost2010PropOp52
 70
     0
102
RTVSPost2010Prop53
 90
        2
102
RTVSPost2010PropOp53
 70
     1
102
RTVSPost2010Prop54
  1
strokes_ogs.tif
102
RTVSPost2010PropOp54
 70
     1
102
RTVSPost2010Prop55
280
     0
102
RTVSPost2010PropOp55
 70
     1
102
RTVSPost2010Prop56
140
1.0
102
RTVSPost2010PropOp56
 70
     1
102
RTVSPost2010Prop57
140
1.0
102
RTVSPost2010PropOp57
 70
     1
102
RTVSPropertyOp0
 70
     1
102
RTVSPropertyOp1
 70
     1
102
RTVSPropertyOp2
 70
     1
102
RTVSPropertyOp3
 70
     1
102
RTVSPropertyOp4
 70
     1
102
RTVSPropertyOp5
 70
     1
102
RTVSPropertyOp6
 70
     1
102
RTVSPropertyOp7
 70
     1
102
RTVSPropertyOp8
 70
     1
102
RTVSPropertyOp9
 70
     1
102
RTVSPropertyOp10
 70
     1
102
RTVSPropertyOp11
 70
     1
102
RTVSPropertyOp12
 70
     1
102
RTVSPropertyOp13
 70
     1
102
RTVSPropertyOp14
 70
     1
102
RTVSPropertyOp15
 70
     1
102
RTVSPropertyOp16
 70
     1
102
RTVSPropertyOp17
 70
     1
102
RTVSPropertyOp18
 70
     1
102
RTVSPropertyOp19
 70
     1
102
RTVSPropertyOp20
 70
     1
102
RTVSPropertyOp21
 70
     1
102
RTVSPropertyOp22
 70
     1
102
RTVSPropertyOp23
 70
     1
102
RTVSPropertyOp24
 70
     1
102
RTVSPropertyOp25
 70
     1
102
RTVSPropertyOp26
 70
     1
102
RTVSPropertyOp27
 70
     1
102
RTVSPropertyOp28
 70
     1
102
RTVSPropertyOp29
 70
     1
102
RTVSPropertyOp30
 70
     1
102
RTVSPropertyOp31
 70
     1
102
RTVSPropertyOp32
 70
     1
102
RTVSPropertyOp33
 70
     1
102
RTVSPropertyOp34
 70
     1
102
RTVSPropertyOp35
 70
     1
102
RTVSPropertyOp36
 70
     1
102
RTVSPropertyOp37
 70
     1
102
RTVSPropertyOp38
 70
     1
102
RTVSPropertyOp39
 70
     1
102
RTVSPropertyOp40
 70
     1
102
RTVSPropertyOp41
 70
     1
102
RTVSPropertyOp42
 70
     1
102
RTVSPropertyOp43
 70
     1
102
RTVSPropertyOp44
 70
     1
102
RTVSPropertyOp45
 70
     1
102
RTVSPropertyOp46
 70
     1
102
RTVSPropertyOp47
 70
     1
102
RTVSPropertyOp48
 70
     1
102
RTVSPropertyOp49
 70
     1
102
RTVSPropertyOp50
 70
     1
102
RTVSPropertyOp51
 70
     0
102
RTVSPropertyOp52
 70
     0
102
RTVSPropertyOp53
 70
     1
102
RTVSPropertyOp54
 70
     1
102
RTVSPropertyOp55
 70
     1
102
RTVSPropertyOp56
 70
     1
102
RTVSPropertyOp57
 70
     1
102
RTVSPropertyOp58
 70
     1
102
RTVSPropertyOp59
 70
     1
102
RTVSPropertyOp60
 70
     1
102
RTVSPropertyOp61
 70
     1
102
RTVSPropertyOp62
 70
     1
  0
XRECORD
  5
76C
102
{ACAD_REACTORS
330
76B
102
}
330
76B
100
AcDbXrecord
280
     1
102
RTVSPost2010Prop28
280
     0
102
RTVSPost2010PropOp28
 70
     1
102
RTVSPost2010Prop29
280
     1
102
RTVSPost2010PropOp29
 70
     1
102
RTVSPost2010Prop30
280
     1
102
RTVSPost2010PropOp30
 70
     1
102
RTVSPost2010Prop31
280
     0
102
RTVSPost2010PropOp31
 70
     1
102
RTVSPost2010Prop32
280
     0
102
RTVSPost2010PropOp32
 70
     1
102
RTVSPost2010Prop33
280
     0
102
RTVSPost2010PropOp33
 70
     1
102
RTVSPost2010Prop34
280
     0
102
RTVSPost2010PropOp34
 70
     1
102
RTVSPost2010Prop35
280
     0
102
RTVSPost2010PropOp35
 70
     1
102
RTVSPost2010Prop36
280
     0
102
RTVSPost2010PropOp36
 70
     1
102
RTVSPost2010Prop37
 90
       50
102
RTVSPost2010PropOp37
 70
     1
102
RTVSPost2010Prop38
140
0.0
102
RTVSPost2010PropOp38
 70
     1
102
RTVSPost2010Prop39
140
1.0
102
RTVSPost2010PropOp39
 70
     1
102
RTVSPost2010Prop40
 90
        0
102
RTVSPost2010PropOp40
 70
     1
102
RTVSPost2010Prop41ColorIndex
 90
       18
102
RTVSPost2010Prop41ColorRGB
 90
        0
102
RTVSPost2010PropOp41
 70
     1
102
RTVSPost2010Prop42
 90
       50
102
RTVSPost2010PropOp42
 70
     1
102
RTVSPost2010Prop43
 90
        3
102
RTVSPost2010PropOp43
 70
     1
102
RTVSPost2010Prop44ColorIndex
 90
        5
102
RTVSPost2010Prop44ColorRGB
 90
      255
102
RTVSPost2010PropOp44
 70
     1
102
RTVSPost2010Prop45
280
     0
102
RTVSPost2010PropOp45
 70
     1
102
RTVSPost2010Prop46
 90
       50
102
RTVSPost2010PropOp46
 70
     1
102
RTVSPost2010Prop47
 90
       50
102
RTVSPost2010PropOp47
 70
     1
102
RTVSPost2010Prop48
 90
       50
102
RTVSPost2010PropOp48
 70
     1
102
RTVSPost2010Prop49
280
     0
102
RTVSPost2010PropOp49
 70
     1
102
RTVSPost2010Prop50
 90
       50
102
RTVSPost2010PropOp50
 70
     1
102
RTVSPost2010Prop51ColorIndex
 90
      256
102
RTVSPost2010Prop51ColorRGB
 90
-16777216
102
RTVSPost2010PropOp51
 70
     0
102
RTVSPost2010Prop52
140
1.0
102
RTVSPost2010PropOp52
 70
     0
102
RTVSPost2010Prop53
 90
        2
102
RTVSPost2010PropOp53
 70
     1
102
RTVSPost2010Prop54
  1
strokes_ogs.tif
102
RTVSPost2010PropOp54
 70
     1
102
RTVSPost2010Prop55
280
     0
102
RTVSPost2010PropOp55
 70
     1
102
RTVSPost2010Prop56
140
1.0
102
RTVSPost2010PropOp56
 70
     1
102
RTVSPost2010Prop57
140
1.0
102
RTVSPost2010PropOp57
 70
     1
102
RTVSPropertyOp0
 70
     1
102
RTVSPropertyOp1
 70
     1
102
RTVSPropertyOp2
 70
     1
102
RTVSPropertyOp3
 70
     1
102
RTVSPropertyOp4
 70
     1
102
RTVSPropertyOp5
 70
     1
102
RTVSPropertyOp6
 70
     1
102
RTVSPropertyOp7
 70
     1
102
RTVSPropertyOp8
 70
     1
102
RTVSPropertyOp9
 70
     1
102
RTVSPropertyOp10
 70
     1
102
RTVSPropertyOp11
 70
     1
102
RTVSPropertyOp12
 70
     1
102
RTVSPropertyOp13
 70
     1
102
RTVSPropertyOp14
 70
     1
102
RTVSPropertyOp15
 70
     1
102
RTVSPropertyOp16
 70
     1
102
RTVSPropertyOp17
 70
     1
102
RTVSPropertyOp18
 70
     1
102
RTVSPropertyOp19
 70
     1
102
RTVSPropertyOp20
 70
     1
102
RTVSPropertyOp21
 70
     1
102
RTVSPropertyOp22
 70
     1
102
RTVSPropertyOp23
 70
     1
102
RTVSPropertyOp24
 70
     1
102
RTVSPropertyOp25
 70
     1
102
RTVSPropertyOp26
 70
     1
102
RTVSPropertyOp27
 70
     1
102
RTVSPropertyOp28
 70
     1
102
RTVSPropertyOp29
 70
     1
102
RTVSPropertyOp30
 70
     1
102
RTVSPropertyOp31
 70
     1
102
RTVSPropertyOp32
 70
     1
102
RTVSPropertyOp33
 70
     1
102
RTVSPropertyOp34
 70
     1
102
RTVSPropertyOp35
 70
     1
102
RTVSPropertyOp36
 70
     1
102
RTVSPropertyOp37
 70
     1
102
RTVSPropertyOp38
 70
     1
102
RTVSPropertyOp39
 70
     1
102
RTVSPropertyOp40
 70
     1
102
RTVSPropertyOp41
 70
     1
102
RTVSPropertyOp42
 70
     1
102
RTVSPropertyOp43
 70
     1
102
RTVSPropertyOp44
 70
     1
102
RTVSPropertyOp45
 70
     1
102
RTVSPropertyOp46
 70
     1
102
RTVSPropertyOp47
 70
     1
102
RTVSPropertyOp48
 70
     1
102
RTVSPropertyOp49
 70
     1
102
RTVSPropertyOp50
 70
     1
102
RTVSPropertyOp51
 70
     0
102
RTVSPropertyOp52
 70
     0
102
RTVSPropertyOp53
 70
     1
102
RTVSPropertyOp54
 70
     1
102
RTVSPropertyOp55
 70
     1
102
RTVSPropertyOp56
 70
     1
102
RTVSPropertyOp57
 70
     1
102
RTVSPropertyOp58
 70
     1
102
RTVSPropertyOp59
 70
     1
102
RTVSPropertyOp60
 70
     1
102
RTVSPropertyOp61
 70
     1
102
RTVSPropertyOp62
 70
     1
  0
XRECORD
  5
76E
102
{ACAD_REACTORS
330
76D
102
}
330
76D
100
AcDbXrecord
280
     1
102
RTVSPost2010Prop28
280
     0
102
RTVSPost2010PropOp28
 70
     1
102
RTVSPost2010Prop29
280
     1
102
RTVSPost2010PropOp29
 70
     1
102
RTVSPost2010Prop30
280
     1
102
RTVSPost2010PropOp30
 70
     1
102
RTVSPost2010Prop31
280
     0
102
RTVSPost2010PropOp31
 70
     1
102
RTVSPost2010Prop32
280
     0
102
RTVSPost2010PropOp32
 70
     1
102
RTVSPost2010Prop33
280
     0
102
RTVSPost2010PropOp33
 70
     1
102
RTVSPost2010Prop34
280
     0
102
RTVSPost2010PropOp34
 70
     1
102
RTVSPost2010Prop35
280
     0
102
RTVSPost2010PropOp35
 70
     1
102
RTVSPost2010Prop36
280
     0
102
RTVSPost2010PropOp36
 70
     1
102
RTVSPost2010Prop37
 90
       50
102
RTVSPost2010PropOp37
 70
     1
102
RTVSPost2010Prop38
140
0.0
102
RTVSPost2010PropOp38
 70
     1
102
RTVSPost2010Prop39
140
1.0
102
RTVSPost2010PropOp39
 70
     1
102
RTVSPost2010Prop40
 90
        0
102
RTVSPost2010PropOp40
 70
     1
102
RTVSPost2010Prop41ColorIndex
 90
       18
102
RTVSPost2010Prop41ColorRGB
 90
        0
102
RTVSPost2010PropOp41
 70
     1
102
RTVSPost2010Prop42
 90
       50
102
RTVSPost2010PropOp42
 70
     1
102
RTVSPost2010Prop43
 90
        3
102
RTVSPost2010PropOp43
 70
     1
102
RTVSPost2010Prop44ColorIndex
 90
        5
102
RTVSPost2010Prop44ColorRGB
 90
      255
102
RTVSPost2010PropOp44
 70
     1
102
RTVSPost2010Prop45
280
     0
102
RTVSPost2010PropOp45
 70
     1
102
RTVSPost2010Prop46
 90
       50
102
RTVSPost2010PropOp46
 70
     1
102
RTVSPost2010Prop47
 90
       50
102
RTVSPost2010PropOp47
 70
     1
102
RTVSPost2010Prop48
 90
       50
102
RTVSPost2010PropOp48
 70
     1
102
RTVSPost2010Prop49
280
     0
102
RTVSPost2010PropOp49
 70
     1
102
RTVSPost2010Prop50
 90
       50
102
RTVSPost2010PropOp50
 70
     1
102
RTVSPost2010Prop51ColorIndex
 90
      256
102
RTVSPost2010Prop51ColorRGB
 90
-16777216
102
RTVSPost2010PropOp51
 70
     0
102
RTVSPost2010Prop52
140
1.0
102
RTVSPost2010PropOp52
 70
     0
102
RTVSPost2010Prop53
 90
        2
102
RTVSPost2010PropOp53
 70
     1
102
RTVSPost2010Prop54
  1
strokes_ogs.tif
102
RTVSPost2010PropOp54
 70
     1
102
RTVSPost2010Prop55
280
     0
102
RTVSPost2010PropOp55
 70
     1
102
RTVSPost2010Prop56
140
1.0
102
RTVSPost2010PropOp56
 70
     1
102
RTVSPost2010Prop57
140
1.0
102
RTVSPost2010PropOp57
 70
     1
102
RTVSPropertyOp0
 70
     1
102
RTVSPropertyOp1
 70
     1
102
RTVSPropertyOp2
 70
     1
102
RTVSPropertyOp3
 70
     1
102
RTVSPropertyOp4
 70
     1
102
RTVSPropertyOp5
 70
     1
102
RTVSPropertyOp6
 70
     1
102
RTVSPropertyOp7
 70
     1
102
RTVSPropertyOp8
 70
     1
102
RTVSPropertyOp9
 70
     1
102
RTVSPropertyOp10
 70
     1
102
RTVSPropertyOp11
 70
     1
102
RTVSPropertyOp12
 70
     1
102
RTVSPropertyOp13
 70
     1
102
RTVSPropertyOp14
 70
     1
102
RTVSPropertyOp15
 70
     1
102
RTVSPropertyOp16
 70
     1
102
RTVSPropertyOp17
 70
     1
102
RTVSPropertyOp18
 70
     1
102
RTVSPropertyOp19
 70
     1
102
RTVSPropertyOp20
 70
     1
102
RTVSPropertyOp21
 70
     1
102
RTVSPropertyOp22
 70
     1
102
RTVSPropertyOp23
 70
     1
102
RTVSPropertyOp24
 70
     1
102
RTVSPropertyOp25
 70
     1
102
RTVSPropertyOp26
 70
     1
102
RTVSPropertyOp27
 70
     1
102
RTVSPropertyOp28
 70
     1
102
RTVSPropertyOp29
 70
     1
102
RTVSPropertyOp30
 70
     1
102
RTVSPropertyOp31
 70
     1
102
RTVSPropertyOp32
 70
     1
102
RTVSPropertyOp33
 70
     1
102
RTVSPropertyOp34
 70
     1
102
RTVSPropertyOp35
 70
     1
102
RTVSPropertyOp36
 70
     1
102
RTVSPropertyOp37
 70
     1
102
RTVSPropertyOp38
 70
     1
102
RTVSPropertyOp39
 70
     1
102
RTVSPropertyOp40
 70
     1
102
RTVSPropertyOp41
 70
     1
102
RTVSPropertyOp42
 70
     1
102
RTVSPropertyOp43
 70
     1
102
RTVSPropertyOp44
 70
     1
102
RTVSPropertyOp45
 70
     1
102
RTVSPropertyOp46
 70
     1
102
RTVSPropertyOp47
 70
     1
102
RTVSPropertyOp48
 70
     1
102
RTVSPropertyOp49
 70
     1
102
RTVSPropertyOp50
 70
     1
102
RTVSPropertyOp51
 70
     0
102
RTVSPropertyOp52
 70
     0
102
RTVSPropertyOp53
 70
     1
102
RTVSPropertyOp54
 70
     1
102
RTVSPropertyOp55
 70
     1
102
RTVSPropertyOp56
 70
     1
102
RTVSPropertyOp57
 70
     1
102
RTVSPropertyOp58
 70
     1
102
RTVSPropertyOp59
 70
     1
102
RTVSPropertyOp60
 70
     1
102
RTVSPropertyOp61
 70
     1
102
RTVSPropertyOp62
 70
     1
  0
XRECORD
  5
770
102
{ACAD_REACTORS
330
76F
102
}
330
76F
100
AcDbXrecord
280
     1
102
RTVSPost2010Prop28
280
     0
102
RTVSPost2010PropOp28
 70
     1
102
RTVSPost2010Prop29
280
     1
102
RTVSPost2010PropOp29
 70
     1
102
RTVSPost2010Prop30
280
     1
102
RTVSPost2010PropOp30
 70
     1
102
RTVSPost2010Prop31
280
     0
102
RTVSPost2010PropOp31
 70
     1
102
RTVSPost2010Prop32
280
     0
102
RTVSPost2010PropOp32
 70
     1
102
RTVSPost2010Prop33
280
     0
102
RTVSPost2010PropOp33
 70
     1
102
RTVSPost2010Prop34
280
     0
102
RTVSPost2010PropOp34
 70
     1
102
RTVSPost2010Prop35
280
     0
102
RTVSPost2010PropOp35
 70
     1
102
RTVSPost2010Prop36
280
     0
102
RTVSPost2010PropOp36
 70
     1
102
RTVSPost2010Prop37
 90
       50
102
RTVSPost2010PropOp37
 70
     1
102
RTVSPost2010Prop38
140
0.0
102
RTVSPost2010PropOp38
 70
     1
102
RTVSPost2010Prop39
140
1.0
102
RTVSPost2010PropOp39
 70
     1
102
RTVSPost2010Prop40
 90
        0
102
RTVSPost2010PropOp40
 70
     1
102
RTVSPost2010Prop41ColorIndex
 90
       18
102
RTVSPost2010Prop41ColorRGB
 90
        0
102
RTVSPost2010PropOp41
 70
     1
102
RTVSPost2010Prop42
 90
       50
102
RTVSPost2010PropOp42
 70
     1
102
RTVSPost2010Prop43
 90
        3
102
RTVSPost2010PropOp43
 70
     1
102
RTVSPost2010Prop44ColorIndex
 90
        5
102
RTVSPost2010Prop44ColorRGB
 90
      255
102
RTVSPost2010PropOp44
 70
     1
102
RTVSPost2010Prop45
280
     0
102
RTVSPost2010PropOp45
 70
     1
102
RTVSPost2010Prop46
 90
       50
102
RTVSPost2010PropOp46
 70
     1
102
RTVSPost2010Prop47
 90
       50
102
RTVSPost2010PropOp47
 70
     1
102
RTVSPost2010Prop48
 90
       50
102
RTVSPost2010PropOp48
 70
     1
102
RTVSPost2010Prop49
280
     0
102
RTVSPost2010PropOp49
 70
     1
102
RTVSPost2010Prop50
 90
       50
102
RTVSPost2010PropOp50
 70
     1
102
RTVSPost2010Prop51ColorIndex
 90
      256
102
RTVSPost2010Prop51ColorRGB
 90
-16777216
102
RTVSPost2010PropOp51
 70
     0
102
RTVSPost2010Prop52
140
1.0
102
RTVSPost2010PropOp52
 70
     0
102
RTVSPost2010Prop53
 90
        2
102
RTVSPost2010PropOp53
 70
     1
102
RTVSPost2010Prop54
  1
strokes_ogs.tif
102
RTVSPost2010PropOp54
 70
     1
102
RTVSPost2010Prop55
280
     0
102
RTVSPost2010PropOp55
 70
     1
102
RTVSPost2010Prop56
140
1.0
102
RTVSPost2010PropOp56
 70
     1
102
RTVSPost2010Prop57
140
1.0
102
RTVSPost2010PropOp57
 70
     1
102
RTVSPropertyOp0
 70
     1
102
RTVSPropertyOp1
 70
     1
102
RTVSPropertyOp2
 70
     1
102
RTVSPropertyOp3
 70
     1
102
RTVSPropertyOp4
 70
     1
102
RTVSPropertyOp5
 70
     1
102
RTVSPropertyOp6
 70
     1
102
RTVSPropertyOp7
 70
     1
102
RTVSPropertyOp8
 70
     1
102
RTVSPropertyOp9
 70
     1
102
RTVSPropertyOp10
 70
     1
102
RTVSPropertyOp11
 70
     1
102
RTVSPropertyOp12
 70
     1
102
RTVSPropertyOp13
 70
     1
102
RTVSPropertyOp14
 70
     1
102
RTVSPropertyOp15
 70
     1
102
RTVSPropertyOp16
 70
     1
102
RTVSPropertyOp17
 70
     1
102
RTVSPropertyOp18
 70
     1
102
RTVSPropertyOp19
 70
     1
102
RTVSPropertyOp20
 70
     1
102
RTVSPropertyOp21
 70
     1
102
RTVSPropertyOp22
 70
     1
102
RTVSPropertyOp23
 70
     1
102
RTVSPropertyOp24
 70
     1
102
RTVSPropertyOp25
 70
     1
102
RTVSPropertyOp26
 70
     1
102
RTVSPropertyOp27
 70
     1
102
RTVSPropertyOp28
 70
     1
102
RTVSPropertyOp29
 70
     1
102
RTVSPropertyOp30
 70
     1
102
RTVSPropertyOp31
 70
     1
102
RTVSPropertyOp32
 70
     1
102
RTVSPropertyOp33
 70
     1
102
RTVSPropertyOp34
 70
     1
102
RTVSPropertyOp35
 70
     1
102
RTVSPropertyOp36
 70
     1
102
RTVSPropertyOp37
 70
     1
102
RTVSPropertyOp38
 70
     1
102
RTVSPropertyOp39
 70
     1
102
RTVSPropertyOp40
 70
     1
102
RTVSPropertyOp41
 70
     1
102
RTVSPropertyOp42
 70
     1
102
RTVSPropertyOp43
 70
     1
102
RTVSPropertyOp44
 70
     1
102
RTVSPropertyOp45
 70
     1
102
RTVSPropertyOp46
 70
     1
102
RTVSPropertyOp47
 70
     1
102
RTVSPropertyOp48
 70
     1
102
RTVSPropertyOp49
 70
     1
102
RTVSPropertyOp50
 70
     1
102
RTVSPropertyOp51
 70
     0
102
RTVSPropertyOp52
 70
     0
102
RTVSPropertyOp53
 70
     1
102
RTVSPropertyOp54
 70
     1
102
RTVSPropertyOp55
 70
     1
102
RTVSPropertyOp56
 70
     1
102
RTVSPropertyOp57
 70
     1
102
RTVSPropertyOp58
 70
     1
102
RTVSPropertyOp59
 70
     1
102
RTVSPropertyOp60
 70
     1
102
RTVSPropertyOp61
 70
     1
102
RTVSPropertyOp62
 70
     1
  0
XRECORD
  5
772
102
{ACAD_REACTORS
330
771
102
}
330
771
100
AcDbXrecord
280
     1
102
RTVSPost2010Prop28
280
     0
102
RTVSPost2010PropOp28
 70
     1
102
RTVSPost2010Prop29
280
     1
102
RTVSPost2010PropOp29
 70
     1
102
RTVSPost2010Prop30
280
     1
102
RTVSPost2010PropOp30
 70
     1
102
RTVSPost2010Prop31
280
     0
102
RTVSPost2010PropOp31
 70
     1
102
RTVSPost2010Prop32
280
     0
102
RTVSPost2010PropOp32
 70
     1
102
RTVSPost2010Prop33
280
     0
102
RTVSPost2010PropOp33
 70
     1
102
RTVSPost2010Prop34
280
     0
102
RTVSPost2010PropOp34
 70
     1
102
RTVSPost2010Prop35
280
     0
102
RTVSPost2010PropOp35
 70
     1
102
RTVSPost2010Prop36
280
     0
102
RTVSPost2010PropOp36
 70
     1
102
RTVSPost2010Prop37
 90
       50
102
RTVSPost2010PropOp37
 70
     1
102
RTVSPost2010Prop38
140
0.0
102
RTVSPost2010PropOp38
 70
     1
102
RTVSPost2010Prop39
140
1.0
102
RTVSPost2010PropOp39
 70
     1
102
RTVSPost2010Prop40
 90
        0
102
RTVSPost2010PropOp40
 70
     1
102
RTVSPost2010Prop41ColorIndex
 90
       18
102
RTVSPost2010Prop41ColorRGB
 90
        0
102
RTVSPost2010PropOp41
 70
     1
102
RTVSPost2010Prop42
 90
       50
102
RTVSPost2010PropOp42
 70
     1
102
RTVSPost2010Prop43
 90
        3
102
RTVSPost2010PropOp43
 70
     1
102
RTVSPost2010Prop44ColorIndex
 90
        5
102
RTVSPost2010Prop44ColorRGB
 90
      255
102
RTVSPost2010PropOp44
 70
     1
102
RTVSPost2010Prop45
280
     0
102
RTVSPost2010PropOp45
 70
     1
102
RTVSPost2010Prop46
 90
       50
102
RTVSPost2010PropOp46
 70
     1
102
RTVSPost2010Prop47
 90
       50
102
RTVSPost2010PropOp47
 70
     1
102
RTVSPost2010Prop48
 90
       50
102
RTVSPost2010PropOp48
 70
     1
102
RTVSPost2010Prop49
280
     0
102
RTVSPost2010PropOp49
 70
     1
102
RTVSPost2010Prop50
 90
       50
102
RTVSPost2010PropOp50
 70
     1
102
RTVSPost2010Prop51ColorIndex
 90
      256
102
RTVSPost2010Prop51ColorRGB
 90
-16777216
102
RTVSPost2010PropOp51
 70
     0
102
RTVSPost2010Prop52
140
1.0
102
RTVSPost2010PropOp52
 70
     0
102
RTVSPost2010Prop53
 90
        2
102
RTVSPost2010PropOp53
 70
     1
102
RTVSPost2010Prop54
  1
strokes_ogs.tif
102
RTVSPost2010PropOp54
 70
     1
102
RTVSPost2010Prop55
280
     0
102
RTVSPost2010PropOp55
 70
     1
102
RTVSPost2010Prop56
140
1.0
102
RTVSPost2010PropOp56
 70
     1
102
RTVSPost2010Prop57
140
1.0
102
RTVSPost2010PropOp57
 70
     1
102
RTVSPropertyOp0
 70
     1
102
RTVSPropertyOp1
 70
     1
102
RTVSPropertyOp2
 70
     1
102
RTVSPropertyOp3
 70
     1
102
RTVSPropertyOp4
 70
     1
102
RTVSPropertyOp5
 70
     1
102
RTVSPropertyOp6
 70
     1
102
RTVSPropertyOp7
 70
     1
102
RTVSPropertyOp8
 70
     1
102
RTVSPropertyOp9
 70
     1
102
RTVSPropertyOp10
 70
     1
102
RTVSPropertyOp11
 70
     1
102
RTVSPropertyOp12
 70
     1
102
RTVSPropertyOp13
 70
     1
102
RTVSPropertyOp14
 70
     1
102
RTVSPropertyOp15
 70
     1
102
RTVSPropertyOp16
 70
     1
102
RTVSPropertyOp17
 70
     1
102
RTVSPropertyOp18
 70
     1
102
RTVSPropertyOp19
 70
     1
102
RTVSPropertyOp20
 70
     1
102
RTVSPropertyOp21
 70
     1
102
RTVSPropertyOp22
 70
     1
102
RTVSPropertyOp23
 70
     1
102
RTVSPropertyOp24
 70
     1
102
RTVSPropertyOp25
 70
     1
102
RTVSPropertyOp26
 70
     1
102
RTVSPropertyOp27
 70
     1
102
RTVSPropertyOp28
 70
     1
102
RTVSPropertyOp29
 70
     1
102
RTVSPropertyOp30
 70
     1
102
RTVSPropertyOp31
 70
     1
102
RTVSPropertyOp32
 70
     1
102
RTVSPropertyOp33
 70
     1
102
RTVSPropertyOp34
 70
     1
102
RTVSPropertyOp35
 70
     1
102
RTVSPropertyOp36
 70
     1
102
RTVSPropertyOp37
 70
     1
102
RTVSPropertyOp38
 70
     1
102
RTVSPropertyOp39
 70
     1
102
RTVSPropertyOp40
 70
     1
102
RTVSPropertyOp41
 70
     1
102
RTVSPropertyOp42
 70
     1
102
RTVSPropertyOp43
 70
     1
102
RTVSPropertyOp44
 70
     1
102
RTVSPropertyOp45
 70
     1
102
RTVSPropertyOp46
 70
     1
102
RTVSPropertyOp47
 70
     1
102
RTVSPropertyOp48
 70
     1
102
RTVSPropertyOp49
 70
     1
102
RTVSPropertyOp50
 70
     1
102
RTVSPropertyOp51
 70
     0
102
RTVSPropertyOp52
 70
     0
102
RTVSPropertyOp53
 70
     1
102
RTVSPropertyOp54
 70
     1
102
RTVSPropertyOp55
 70
     1
102
RTVSPropertyOp56
 70
     1
102
RTVSPropertyOp57
 70
     1
102
RTVSPropertyOp58
 70
     1
102
RTVSPropertyOp59
 70
     1
102
RTVSPropertyOp60
 70
     1
102
RTVSPropertyOp61
 70
     1
102
RTVSPropertyOp62
 70
     1
  0
XRECORD
  5
77A
102
{ACAD_REACTORS
330
779
102
}
330
779
100
AcDbXrecord
280
     1
102
RTVSPost2010Prop28
280
     0
102
RTVSPost2010PropOp28
 70
     1
102
RTVSPost2010Prop29
280
     1
102
RTVSPost2010PropOp29
 70
     1
102
RTVSPost2010Prop30
280
     1
102
RTVSPost2010PropOp30
 70
     1
102
RTVSPost2010Prop31
280
     0
102
RTVSPost2010PropOp31
 70
     1
102
RTVSPost2010Prop32
280
     0
102
RTVSPost2010PropOp32
 70
     1
102
RTVSPost2010Prop33
280
     0
102
RTVSPost2010PropOp33
 70
     1
102
RTVSPost2010Prop34
280
     0
102
RTVSPost2010PropOp34
 70
     1
102
RTVSPost2010Prop35
280
     0
102
RTVSPost2010PropOp35
 70
     1
102
RTVSPost2010Prop36
280
     0
102
RTVSPost2010PropOp36
 70
     1
102
RTVSPost2010Prop37
 90
       50
102
RTVSPost2010PropOp37
 70
     1
102
RTVSPost2010Prop38
140
0.0
102
RTVSPost2010PropOp38
 70
     1
102
RTVSPost2010Prop39
140
1.0
102
RTVSPost2010PropOp39
 70
     1
102
RTVSPost2010Prop40
 90
        0
102
RTVSPost2010PropOp40
 70
     1
102
RTVSPost2010Prop41ColorIndex
 90
       18
102
RTVSPost2010Prop41ColorRGB
 90
        0
102
RTVSPost2010PropOp41
 70
     1
102
RTVSPost2010Prop42
 90
       50
102
RTVSPost2010PropOp42
 70
     1
102
RTVSPost2010Prop43
 90
        3
102
RTVSPost2010PropOp43
 70
     1
102
RTVSPost2010Prop44ColorIndex
 90
        5
102
RTVSPost2010Prop44ColorRGB
 90
      255
102
RTVSPost2010PropOp44
 70
     1
102
RTVSPost2010Prop45
280
     0
102
RTVSPost2010PropOp45
 70
     1
102
RTVSPost2010Prop46
 90
       50
102
RTVSPost2010PropOp46
 70
     1
102
RTVSPost2010Prop47
 90
       50
102
RTVSPost2010PropOp47
 70
     1
102
RTVSPost2010Prop48
 90
       50
102
RTVSPost2010PropOp48
 70
     1
102
RTVSPost2010Prop49
280
     0
102
RTVSPost2010PropOp49
 70
     1
102
RTVSPost2010Prop50
 90
       50
102
RTVSPost2010PropOp50
 70
     1
102
RTVSPost2010Prop51ColorIndex
 90
      256
102
RTVSPost2010Prop51ColorRGB
 90
-16777216
102
RTVSPost2010PropOp51
 70
     0
102
RTVSPost2010Prop52
140
1.0
102
RTVSPost2010PropOp52
 70
     0
102
RTVSPost2010Prop53
 90
        2
102
RTVSPost2010PropOp53
 70
     1
102
RTVSPost2010Prop54
  1
strokes_ogs.tif
102
RTVSPost2010PropOp54
 70
     1
102
RTVSPost2010Prop55
280
     0
102
RTVSPost2010PropOp55
 70
     1
102
RTVSPost2010Prop56
140
1.0
102
RTVSPost2010PropOp56
 70
     1
102
RTVSPost2010Prop57
140
1.0
102
RTVSPost2010PropOp57
 70
     1
102
RTVSPropertyOp0
 70
     1
102
RTVSPropertyOp1
 70
     1
102
RTVSPropertyOp2
 70
     1
102
RTVSPropertyOp3
 70
     1
102
RTVSPropertyOp4
 70
     1
102
RTVSPropertyOp5
 70
     1
102
RTVSPropertyOp6
 70
     1
102
RTVSPropertyOp7
 70
     1
102
RTVSPropertyOp8
 70
     1
102
RTVSPropertyOp9
 70
     1
102
RTVSPropertyOp10
 70
     1
102
RTVSPropertyOp11
 70
     1
102
RTVSPropertyOp12
 70
     1
102
RTVSPropertyOp13
 70
     1
102
RTVSPropertyOp14
 70
     1
102
RTVSPropertyOp15
 70
     1
102
RTVSPropertyOp16
 70
     1
102
RTVSPropertyOp17
 70
     1
102
RTVSPropertyOp18
 70
     1
102
RTVSPropertyOp19
 70
     1
102
RTVSPropertyOp20
 70
     1
102
RTVSPropertyOp21
 70
     1
102
RTVSPropertyOp22
 70
     1
102
RTVSPropertyOp23
 70
     1
102
RTVSPropertyOp24
 70
     1
102
RTVSPropertyOp25
 70
     1
102
RTVSPropertyOp26
 70
     1
102
RTVSPropertyOp27
 70
     1
102
RTVSPropertyOp28
 70
     1
102
RTVSPropertyOp29
 70
     1
102
RTVSPropertyOp30
 70
     1
102
RTVSPropertyOp31
 70
     1
102
RTVSPropertyOp32
 70
     1
102
RTVSPropertyOp33
 70
     1
102
RTVSPropertyOp34
 70
     1
102
RTVSPropertyOp35
 70
     1
102
RTVSPropertyOp36
 70
     1
102
RTVSPropertyOp37
 70
     1
102
RTVSPropertyOp38
 70
     1
102
RTVSPropertyOp39
 70
     1
102
RTVSPropertyOp40
 70
     1
102
RTVSPropertyOp41
 70
     1
102
RTVSPropertyOp42
 70
     1
102
RTVSPropertyOp43
 70
     1
102
RTVSPropertyOp44
 70
     1
102
RTVSPropertyOp45
 70
     1
102
RTVSPropertyOp46
 70
     1
102
RTVSPropertyOp47
 70
     1
102
RTVSPropertyOp48
 70
     1
102
RTVSPropertyOp49
 70
     1
102
RTVSPropertyOp50
 70
     1
102
RTVSPropertyOp51
 70
     0
102
RTVSPropertyOp52
 70
     0
102
RTVSPropertyOp53
 70
     1
102
RTVSPropertyOp54
 70
     1
102
RTVSPropertyOp55
 70
     1
102
RTVSPropertyOp56
 70
     1
102
RTVSPropertyOp57
 70
     1
102
RTVSPropertyOp58
 70
     1
102
RTVSPropertyOp59
 70
     1
102
RTVSPropertyOp60
 70
     1
102
RTVSPropertyOp61
 70
     1
102
RTVSPropertyOp62
 70
     1
  0
XRECORD
  5
796
102
{ACAD_REACTORS
330
795
102
}
330
795
100
AcDbXrecord
280
     1
102
RTVSPost2010Prop28
280
     0
102
RTVSPost2010PropOp28
 70
     0
102
RTVSPost2010Prop29
280
     1
102
RTVSPost2010PropOp29
 70
     0
102
RTVSPost2010Prop30
280
     1
102
RTVSPost2010PropOp30
 70
     0
102
RTVSPost2010Prop31
280
     0
102
RTVSPost2010PropOp31
 70
     0
102
RTVSPost2010Prop32
280
     0
102
RTVSPost2010PropOp32
 70
     0
102
RTVSPost2010Prop33
280
     0
102
RTVSPost2010PropOp33
 70
     0
102
RTVSPost2010Prop34
280
     0
102
RTVSPost2010PropOp34
 70
     0
102
RTVSPost2010Prop35
280
     0
102
RTVSPost2010PropOp35
 70
     0
102
RTVSPost2010Prop36
280
     0
102
RTVSPost2010PropOp36
 70
     0
102
RTVSPost2010Prop37
 90
       50
102
RTVSPost2010PropOp37
 70
     0
102
RTVSPost2010Prop38
140
0.0
102
RTVSPost2010PropOp38
 70
     0
102
RTVSPost2010Prop39
140
1.0
102
RTVSPost2010PropOp39
 70
     0
102
RTVSPost2010Prop40
 90
        0
102
RTVSPost2010PropOp40
 70
     0
102
RTVSPost2010Prop41ColorIndex
 90
       18
102
RTVSPost2010Prop41ColorRGB
 90
        0
102
RTVSPost2010PropOp41
 70
     0
102
RTVSPost2010Prop42
 90
       50
102
RTVSPost2010PropOp42
 70
     0
102
RTVSPost2010Prop43
 90
        3
102
RTVSPost2010PropOp43
 70
     0
102
RTVSPost2010Prop44ColorIndex
 90
        5
102
RTVSPost2010Prop44ColorRGB
 90
      255
102
RTVSPost2010PropOp44
 70
     0
102
RTVSPost2010Prop45
280
     0
102
RTVSPost2010PropOp45
 70
     0
102
RTVSPost2010Prop46
 90
       50
102
RTVSPost2010PropOp46
 70
     0
102
RTVSPost2010Prop47
 90
       50
102
RTVSPost2010PropOp47
 70
     0
102
RTVSPost2010Prop48
 90
       50
102
RTVSPost2010PropOp48
 70
     0
102
RTVSPost2010Prop49
280
     0
102
RTVSPost2010PropOp49
 70
     0
102
RTVSPost2010Prop50
 90
       50
102
RTVSPost2010PropOp50
 70
     0
102
RTVSPost2010Prop51ColorIndex
 90
      256
102
RTVSPost2010Prop51ColorRGB
 90
-16777216
102
RTVSPost2010PropOp51
 70
     0
102
RTVSPost2010Prop52
140
1.0
102
RTVSPost2010PropOp52
 70
     0
102
RTVSPost2010Prop53
 90
        2
102
RTVSPost2010PropOp53
 70
     0
102
RTVSPost2010Prop54
  1
strokes_ogs.tif
102
RTVSPost2010PropOp54
 70
     0
102
RTVSPost2010Prop55
280
     0
102
RTVSPost2010PropOp55
 70
     0
102
RTVSPost2010Prop56
140
1.0
102
RTVSPost2010PropOp56
 70
     0
102
RTVSPost2010Prop57
140
1.0
102
RTVSPost2010PropOp57
 70
     0
102
RTVSPropertyOp0
 70
     0
102
RTVSPropertyOp1
 70
     0
102
RTVSPropertyOp2
 70
     0
102
RTVSPropertyOp3
 70
     0
102
RTVSPropertyOp4
 70
     0
102
RTVSPropertyOp5
 70
     0
102
RTVSPropertyOp6
 70
     0
102
RTVSPropertyOp7
 70
     0
102
RTVSPropertyOp8
 70
     0
102
RTVSPropertyOp9
 70
     0
102
RTVSPropertyOp10
 70
     0
102
RTVSPropertyOp11
 70
     0
102
RTVSPropertyOp12
 70
     0
102
RTVSPropertyOp13
 70
     0
102
RTVSPropertyOp14
 70
     2
102
RTVSPropertyOp15
 70
     0
102
RTVSPropertyOp16
 70
     0
102
RTVSPropertyOp17
 70
     0
102
RTVSPropertyOp18
 70
     0
102
RTVSPropertyOp19
 70
     0
102
RTVSPropertyOp20
 70
     0
102
RTVSPropertyOp21
 70
     0
102
RTVSPropertyOp22
 70
     0
102
RTVSPropertyOp23
 70
     0
102
RTVSPropertyOp24
 70
     0
102
RTVSPropertyOp25
 70
     0
102
RTVSPropertyOp26
 70
     0
102
RTVSPropertyOp27
 70
     0
102
RTVSPropertyOp28
 70
     0
102
RTVSPropertyOp29
 70
     0
102
RTVSPropertyOp30
 70
     0
102
RTVSPropertyOp31
 70
     0
102
RTVSPropertyOp32
 70
     0
102
RTVSPropertyOp33
 70
     0
102
RTVSPropertyOp34
 70
     0
102
RTVSPropertyOp35
 70
     0
102
RTVSPropertyOp36
 70
     0
102
RTVSPropertyOp37
 70
     0
102
RTVSPropertyOp38
 70
     0
102
RTVSPropertyOp39
 70
     0
102
RTVSPropertyOp40
 70
     0
102
RTVSPropertyOp41
 70
     0
102
RTVSPropertyOp42
 70
     0
102
RTVSPropertyOp43
 70
     0
102
RTVSPropertyOp44
 70
     0
102
RTVSPropertyOp45
 70
     0
102
RTVSPropertyOp46
 70
     0
102
RTVSPropertyOp47
 70
     0
102
RTVSPropertyOp48
 70
     0
102
RTVSPropertyOp49
 70
     0
102
RTVSPropertyOp50
 70
     0
102
RTVSPropertyOp51
 70
     0
102
RTVSPropertyOp52
 70
     0
102
RTVSPropertyOp53
 70
     0
102
RTVSPropertyOp54
 70
     0
102
RTVSPropertyOp55
 70
     0
102
RTVSPropertyOp56
 70
     0
102
RTVSPropertyOp57
 70
     0
102
RTVSPropertyOp58
 70
     1
102
RTVSPropertyOp59
 70
     1
102
RTVSPropertyOp60
 70
     1
102
RTVSPropertyOp61
 70
     1
102
RTVSPropertyOp62
 70
     1
  0
XRECORD
  5
786
102
{ACAD_REACTORS
330
785
102
}
330
785
100
AcDbXrecord
280
     1
102
RTVSPost2010Prop28
280
     0
102
RTVSPost2010PropOp28
 70
     1
102
RTVSPost2010Prop29
280
     1
102
RTVSPost2010PropOp29
 70
     1
102
RTVSPost2010Prop30
280
     1
102
RTVSPost2010PropOp30
 70
     1
102
RTVSPost2010Prop31
280
     0
102
RTVSPost2010PropOp31
 70
     1
102
RTVSPost2010Prop32
280
     0
102
RTVSPost2010PropOp32
 70
     1
102
RTVSPost2010Prop33
280
     0
102
RTVSPost2010PropOp33
 70
     1
102
RTVSPost2010Prop34
280
     0
102
RTVSPost2010PropOp34
 70
     1
102
RTVSPost2010Prop35
280
     0
102
RTVSPost2010PropOp35
 70
     1
102
RTVSPost2010Prop36
280
     0
102
RTVSPost2010PropOp36
 70
     1
102
RTVSPost2010Prop37
 90
       50
102
RTVSPost2010PropOp37
 70
     1
102
RTVSPost2010Prop38
140
0.0
102
RTVSPost2010PropOp38
 70
     1
102
RTVSPost2010Prop39
140
1.0
102
RTVSPost2010PropOp39
 70
     1
102
RTVSPost2010Prop40
 90
        0
102
RTVSPost2010PropOp40
 70
     1
102
RTVSPost2010Prop41ColorIndex
 90
       18
102
RTVSPost2010Prop41ColorRGB
 90
        0
102
RTVSPost2010PropOp41
 70
     1
102
RTVSPost2010Prop42
 90
       50
102
RTVSPost2010PropOp42
 70
     1
102
RTVSPost2010Prop43
 90
        3
102
RTVSPost2010PropOp43
 70
     1
102
RTVSPost2010Prop44ColorIndex
 90
        5
102
RTVSPost2010Prop44ColorRGB
 90
      255
102
RTVSPost2010PropOp44
 70
     1
102
RTVSPost2010Prop45
280
     0
102
RTVSPost2010PropOp45
 70
     1
102
RTVSPost2010Prop46
 90
       50
102
RTVSPost2010PropOp46
 70
     1
102
RTVSPost2010Prop47
 90
       50
102
RTVSPost2010PropOp47
 70
     1
102
RTVSPost2010Prop48
 90
       50
102
RTVSPost2010PropOp48
 70
     1
102
RTVSPost2010Prop49
280
     0
102
RTVSPost2010PropOp49
 70
     1
102
RTVSPost2010Prop50
 90
       50
102
RTVSPost2010PropOp50
 70
     1
102
RTVSPost2010Prop51ColorIndex
 90
      256
102
RTVSPost2010Prop51ColorRGB
 90
-16777216
102
RTVSPost2010PropOp51
 70
     0
102
RTVSPost2010Prop52
140
1.0
102
RTVSPost2010PropOp52
 70
     0
102
RTVSPost2010Prop53
 90
        2
102
RTVSPost2010PropOp53
 70
     1
102
RTVSPost2010Prop54
  1
strokes_ogs.tif
102
RTVSPost2010PropOp54
 70
     1
102
RTVSPost2010Prop55
280
     0
102
RTVSPost2010PropOp55
 70
     1
102
RTVSPost2010Prop56
140
1.0
102
RTVSPost2010PropOp56
 70
     1
102
RTVSPost2010Prop57
140
1.0
102
RTVSPost2010PropOp57
 70
     1
102
RTVSPropertyOp0
 70
     1
102
RTVSPropertyOp1
 70
     1
102
RTVSPropertyOp2
 70
     1
102
RTVSPropertyOp3
 70
     1
102
RTVSPropertyOp4
 70
     1
102
RTVSPropertyOp5
 70
     1
102
RTVSPropertyOp6
 70
     1
102
RTVSPropertyOp7
 70
     1
102
RTVSPropertyOp8
 70
     1
102
RTVSPropertyOp9
 70
     1
102
RTVSPropertyOp10
 70
     1
102
RTVSPropertyOp11
 70
     1
102
RTVSPropertyOp12
 70
     1
102
RTVSPropertyOp13
 70
     1
102
RTVSPropertyOp14
 70
     1
102
RTVSPropertyOp15
 70
     1
102
RTVSPropertyOp16
 70
     1
102
RTVSPropertyOp17
 70
     1
102
RTVSPropertyOp18
 70
     1
102
RTVSPropertyOp19
 70
     1
102
RTVSPropertyOp20
 70
     1
102
RTVSPropertyOp21
 70
     1
102
RTVSPropertyOp22
 70
     1
102
RTVSPropertyOp23
 70
     1
102
RTVSPropertyOp24
 70
     1
102
RTVSPropertyOp25
 70
     1
102
RTVSPropertyOp26
 70
     1
102
RTVSPropertyOp27
 70
     1
102
RTVSPropertyOp28
 70
     1
102
RTVSPropertyOp29
 70
     1
102
RTVSPropertyOp30
 70
     1
102
RTVSPropertyOp31
 70
     1
102
RTVSPropertyOp32
 70
     1
102
RTVSPropertyOp33
 70
     1
102
RTVSPropertyOp34
 70
     1
102
RTVSPropertyOp35
 70
     1
102
RTVSPropertyOp36
 70
     1
102
RTVSPropertyOp37
 70
     1
102
RTVSPropertyOp38
 70
     1
102
RTVSPropertyOp39
 70
     1
102
RTVSPropertyOp40
 70
     1
102
RTVSPropertyOp41
 70
     1
102
RTVSPropertyOp42
 70
     1
102
RTVSPropertyOp43
 70
     1
102
RTVSPropertyOp44
 70
     1
102
RTVSPropertyOp45
 70
     1
102
RTVSPropertyOp46
 70
     1
102
RTVSPropertyOp47
 70
     1
102
RTVSPropertyOp48
 70
     1
102
RTVSPropertyOp49
 70
     1
102
RTVSPropertyOp50
 70
     1
102
RTVSPropertyOp51
 70
     0
102
RTVSPropertyOp52
 70
     0
102
RTVSPropertyOp53
 70
     1
102
RTVSPropertyOp54
 70
     1
102
RTVSPropertyOp55
 70
     1
102
RTVSPropertyOp56
 70
     1
102
RTVSPropertyOp57
 70
     1
102
RTVSPropertyOp58
 70
     1
102
RTVSPropertyOp59
 70
     1
102
RTVSPropertyOp60
 70
     1
102
RTVSPropertyOp61
 70
     1
102
RTVSPropertyOp62
 70
     1
  0
XRECORD
  5
798
102
{ACAD_REACTORS
330
797
102
}
330
797
100
AcDbXrecord
280
     1
102
RTVSPost2010Prop28
280
     0
102
RTVSPost2010PropOp28
 70
     0
102
RTVSPost2010Prop29
280
     1
102
RTVSPost2010PropOp29
 70
     0
102
RTVSPost2010Prop30
280
     1
102
RTVSPost2010PropOp30
 70
     0
102
RTVSPost2010Prop31
280
     0
102
RTVSPost2010PropOp31
 70
     0
102
RTVSPost2010Prop32
280
     0
102
RTVSPost2010PropOp32
 70
     0
102
RTVSPost2010Prop33
280
     0
102
RTVSPost2010PropOp33
 70
     0
102
RTVSPost2010Prop34
280
     0
102
RTVSPost2010PropOp34
 70
     0
102
RTVSPost2010Prop35
280
     0
102
RTVSPost2010PropOp35
 70
     0
102
RTVSPost2010Prop36
280
     0
102
RTVSPost2010PropOp36
 70
     0
102
RTVSPost2010Prop37
 90
       50
102
RTVSPost2010PropOp37
 70
     0
102
RTVSPost2010Prop38
140
0.0
102
RTVSPost2010PropOp38
 70
     0
102
RTVSPost2010Prop39
140
1.0
102
RTVSPost2010PropOp39
 70
     0
102
RTVSPost2010Prop40
 90
        0
102
RTVSPost2010PropOp40
 70
     0
102
RTVSPost2010Prop41ColorIndex
 90
       18
102
RTVSPost2010Prop41ColorRGB
 90
        0
102
RTVSPost2010PropOp41
 70
     0
102
RTVSPost2010Prop42
 90
       50
102
RTVSPost2010PropOp42
 70
     0
102
RTVSPost2010Prop43
 90
        3
102
RTVSPost2010PropOp43
 70
     0
102
RTVSPost2010Prop44ColorIndex
 90
        5
102
RTVSPost2010Prop44ColorRGB
 90
      255
102
RTVSPost2010PropOp44
 70
     0
102
RTVSPost2010Prop45
280
     0
102
RTVSPost2010PropOp45
 70
     0
102
RTVSPost2010Prop46
 90
       50
102
RTVSPost2010PropOp46
 70
     0
102
RTVSPost2010Prop47
 90
       50
102
RTVSPost2010PropOp47
 70
     0
102
RTVSPost2010Prop48
 90
       50
102
RTVSPost2010PropOp48
 70
     0
102
RTVSPost2010Prop49
280
     0
102
RTVSPost2010PropOp49
 70
     0
102
RTVSPost2010Prop50
 90
       50
102
RTVSPost2010PropOp50
 70
     0
102
RTVSPost2010Prop51ColorIndex
 90
      256
102
RTVSPost2010Prop51ColorRGB
 90
-16777216
102
RTVSPost2010PropOp51
 70
     0
102
RTVSPost2010Prop52
140
1.0
102
RTVSPost2010PropOp52
 70
     0
102
RTVSPost2010Prop53
 90
        2
102
RTVSPost2010PropOp53
 70
     0
102
RTVSPost2010Prop54
  1
strokes_ogs.tif
102
RTVSPost2010PropOp54
 70
     0
102
RTVSPost2010Prop55
280
     0
102
RTVSPost2010PropOp55
 70
     0
102
RTVSPost2010Prop56
140
1.0
102
RTVSPost2010PropOp56
 70
     0
102
RTVSPost2010Prop57
140
1.0
102
RTVSPost2010PropOp57
 70
     0
102
RTVSPropertyOp0
 70
     0
102
RTVSPropertyOp1
 70
     0
102
RTVSPropertyOp2
 70
     0
102
RTVSPropertyOp3
 70
     0
102
RTVSPropertyOp4
 70
     0
102
RTVSPropertyOp5
 70
     0
102
RTVSPropertyOp6
 70
     0
102
RTVSPropertyOp7
 70
     0
102
RTVSPropertyOp8
 70
     0
102
RTVSPropertyOp9
 70
     0
102
RTVSPropertyOp10
 70
     0
102
RTVSPropertyOp11
 70
     0
102
RTVSPropertyOp12
 70
     0
102
RTVSPropertyOp13
 70
     0
102
RTVSPropertyOp14
 70
     2
102
RTVSPropertyOp15
 70
     0
102
RTVSPropertyOp16
 70
     0
102
RTVSPropertyOp17
 70
     0
102
RTVSPropertyOp18
 70
     0
102
RTVSPropertyOp19
 70
     0
102
RTVSPropertyOp20
 70
     0
102
RTVSPropertyOp21
 70
     0
102
RTVSPropertyOp22
 70
     0
102
RTVSPropertyOp23
 70
     0
102
RTVSPropertyOp24
 70
     0
102
RTVSPropertyOp25
 70
     0
102
RTVSPropertyOp26
 70
     0
102
RTVSPropertyOp27
 70
     0
102
RTVSPropertyOp28
 70
     0
102
RTVSPropertyOp29
 70
     0
102
RTVSPropertyOp30
 70
     0
102
RTVSPropertyOp31
 70
     0
102
RTVSPropertyOp32
 70
     0
102
RTVSPropertyOp33
 70
     0
102
RTVSPropertyOp34
 70
     0
102
RTVSPropertyOp35
 70
     0
102
RTVSPropertyOp36
 70
     0
102
RTVSPropertyOp37
 70
     0
102
RTVSPropertyOp38
 70
     0
102
RTVSPropertyOp39
 70
     0
102
RTVSPropertyOp40
 70
     0
102
RTVSPropertyOp41
 70
     0
102
RTVSPropertyOp42
 70
     0
102
RTVSPropertyOp43
 70
     0
102
RTVSPropertyOp44
 70
     0
102
RTVSPropertyOp45
 70
     0
102
RTVSPropertyOp46
 70
     0
102
RTVSPropertyOp47
 70
     0
102
RTVSPropertyOp48
 70
     0
102
RTVSPropertyOp49
 70
     0
102
RTVSPropertyOp50
 70
     0
102
RTVSPropertyOp51
 70
     0
102
RTVSPropertyOp52
 70
     0
102
RTVSPropertyOp53
 70
     0
102
RTVSPropertyOp54
 70
     0
102
RTVSPropertyOp55
 70
     0
102
RTVSPropertyOp56
 70
     0
102
RTVSPropertyOp57
 70
     0
102
RTVSPropertyOp58
 70
     1
102
RTVSPropertyOp59
 70
     1
102
RTVSPropertyOp60
 70
     1
102
RTVSPropertyOp61
 70
     1
102
RTVSPropertyOp62
 70
     1
  0
XRECORD
  5
77E
102
{ACAD_REACTORS
330
77D
102
}
330
77D
100
AcDbXrecord
280
     1
102
RTVSPost2010Prop28
280
     0
102
RTVSPost2010PropOp28
 70
     1
102
RTVSPost2010Prop29
280
     1
102
RTVSPost2010PropOp29
 70
     1
102
RTVSPost2010Prop30
280
     1
102
RTVSPost2010PropOp30
 70
     1
102
RTVSPost2010Prop31
280
     0
102
RTVSPost2010PropOp31
 70
     1
102
RTVSPost2010Prop32
280
     0
102
RTVSPost2010PropOp32
 70
     1
102
RTVSPost2010Prop33
280
     0
102
RTVSPost2010PropOp33
 70
     1
102
RTVSPost2010Prop34
280
     0
102
RTVSPost2010PropOp34
 70
     1
102
RTVSPost2010Prop35
280
     0
102
RTVSPost2010PropOp35
 70
     1
102
RTVSPost2010Prop36
280
     0
102
RTVSPost2010PropOp36
 70
     1
102
RTVSPost2010Prop37
 90
       50
102
RTVSPost2010PropOp37
 70
     1
102
RTVSPost2010Prop38
140
0.0
102
RTVSPost2010PropOp38
 70
     1
102
RTVSPost2010Prop39
140
1.0
102
RTVSPost2010PropOp39
 70
     1
102
RTVSPost2010Prop40
 90
        0
102
RTVSPost2010PropOp40
 70
     1
102
RTVSPost2010Prop41ColorIndex
 90
       18
102
RTVSPost2010Prop41ColorRGB
 90
        0
102
RTVSPost2010PropOp41
 70
     1
102
RTVSPost2010Prop42
 90
       50
102
RTVSPost2010PropOp42
 70
     1
102
RTVSPost2010Prop43
 90
        3
102
RTVSPost2010PropOp43
 70
     1
102
RTVSPost2010Prop44ColorIndex
 90
        5
102
RTVSPost2010Prop44ColorRGB
 90
      255
102
RTVSPost2010PropOp44
 70
     1
102
RTVSPost2010Prop45
280
     0
102
RTVSPost2010PropOp45
 70
     1
102
RTVSPost2010Prop46
 90
       50
102
RTVSPost2010PropOp46
 70
     1
102
RTVSPost2010Prop47
 90
       50
102
RTVSPost2010PropOp47
 70
     1
102
RTVSPost2010Prop48
 90
       50
102
RTVSPost2010PropOp48
 70
     1
102
RTVSPost2010Prop49
280
     0
102
RTVSPost2010PropOp49
 70
     1
102
RTVSPost2010Prop50
 90
       50
102
RTVSPost2010PropOp50
 70
     1
102
RTVSPost2010Prop51ColorIndex
 90
      256
102
RTVSPost2010Prop51ColorRGB
 90
-16777216
102
RTVSPost2010PropOp51
 70
     0
102
RTVSPost2010Prop52
140
1.0
102
RTVSPost2010PropOp52
 70
     0
102
RTVSPost2010Prop53
 90
        2
102
RTVSPost2010PropOp53
 70
     1
102
RTVSPost2010Prop54
  1
strokes_ogs.tif
102
RTVSPost2010PropOp54
 70
     1
102
RTVSPost2010Prop55
280
     0
102
RTVSPost2010PropOp55
 70
     1
102
RTVSPost2010Prop56
140
1.0
102
RTVSPost2010PropOp56
 70
     1
102
RTVSPost2010Prop57
140
1.0
102
RTVSPost2010PropOp57
 70
     1
102
RTVSPropertyOp0
 70
     1
102
RTVSPropertyOp1
 70
     1
102
RTVSPropertyOp2
 70
     1
102
RTVSPropertyOp3
 70
     1
102
RTVSPropertyOp4
 70
     1
102
RTVSPropertyOp5
 70
     1
102
RTVSPropertyOp6
 70
     1
102
RTVSPropertyOp7
 70
     1
102
RTVSPropertyOp8
 70
     1
102
RTVSPropertyOp9
 70
     1
102
RTVSPropertyOp10
 70
     1
102
RTVSPropertyOp11
 70
     1
102
RTVSPropertyOp12
 70
     1
102
RTVSPropertyOp13
 70
     1
102
RTVSPropertyOp14
 70
     1
102
RTVSPropertyOp15
 70
     1
102
RTVSPropertyOp16
 70
     1
102
RTVSPropertyOp17
 70
     1
102
RTVSPropertyOp18
 70
     1
102
RTVSPropertyOp19
 70
     1
102
RTVSPropertyOp20
 70
     1
102
RTVSPropertyOp21
 70
     1
102
RTVSPropertyOp22
 70
     1
102
RTVSPropertyOp23
 70
     1
102
RTVSPropertyOp24
 70
     1
102
RTVSPropertyOp25
 70
     1
102
RTVSPropertyOp26
 70
     1
102
RTVSPropertyOp27
 70
     1
102
RTVSPropertyOp28
 70
     1
102
RTVSPropertyOp29
 70
     1
102
RTVSPropertyOp30
 70
     1
102
RTVSPropertyOp31
 70
     1
102
RTVSPropertyOp32
 70
     1
102
RTVSPropertyOp33
 70
     1
102
RTVSPropertyOp34
 70
     1
102
RTVSPropertyOp35
 70
     1
102
RTVSPropertyOp36
 70
     1
102
RTVSPropertyOp37
 70
     1
102
RTVSPropertyOp38
 70
     1
102
RTVSPropertyOp39
 70
     1
102
RTVSPropertyOp40
 70
     1
102
RTVSPropertyOp41
 70
     1
102
RTVSPropertyOp42
 70
     1
102
RTVSPropertyOp43
 70
     1
102
RTVSPropertyOp44
 70
     1
102
RTVSPropertyOp45
 70
     1
102
RTVSPropertyOp46
 70
     1
102
RTVSPropertyOp47
 70
     1
102
RTVSPropertyOp48
 70
     1
102
RTVSPropertyOp49
 70
     1
102
RTVSPropertyOp50
 70
     1
102
RTVSPropertyOp51
 70
     0
102
RTVSPropertyOp52
 70
     0
102
RTVSPropertyOp53
 70
     1
102
RTVSPropertyOp54
 70
     1
102
RTVSPropertyOp55
 70
     1
102
RTVSPropertyOp56
 70
     1
102
RTVSPropertyOp57
 70
     1
102
RTVSPropertyOp58
 70
     1
102
RTVSPropertyOp59
 70
     1
102
RTVSPropertyOp60
 70
     1
102
RTVSPropertyOp61
 70
     1
102
RTVSPropertyOp62
 70
     1
  0
XRECORD
  5
794
102
{ACAD_REACTORS
330
793
102
}
330
793
100
AcDbXrecord
280
     1
102
RTVSPost2010Prop28
280
     0
102
RTVSPost2010PropOp28
 70
     1
102
RTVSPost2010Prop29
280
     1
102
RTVSPost2010PropOp29
 70
     1
102
RTVSPost2010Prop30
280
     1
102
RTVSPost2010PropOp30
 70
     1
102
RTVSPost2010Prop31
280
     0
102
RTVSPost2010PropOp31
 70
     1
102
RTVSPost2010Prop32
280
     0
102
RTVSPost2010PropOp32
 70
     1
102
RTVSPost2010Prop33
280
     0
102
RTVSPost2010PropOp33
 70
     1
102
RTVSPost2010Prop34
280
     0
102
RTVSPost2010PropOp34
 70
     1
102
RTVSPost2010Prop35
280
     0
102
RTVSPost2010PropOp35
 70
     1
102
RTVSPost2010Prop36
280
     0
102
RTVSPost2010PropOp36
 70
     1
102
RTVSPost2010Prop37
 90
       50
102
RTVSPost2010PropOp37
 70
     1
102
RTVSPost2010Prop38
140
0.0
102
RTVSPost2010PropOp38
 70
     1
102
RTVSPost2010Prop39
140
1.0
102
RTVSPost2010PropOp39
 70
     1
102
RTVSPost2010Prop40
 90
        0
102
RTVSPost2010PropOp40
 70
     1
102
RTVSPost2010Prop41ColorIndex
 90
       18
102
RTVSPost2010Prop41ColorRGB
 90
        0
102
RTVSPost2010PropOp41
 70
     1
102
RTVSPost2010Prop42
 90
       50
102
RTVSPost2010PropOp42
 70
     1
102
RTVSPost2010Prop43
 90
        3
102
RTVSPost2010PropOp43
 70
     1
102
RTVSPost2010Prop44ColorIndex
 90
        5
102
RTVSPost2010Prop44ColorRGB
 90
      255
102
RTVSPost2010PropOp44
 70
     1
102
RTVSPost2010Prop45
280
     0
102
RTVSPost2010PropOp45
 70
     1
102
RTVSPost2010Prop46
 90
       50
102
RTVSPost2010PropOp46
 70
     1
102
RTVSPost2010Prop47
 90
       50
102
RTVSPost2010PropOp47
 70
     1
102
RTVSPost2010Prop48
 90
       50
102
RTVSPost2010PropOp48
 70
     1
102
RTVSPost2010Prop49
280
     0
102
RTVSPost2010PropOp49
 70
     1
102
RTVSPost2010Prop50
 90
       50
102
RTVSPost2010PropOp50
 70
     1
102
RTVSPost2010Prop51ColorIndex
 90
      256
102
RTVSPost2010Prop51ColorRGB
 90
-16777216
102
RTVSPost2010PropOp51
 70
     0
102
RTVSPost2010Prop52
140
1.0
102
RTVSPost2010PropOp52
 70
     0
102
RTVSPost2010Prop53
 90
        2
102
RTVSPost2010PropOp53
 70
     1
102
RTVSPost2010Prop54
  1
strokes_ogs.tif
102
RTVSPost2010PropOp54
 70
     1
102
RTVSPost2010Prop55
280
     0
102
RTVSPost2010PropOp55
 70
     1
102
RTVSPost2010Prop56
140
1.0
102
RTVSPost2010PropOp56
 70
     1
102
RTVSPost2010Prop57
140
1.0
102
RTVSPost2010PropOp57
 70
     1
102
RTVSPropertyOp0
 70
     1
102
RTVSPropertyOp1
 70
     1
102
RTVSPropertyOp2
 70
     1
102
RTVSPropertyOp3
 70
     1
102
RTVSPropertyOp4
 70
     1
102
RTVSPropertyOp5
 70
     1
102
RTVSPropertyOp6
 70
     1
102
RTVSPropertyOp7
 70
     1
102
RTVSPropertyOp8
 70
     1
102
RTVSPropertyOp9
 70
     1
102
RTVSPropertyOp10
 70
     1
102
RTVSPropertyOp11
 70
     1
102
RTVSPropertyOp12
 70
     1
102
RTVSPropertyOp13
 70
     1
102
RTVSPropertyOp14
 70
     1
102
RTVSPropertyOp15
 70
     1
102
RTVSPropertyOp16
 70
     1
102
RTVSPropertyOp17
 70
     1
102
RTVSPropertyOp18
 70
     1
102
RTVSPropertyOp19
 70
     1
102
RTVSPropertyOp20
 70
     1
102
RTVSPropertyOp21
 70
     1
102
RTVSPropertyOp22
 70
     1
102
RTVSPropertyOp23
 70
     1
102
RTVSPropertyOp24
 70
     1
102
RTVSPropertyOp25
 70
     1
102
RTVSPropertyOp26
 70
     1
102
RTVSPropertyOp27
 70
     1
102
RTVSPropertyOp28
 70
     1
102
RTVSPropertyOp29
 70
     1
102
RTVSPropertyOp30
 70
     1
102
RTVSPropertyOp31
 70
     1
102
RTVSPropertyOp32
 70
     1
102
RTVSPropertyOp33
 70
     1
102
RTVSPropertyOp34
 70
     1
102
RTVSPropertyOp35
 70
     1
102
RTVSPropertyOp36
 70
     1
102
RTVSPropertyOp37
 70
     1
102
RTVSPropertyOp38
 70
     1
102
RTVSPropertyOp39
 70
     1
102
RTVSPropertyOp40
 70
     1
102
RTVSPropertyOp41
 70
     1
102
RTVSPropertyOp42
 70
     1
102
RTVSPropertyOp43
 70
     1
102
RTVSPropertyOp44
 70
     1
102
RTVSPropertyOp45
 70
     1
102
RTVSPropertyOp46
 70
     1
102
RTVSPropertyOp47
 70
     1
102
RTVSPropertyOp48
 70
     1
102
RTVSPropertyOp49
 70
     1
102
RTVSPropertyOp50
 70
     1
102
RTVSPropertyOp51
 70
     0
102
RTVSPropertyOp52
 70
     0
102
RTVSPropertyOp53
 70
     1
102
RTVSPropertyOp54
 70
     1
102
RTVSPropertyOp55
 70
     1
102
RTVSPropertyOp56
 70
     1
102
RTVSPropertyOp57
 70
     1
102
RTVSPropertyOp58
 70
     1
102
RTVSPropertyOp59
 70
     1
102
RTVSPropertyOp60
 70
     1
102
RTVSPropertyOp61
 70
     1
102
RTVSPropertyOp62
 70
     1
  0
XRECORD
  5
792
102
{ACAD_REACTORS
330
791
102
}
330
791
100
AcDbXrecord
280
     1
102
RTVSPost2010Prop28
280
     0
102
RTVSPost2010PropOp28
 70
     1
102
RTVSPost2010Prop29
280
     1
102
RTVSPost2010PropOp29
 70
     1
102
RTVSPost2010Prop30
280
     1
102
RTVSPost2010PropOp30
 70
     1
102
RTVSPost2010Prop31
280
     0
102
RTVSPost2010PropOp31
 70
     1
102
RTVSPost2010Prop32
280
     0
102
RTVSPost2010PropOp32
 70
     1
102
RTVSPost2010Prop33
280
     0
102
RTVSPost2010PropOp33
 70
     1
102
RTVSPost2010Prop34
280
     0
102
RTVSPost2010PropOp34
 70
     1
102
RTVSPost2010Prop35
280
     0
102
RTVSPost2010PropOp35
 70
     1
102
RTVSPost2010Prop36
280
     0
102
RTVSPost2010PropOp36
 70
     1
102
RTVSPost2010Prop37
 90
       50
102
RTVSPost2010PropOp37
 70
     1
102
RTVSPost2010Prop38
140
0.0
102
RTVSPost2010PropOp38
 70
     1
102
RTVSPost2010Prop39
140
1.0
102
RTVSPost2010PropOp39
 70
     1
102
RTVSPost2010Prop40
 90
        0
102
RTVSPost2010PropOp40
 70
     1
102
RTVSPost2010Prop41ColorIndex
 90
       18
102
RTVSPost2010Prop41ColorRGB
 90
        0
102
RTVSPost2010PropOp41
 70
     1
102
RTVSPost2010Prop42
 90
       50
102
RTVSPost2010PropOp42
 70
     1
102
RTVSPost2010Prop43
 90
        3
102
RTVSPost2010PropOp43
 70
     1
102
RTVSPost2010Prop44ColorIndex
 90
        5
102
RTVSPost2010Prop44ColorRGB
 90
      255
102
RTVSPost2010PropOp44
 70
     1
102
RTVSPost2010Prop45
280
     0
102
RTVSPost2010PropOp45
 70
     1
102
RTVSPost2010Prop46
 90
       50
102
RTVSPost2010PropOp46
 70
     1
102
RTVSPost2010Prop47
 90
       50
102
RTVSPost2010PropOp47
 70
     1
102
RTVSPost2010Prop48
 90
       50
102
RTVSPost2010PropOp48
 70
     1
102
RTVSPost2010Prop49
280
     0
102
RTVSPost2010PropOp49
 70
     1
102
RTVSPost2010Prop50
 90
       50
102
RTVSPost2010PropOp50
 70
     1
102
RTVSPost2010Prop51ColorIndex
 90
      256
102
RTVSPost2010Prop51ColorRGB
 90
-16777216
102
RTVSPost2010PropOp51
 70
     0
102
RTVSPost2010Prop52
140
1.0
102
RTVSPost2010PropOp52
 70
     0
102
RTVSPost2010Prop53
 90
        2
102
RTVSPost2010PropOp53
 70
     1
102
RTVSPost2010Prop54
  1
strokes_ogs.tif
102
RTVSPost2010PropOp54
 70
     1
102
RTVSPost2010Prop55
280
     0
102
RTVSPost2010PropOp55
 70
     1
102
RTVSPost2010Prop56
140
1.0
102
RTVSPost2010PropOp56
 70
     1
102
RTVSPost2010Prop57
140
1.0
102
RTVSPost2010PropOp57
 70
     1
102
RTVSPropertyOp0
 70
     1
102
RTVSPropertyOp1
 70
     1
102
RTVSPropertyOp2
 70
     1
102
RTVSPropertyOp3
 70
     1
102
RTVSPropertyOp4
 70
     1
102
RTVSPropertyOp5
 70
     1
102
RTVSPropertyOp6
 70
     1
102
RTVSPropertyOp7
 70
     1
102
RTVSPropertyOp8
 70
     1
102
RTVSPropertyOp9
 70
     1
102
RTVSPropertyOp10
 70
     1
102
RTVSPropertyOp11
 70
     1
102
RTVSPropertyOp12
 70
     1
102
RTVSPropertyOp13
 70
     1
102
RTVSPropertyOp14
 70
     1
102
RTVSPropertyOp15
 70
     1
102
RTVSPropertyOp16
 70
     1
102
RTVSPropertyOp17
 70
     1
102
RTVSPropertyOp18
 70
     1
102
RTVSPropertyOp19
 70
     1
102
RTVSPropertyOp20
 70
     1
102
RTVSPropertyOp21
 70
     1
102
RTVSPropertyOp22
 70
     1
102
RTVSPropertyOp23
 70
     1
102
RTVSPropertyOp24
 70
     1
102
RTVSPropertyOp25
 70
     1
102
RTVSPropertyOp26
 70
     1
102
RTVSPropertyOp27
 70
     1
102
RTVSPropertyOp28
 70
     1
102
RTVSPropertyOp29
 70
     1
102
RTVSPropertyOp30
 70
     1
102
RTVSPropertyOp31
 70
     1
102
RTVSPropertyOp32
 70
     1
102
RTVSPropertyOp33
 70
     1
102
RTVSPropertyOp34
 70
     1
102
RTVSPropertyOp35
 70
     1
102
RTVSPropertyOp36
 70
     1
102
RTVSPropertyOp37
 70
     1
102
RTVSPropertyOp38
 70
     1
102
RTVSPropertyOp39
 70
     1
102
RTVSPropertyOp40
 70
     1
102
RTVSPropertyOp41
 70
     1
102
RTVSPropertyOp42
 70
     1
102
RTVSPropertyOp43
 70
     1
102
RTVSPropertyOp44
 70
     1
102
RTVSPropertyOp45
 70
     1
102
RTVSPropertyOp46
 70
     1
102
RTVSPropertyOp47
 70
     1
102
RTVSPropertyOp48
 70
     1
102
RTVSPropertyOp49
 70
     1
102
RTVSPropertyOp50
 70
     1
102
RTVSPropertyOp51
 70
     0
102
RTVSPropertyOp52
 70
     0
102
RTVSPropertyOp53
 70
     1
102
RTVSPropertyOp54
 70
     1
102
RTVSPropertyOp55
 70
     1
102
RTVSPropertyOp56
 70
     1
102
RTVSPropertyOp57
 70
     1
102
RTVSPropertyOp58
 70
     1
102
RTVSPropertyOp59
 70
     1
102
RTVSPropertyOp60
 70
     1
102
RTVSPropertyOp61
 70
     1
102
RTVSPropertyOp62
 70
     1
  0
XRECORD
  5
78C
102
{ACAD_REACTORS
330
78B
102
}
330
78B
100
AcDbXrecord
280
     1
102
RTVSPost2010Prop28
280
     0
102
RTVSPost2010PropOp28
 70
     1
102
RTVSPost2010Prop29
280
     1
102
RTVSPost2010PropOp29
 70
     1
102
RTVSPost2010Prop30
280
     1
102
RTVSPost2010PropOp30
 70
     1
102
RTVSPost2010Prop31
280
     0
102
RTVSPost2010PropOp31
 70
     1
102
RTVSPost2010Prop32
280
     0
102
RTVSPost2010PropOp32
 70
     1
102
RTVSPost2010Prop33
280
     0
102
RTVSPost2010PropOp33
 70
     1
102
RTVSPost2010Prop34
280
     0
102
RTVSPost2010PropOp34
 70
     1
102
RTVSPost2010Prop35
280
     0
102
RTVSPost2010PropOp35
 70
     1
102
RTVSPost2010Prop36
280
     0
102
RTVSPost2010PropOp36
 70
     1
102
RTVSPost2010Prop37
 90
       50
102
RTVSPost2010PropOp37
 70
     1
102
RTVSPost2010Prop38
140
0.0
102
RTVSPost2010PropOp38
 70
     1
102
RTVSPost2010Prop39
140
1.0
102
RTVSPost2010PropOp39
 70
     1
102
RTVSPost2010Prop40
 90
        0
102
RTVSPost2010PropOp40
 70
     1
102
RTVSPost2010Prop41ColorIndex
 90
       18
102
RTVSPost2010Prop41ColorRGB
 90
        0
102
RTVSPost2010PropOp41
 70
     1
102
RTVSPost2010Prop42
 90
       50
102
RTVSPost2010PropOp42
 70
     1
102
RTVSPost2010Prop43
 90
        3
102
RTVSPost2010PropOp43
 70
     1
102
RTVSPost2010Prop44ColorIndex
 90
        5
102
RTVSPost2010Prop44ColorRGB
 90
      255
102
RTVSPost2010PropOp44
 70
     1
102
RTVSPost2010Prop45
280
     0
102
RTVSPost2010PropOp45
 70
     1
102
RTVSPost2010Prop46
 90
       50
102
RTVSPost2010PropOp46
 70
     1
102
RTVSPost2010Prop47
 90
       50
102
RTVSPost2010PropOp47
 70
     1
102
RTVSPost2010Prop48
 90
       50
102
RTVSPost2010PropOp48
 70
     1
102
RTVSPost2010Prop49
280
     0
102
RTVSPost2010PropOp49
 70
     1
102
RTVSPost2010Prop50
 90
       50
102
RTVSPost2010PropOp50
 70
     1
102
RTVSPost2010Prop51ColorIndex
 90
      256
102
RTVSPost2010Prop51ColorRGB
 90
-16777216
102
RTVSPost2010PropOp51
 70
     0
102
RTVSPost2010Prop52
140
1.0
102
RTVSPost2010PropOp52
 70
     0
102
RTVSPost2010Prop53
 90
        2
102
RTVSPost2010PropOp53
 70
     1
102
RTVSPost2010Prop54
  1
strokes_ogs.tif
102
RTVSPost2010PropOp54
 70
     1
102
RTVSPost2010Prop55
280
     0
102
RTVSPost2010PropOp55
 70
     1
102
RTVSPost2010Prop56
140
1.0
102
RTVSPost2010PropOp56
 70
     1
102
RTVSPost2010Prop57
140
1.0
102
RTVSPost2010PropOp57
 70
     1
102
RTVSPropertyOp0
 70
     1
102
RTVSPropertyOp1
 70
     1
102
RTVSPropertyOp2
 70
     1
102
RTVSPropertyOp3
 70
     1
102
RTVSPropertyOp4
 70
     1
102
RTVSPropertyOp5
 70
     1
102
RTVSPropertyOp6
 70
     1
102
RTVSPropertyOp7
 70
     1
102
RTVSPropertyOp8
 70
     1
102
RTVSPropertyOp9
 70
     1
102
RTVSPropertyOp10
 70
     1
102
RTVSPropertyOp11
 70
     1
102
RTVSPropertyOp12
 70
     1
102
RTVSPropertyOp13
 70
     1
102
RTVSPropertyOp14
 70
     1
102
RTVSPropertyOp15
 70
     1
102
RTVSPropertyOp16
 70
     1
102
RTVSPropertyOp17
 70
     1
102
RTVSPropertyOp18
 70
     1
102
RTVSPropertyOp19
 70
     1
102
RTVSPropertyOp20
 70
     1
102
RTVSPropertyOp21
 70
     1
102
RTVSPropertyOp22
 70
     1
102
RTVSPropertyOp23
 70
     1
102
RTVSPropertyOp24
 70
     1
102
RTVSPropertyOp25
 70
     1
102
RTVSPropertyOp26
 70
     1
102
RTVSPropertyOp27
 70
     1
102
RTVSPropertyOp28
 70
     1
102
RTVSPropertyOp29
 70
     1
102
RTVSPropertyOp30
 70
     1
102
RTVSPropertyOp31
 70
     1
102
RTVSPropertyOp32
 70
     1
102
RTVSPropertyOp33
 70
     1
102
RTVSPropertyOp34
 70
     1
102
RTVSPropertyOp35
 70
     1
102
RTVSPropertyOp36
 70
     1
102
RTVSPropertyOp37
 70
     1
102
RTVSPropertyOp38
 70
     1
102
RTVSPropertyOp39
 70
     1
102
RTVSPropertyOp40
 70
     1
102
RTVSPropertyOp41
 70
     1
102
RTVSPropertyOp42
 70
     1
102
RTVSPropertyOp43
 70
     1
102
RTVSPropertyOp44
 70
     1
102
RTVSPropertyOp45
 70
     1
102
RTVSPropertyOp46
 70
     1
102
RTVSPropertyOp47
 70
     1
102
RTVSPropertyOp48
 70
     1
102
RTVSPropertyOp49
 70
     1
102
RTVSPropertyOp50
 70
     1
102
RTVSPropertyOp51
 70
     0
102
RTVSPropertyOp52
 70
     0
102
RTVSPropertyOp53
 70
     1
102
RTVSPropertyOp54
 70
     1
102
RTVSPropertyOp55
 70
     1
102
RTVSPropertyOp56
 70
     1
102
RTVSPropertyOp57
 70
     1
102
RTVSPropertyOp58
 70
     1
102
RTVSPropertyOp59
 70
     1
102
RTVSPropertyOp60
 70
     1
102
RTVSPropertyOp61
 70
     1
102
RTVSPropertyOp62
 70
     1
  0
XRECORD
  5
78E
102
{ACAD_REACTORS
330
78D
102
}
330
78D
100
AcDbXrecord
280
     1
102
RTVSPost2010Prop28
280
     0
102
RTVSPost2010PropOp28
 70
     1
102
RTVSPost2010Prop29
280
     1
102
RTVSPost2010PropOp29
 70
     1
102
RTVSPost2010Prop30
280
     1
102
RTVSPost2010PropOp30
 70
     1
102
RTVSPost2010Prop31
280
     0
102
RTVSPost2010PropOp31
 70
     1
102
RTVSPost2010Prop32
280
     0
102
RTVSPost2010PropOp32
 70
     1
102
RTVSPost2010Prop33
280
     0
102
RTVSPost2010PropOp33
 70
     1
102
RTVSPost2010Prop34
280
     0
102
RTVSPost2010PropOp34
 70
     1
102
RTVSPost2010Prop35
280
     0
102
RTVSPost2010PropOp35
 70
     1
102
RTVSPost2010Prop36
280
     0
102
RTVSPost2010PropOp36
 70
     1
102
RTVSPost2010Prop37
 90
       50
102
RTVSPost2010PropOp37
 70
     1
102
RTVSPost2010Prop38
140
0.0
102
RTVSPost2010PropOp38
 70
     1
102
RTVSPost2010Prop39
140
1.0
102
RTVSPost2010PropOp39
 70
     1
102
RTVSPost2010Prop40
 90
        0
102
RTVSPost2010PropOp40
 70
     1
102
RTVSPost2010Prop41ColorIndex
 90
       18
102
RTVSPost2010Prop41ColorRGB
 90
        0
102
RTVSPost2010PropOp41
 70
     1
102
RTVSPost2010Prop42
 90
       50
102
RTVSPost2010PropOp42
 70
     1
102
RTVSPost2010Prop43
 90
        3
102
RTVSPost2010PropOp43
 70
     1
102
RTVSPost2010Prop44ColorIndex
 90
        5
102
RTVSPost2010Prop44ColorRGB
 90
      255
102
RTVSPost2010PropOp44
 70
     1
102
RTVSPost2010Prop45
280
     0
102
RTVSPost2010PropOp45
 70
     1
102
RTVSPost2010Prop46
 90
       50
102
RTVSPost2010PropOp46
 70
     1
102
RTVSPost2010Prop47
 90
       50
102
RTVSPost2010PropOp47
 70
     1
102
RTVSPost2010Prop48
 90
       50
102
RTVSPost2010PropOp48
 70
     1
102
RTVSPost2010Prop49
280
     0
102
RTVSPost2010PropOp49
 70
     1
102
RTVSPost2010Prop50
 90
       50
102
RTVSPost2010PropOp50
 70
     1
102
RTVSPost2010Prop51ColorIndex
 90
      256
102
RTVSPost2010Prop51ColorRGB
 90
-16777216
102
RTVSPost2010PropOp51
 70
     0
102
RTVSPost2010Prop52
140
1.0
102
RTVSPost2010PropOp52
 70
     0
102
RTVSPost2010Prop53
 90
        2
102
RTVSPost2010PropOp53
 70
     1
102
RTVSPost2010Prop54
  1
strokes_ogs.tif
102
RTVSPost2010PropOp54
 70
     1
102
RTVSPost2010Prop55
280
     0
102
RTVSPost2010PropOp55
 70
     1
102
RTVSPost2010Prop56
140
1.0
102
RTVSPost2010PropOp56
 70
     1
102
RTVSPost2010Prop57
140
1.0
102
RTVSPost2010PropOp57
 70
     1
102
RTVSPropertyOp0
 70
     1
102
RTVSPropertyOp1
 70
     1
102
RTVSPropertyOp2
 70
     1
102
RTVSPropertyOp3
 70
     1
102
RTVSPropertyOp4
 70
     1
102
RTVSPropertyOp5
 70
     1
102
RTVSPropertyOp6
 70
     1
102
RTVSPropertyOp7
 70
     1
102
RTVSPropertyOp8
 70
     1
102
RTVSPropertyOp9
 70
     1
102
RTVSPropertyOp10
 70
     1
102
RTVSPropertyOp11
 70
     1
102
RTVSPropertyOp12
 70
     1
102
RTVSPropertyOp13
 70
     1
102
RTVSPropertyOp14
 70
     1
102
RTVSPropertyOp15
 70
     1
102
RTVSPropertyOp16
 70
     1
102
RTVSPropertyOp17
 70
     1
102
RTVSPropertyOp18
 70
     1
102
RTVSPropertyOp19
 70
     1
102
RTVSPropertyOp20
 70
     1
102
RTVSPropertyOp21
 70
     1
102
RTVSPropertyOp22
 70
     1
102
RTVSPropertyOp23
 70
     1
102
RTVSPropertyOp24
 70
     1
102
RTVSPropertyOp25
 70
     1
102
RTVSPropertyOp26
 70
     1
102
RTVSPropertyOp27
 70
     1
102
RTVSPropertyOp28
 70
     1
102
RTVSPropertyOp29
 70
     1
102
RTVSPropertyOp30
 70
     1
102
RTVSPropertyOp31
 70
     1
102
RTVSPropertyOp32
 70
     1
102
RTVSPropertyOp33
 70
     1
102
RTVSPropertyOp34
 70
     1
102
RTVSPropertyOp35
 70
     1
102
RTVSPropertyOp36
 70
     1
102
RTVSPropertyOp37
 70
     1
102
RTVSPropertyOp38
 70
     1
102
RTVSPropertyOp39
 70
     1
102
RTVSPropertyOp40
 70
     1
102
RTVSPropertyOp41
 70
     1
102
RTVSPropertyOp42
 70
     1
102
RTVSPropertyOp43
 70
     1
102
RTVSPropertyOp44
 70
     1
102
RTVSPropertyOp45
 70
     1
102
RTVSPropertyOp46
 70
     1
102
RTVSPropertyOp47
 70
     1
102
RTVSPropertyOp48
 70
     1
102
RTVSPropertyOp49
 70
     1
102
RTVSPropertyOp50
 70
     1
102
RTVSPropertyOp51
 70
     0
102
RTVSPropertyOp52
 70
     0
102
RTVSPropertyOp53
 70
     1
102
RTVSPropertyOp54
 70
     1
102
RTVSPropertyOp55
 70
     1
102
RTVSPropertyOp56
 70
     1
102
RTVSPropertyOp57
 70
     1
102
RTVSPropertyOp58
 70
     1
102
RTVSPropertyOp59
 70
     1
102
RTVSPropertyOp60
 70
     1
102
RTVSPropertyOp61
 70
     1
102
RTVSPropertyOp62
 70
     1
  0
XRECORD
  5
784
102
{ACAD_REACTORS
330
783
102
}
330
783
100
AcDbXrecord
280
     1
102
RTVSPost2010Prop28
280
     0
102
RTVSPost2010PropOp28
 70
     1
102
RTVSPost2010Prop29
280
     1
102
RTVSPost2010PropOp29
 70
     1
102
RTVSPost2010Prop30
280
     1
102
RTVSPost2010PropOp30
 70
     1
102
RTVSPost2010Prop31
280
     0
102
RTVSPost2010PropOp31
 70
     1
102
RTVSPost2010Prop32
280
     0
102
RTVSPost2010PropOp32
 70
     1
102
RTVSPost2010Prop33
280
     0
102
RTVSPost2010PropOp33
 70
     1
102
RTVSPost2010Prop34
280
     0
102
RTVSPost2010PropOp34
 70
     1
102
RTVSPost2010Prop35
280
     0
102
RTVSPost2010PropOp35
 70
     1
102
RTVSPost2010Prop36
280
     0
102
RTVSPost2010PropOp36
 70
     1
102
RTVSPost2010Prop37
 90
       50
102
RTVSPost2010PropOp37
 70
     1
102
RTVSPost2010Prop38
140
0.0
102
RTVSPost2010PropOp38
 70
     1
102
RTVSPost2010Prop39
140
1.0
102
RTVSPost2010PropOp39
 70
     1
102
RTVSPost2010Prop40
 90
        0
102
RTVSPost2010PropOp40
 70
     1
102
RTVSPost2010Prop41ColorIndex
 90
       18
102
RTVSPost2010Prop41ColorRGB
 90
        0
102
RTVSPost2010PropOp41
 70
     1
102
RTVSPost2010Prop42
 90
       50
102
RTVSPost2010PropOp42
 70
     1
102
RTVSPost2010Prop43
 90
        3
102
RTVSPost2010PropOp43
 70
     1
102
RTVSPost2010Prop44ColorIndex
 90
        5
102
RTVSPost2010Prop44ColorRGB
 90
      255
102
RTVSPost2010PropOp44
 70
     1
102
RTVSPost2010Prop45
280
     0
102
RTVSPost2010PropOp45
 70
     1
102
RTVSPost2010Prop46
 90
       50
102
RTVSPost2010PropOp46
 70
     1
102
RTVSPost2010Prop47
 90
       50
102
RTVSPost2010PropOp47
 70
     1
102
RTVSPost2010Prop48
 90
       50
102
RTVSPost2010PropOp48
 70
     1
102
RTVSPost2010Prop49
280
     0
102
RTVSPost2010PropOp49
 70
     1
102
RTVSPost2010Prop50
 90
       50
102
RTVSPost2010PropOp50
 70
     1
102
RTVSPost2010Prop51ColorIndex
 90
      256
102
RTVSPost2010Prop51ColorRGB
 90
-16777216
102
RTVSPost2010PropOp51
 70
     0
102
RTVSPost2010Prop52
140
1.0
102
RTVSPost2010PropOp52
 70
     0
102
RTVSPost2010Prop53
 90
        2
102
RTVSPost2010PropOp53
 70
     1
102
RTVSPost2010Prop54
  1
strokes_ogs.tif
102
RTVSPost2010PropOp54
 70
     1
102
RTVSPost2010Prop55
280
     0
102
RTVSPost2010PropOp55
 70
     1
102
RTVSPost2010Prop56
140
1.0
102
RTVSPost2010PropOp56
 70
     1
102
RTVSPost2010Prop57
140
1.0
102
RTVSPost2010PropOp57
 70
     1
102
RTVSPropertyOp0
 70
     1
102
RTVSPropertyOp1
 70
     1
102
RTVSPropertyOp2
 70
     1
102
RTVSPropertyOp3
 70
     1
102
RTVSPropertyOp4
 70
     1
102
RTVSPropertyOp5
 70
     1
102
RTVSPropertyOp6
 70
     1
102
RTVSPropertyOp7
 70
     1
102
RTVSPropertyOp8
 70
     1
102
RTVSPropertyOp9
 70
     1
102
RTVSPropertyOp10
 70
     1
102
RTVSPropertyOp11
 70
     1
102
RTVSPropertyOp12
 70
     1
102
RTVSPropertyOp13
 70
     1
102
RTVSPropertyOp14
 70
     1
102
RTVSPropertyOp15
 70
     1
102
RTVSPropertyOp16
 70
     1
102
RTVSPropertyOp17
 70
     1
102
RTVSPropertyOp18
 70
     1
102
RTVSPropertyOp19
 70
     1
102
RTVSPropertyOp20
 70
     1
102
RTVSPropertyOp21
 70
     1
102
RTVSPropertyOp22
 70
     1
102
RTVSPropertyOp23
 70
     1
102
RTVSPropertyOp24
 70
     1
102
RTVSPropertyOp25
 70
     1
102
RTVSPropertyOp26
 70
     1
102
RTVSPropertyOp27
 70
     1
102
RTVSPropertyOp28
 70
     1
102
RTVSPropertyOp29
 70
     1
102
RTVSPropertyOp30
 70
     1
102
RTVSPropertyOp31
 70
     1
102
RTVSPropertyOp32
 70
     1
102
RTVSPropertyOp33
 70
     1
102
RTVSPropertyOp34
 70
     1
102
RTVSPropertyOp35
 70
     1
102
RTVSPropertyOp36
 70
     1
102
RTVSPropertyOp37
 70
     1
102
RTVSPropertyOp38
 70
     1
102
RTVSPropertyOp39
 70
     1
102
RTVSPropertyOp40
 70
     1
102
RTVSPropertyOp41
 70
     1
102
RTVSPropertyOp42
 70
     1
102
RTVSPropertyOp43
 70
     1
102
RTVSPropertyOp44
 70
     1
102
RTVSPropertyOp45
 70
     1
102
RTVSPropertyOp46
 70
     1
102
RTVSPropertyOp47
 70
     1
102
RTVSPropertyOp48
 70
     1
102
RTVSPropertyOp49
 70
     1
102
RTVSPropertyOp50
 70
     1
102
RTVSPropertyOp51
 70
     0
102
RTVSPropertyOp52
 70
     0
102
RTVSPropertyOp53
 70
     1
102
RTVSPropertyOp54
 70
     1
102
RTVSPropertyOp55
 70
     1
102
RTVSPropertyOp56
 70
     1
102
RTVSPropertyOp57
 70
     1
102
RTVSPropertyOp58
 70
     1
102
RTVSPropertyOp59
 70
     1
102
RTVSPropertyOp60
 70
     1
102
RTVSPropertyOp61
 70
     1
102
RTVSPropertyOp62
 70
     1
  0
XRECORD
  5
778
102
{ACAD_REACTORS
330
777
102
}
330
777
100
AcDbXrecord
280
     1
102
RTVSPost2010Prop28
280
     0
102
RTVSPost2010PropOp28
 70
     1
102
RTVSPost2010Prop29
280
     1
102
RTVSPost2010PropOp29
 70
     1
102
RTVSPost2010Prop30
280
     1
102
RTVSPost2010PropOp30
 70
     1
102
RTVSPost2010Prop31
280
     0
102
RTVSPost2010PropOp31
 70
     1
102
RTVSPost2010Prop32
280
     0
102
RTVSPost2010PropOp32
 70
     1
102
RTVSPost2010Prop33
280
     0
102
RTVSPost2010PropOp33
 70
     1
102
RTVSPost2010Prop34
280
     0
102
RTVSPost2010PropOp34
 70
     1
102
RTVSPost2010Prop35
280
     0
102
RTVSPost2010PropOp35
 70
     1
102
RTVSPost2010Prop36
280
     0
102
RTVSPost2010PropOp36
 70
     1
102
RTVSPost2010Prop37
 90
       50
102
RTVSPost2010PropOp37
 70
     1
102
RTVSPost2010Prop38
140
0.0
102
RTVSPost2010PropOp38
 70
     1
102
RTVSPost2010Prop39
140
1.0
102
RTVSPost2010PropOp39
 70
     1
102
RTVSPost2010Prop40
 90
        0
102
RTVSPost2010PropOp40
 70
     1
102
RTVSPost2010Prop41ColorIndex
 90
       18
102
RTVSPost2010Prop41ColorRGB
 90
        0
102
RTVSPost2010PropOp41
 70
     1
102
RTVSPost2010Prop42
 90
       50
102
RTVSPost2010PropOp42
 70
     1
102
RTVSPost2010Prop43
 90
        3
102
RTVSPost2010PropOp43
 70
     1
102
RTVSPost2010Prop44ColorIndex
 90
        5
102
RTVSPost2010Prop44ColorRGB
 90
      255
102
RTVSPost2010PropOp44
 70
     1
102
RTVSPost2010Prop45
280
     0
102
RTVSPost2010PropOp45
 70
     1
102
RTVSPost2010Prop46
 90
       50
102
RTVSPost2010PropOp46
 70
     1
102
RTVSPost2010Prop47
 90
       50
102
RTVSPost2010PropOp47
 70
     1
102
RTVSPost2010Prop48
 90
       50
102
RTVSPost2010PropOp48
 70
     1
102
RTVSPost2010Prop49
280
     0
102
RTVSPost2010PropOp49
 70
     1
102
RTVSPost2010Prop50
 90
       50
102
RTVSPost2010PropOp50
 70
     1
102
RTVSPost2010Prop51ColorIndex
 90
      256
102
RTVSPost2010Prop51ColorRGB
 90
-16777216
102
RTVSPost2010PropOp51
 70
     0
102
RTVSPost2010Prop52
140
1.0
102
RTVSPost2010PropOp52
 70
     0
102
RTVSPost2010Prop53
 90
        2
102
RTVSPost2010PropOp53
 70
     1
102
RTVSPost2010Prop54
  1
strokes_ogs.tif
102
RTVSPost2010PropOp54
 70
     1
102
RTVSPost2010Prop55
280
     0
102
RTVSPost2010PropOp55
 70
     1
102
RTVSPost2010Prop56
140
1.0
102
RTVSPost2010PropOp56
 70
     1
102
RTVSPost2010Prop57
140
1.0
102
RTVSPost2010PropOp57
 70
     1
102
RTVSPropertyOp0
 70
     1
102
RTVSPropertyOp1
 70
     1
102
RTVSPropertyOp2
 70
     1
102
RTVSPropertyOp3
 70
     1
102
RTVSPropertyOp4
 70
     1
102
RTVSPropertyOp5
 70
     1
102
RTVSPropertyOp6
 70
     1
102
RTVSPropertyOp7
 70
     1
102
RTVSPropertyOp8
 70
     1
102
RTVSPropertyOp9
 70
     1
102
RTVSPropertyOp10
 70
     1
102
RTVSPropertyOp11
 70
     1
102
RTVSPropertyOp12
 70
     1
102
RTVSPropertyOp13
 70
     1
102
RTVSPropertyOp14
 70
     1
102
RTVSPropertyOp15
 70
     1
102
RTVSPropertyOp16
 70
     1
102
RTVSPropertyOp17
 70
     1
102
RTVSPropertyOp18
 70
     1
102
RTVSPropertyOp19
 70
     1
102
RTVSPropertyOp20
 70
     1
102
RTVSPropertyOp21
 70
     1
102
RTVSPropertyOp22
 70
     1
102
RTVSPropertyOp23
 70
     1
102
RTVSPropertyOp24
 70
     1
102
RTVSPropertyOp25
 70
     1
102
RTVSPropertyOp26
 70
     1
102
RTVSPropertyOp27
 70
     1
102
RTVSPropertyOp28
 70
     1
102
RTVSPropertyOp29
 70
     1
102
RTVSPropertyOp30
 70
     1
102
RTVSPropertyOp31
 70
     1
102
RTVSPropertyOp32
 70
     1
102
RTVSPropertyOp33
 70
     1
102
RTVSPropertyOp34
 70
     1
102
RTVSPropertyOp35
 70
     1
102
RTVSPropertyOp36
 70
     1
102
RTVSPropertyOp37
 70
     1
102
RTVSPropertyOp38
 70
     1
102
RTVSPropertyOp39
 70
     1
102
RTVSPropertyOp40
 70
     1
102
RTVSPropertyOp41
 70
     1
102
RTVSPropertyOp42
 70
     1
102
RTVSPropertyOp43
 70
     1
102
RTVSPropertyOp44
 70
     1
102
RTVSPropertyOp45
 70
     1
102
RTVSPropertyOp46
 70
     1
102
RTVSPropertyOp47
 70
     1
102
RTVSPropertyOp48
 70
     1
102
RTVSPropertyOp49
 70
     1
102
RTVSPropertyOp50
 70
     1
102
RTVSPropertyOp51
 70
     0
102
RTVSPropertyOp52
 70
     0
102
RTVSPropertyOp53
 70
     1
102
RTVSPropertyOp54
 70
     1
102
RTVSPropertyOp55
 70
     1
102
RTVSPropertyOp56
 70
     1
102
RTVSPropertyOp57
 70
     1
102
RTVSPropertyOp58
 70
     1
102
RTVSPropertyOp59
 70
     1
102
RTVSPropertyOp60
 70
     1
102
RTVSPropertyOp61
 70
     1
102
RTVSPropertyOp62
 70
     1
  0
XRECORD
  5
790
102
{ACAD_REACTORS
330
78F
102
}
330
78F
100
AcDbXrecord
280
     1
102
RTVSPost2010Prop28
280
     0
102
RTVSPost2010PropOp28
 70
     1
102
RTVSPost2010Prop29
280
     1
102
RTVSPost2010PropOp29
 70
     1
102
RTVSPost2010Prop30
280
     1
102
RTVSPost2010PropOp30
 70
     1
102
RTVSPost2010Prop31
280
     0
102
RTVSPost2010PropOp31
 70
     1
102
RTVSPost2010Prop32
280
     0
102
RTVSPost2010PropOp32
 70
     1
102
RTVSPost2010Prop33
280
     0
102
RTVSPost2010PropOp33
 70
     1
102
RTVSPost2010Prop34
280
     0
102
RTVSPost2010PropOp34
 70
     1
102
RTVSPost2010Prop35
280
     0
102
RTVSPost2010PropOp35
 70
     1
102
RTVSPost2010Prop36
280
     0
102
RTVSPost2010PropOp36
 70
     1
102
RTVSPost2010Prop37
 90
       50
102
RTVSPost2010PropOp37
 70
     1
102
RTVSPost2010Prop38
140
0.0
102
RTVSPost2010PropOp38
 70
     1
102
RTVSPost2010Prop39
140
1.0
102
RTVSPost2010PropOp39
 70
     1
102
RTVSPost2010Prop40
 90
        0
102
RTVSPost2010PropOp40
 70
     1
102
RTVSPost2010Prop41ColorIndex
 90
       18
102
RTVSPost2010Prop41ColorRGB
 90
        0
102
RTVSPost2010PropOp41
 70
     1
102
RTVSPost2010Prop42
 90
       50
102
RTVSPost2010PropOp42
 70
     1
102
RTVSPost2010Prop43
 90
        3
102
RTVSPost2010PropOp43
 70
     1
102
RTVSPost2010Prop44ColorIndex
 90
        5
102
RTVSPost2010Prop44ColorRGB
 90
      255
102
RTVSPost2010PropOp44
 70
     1
102
RTVSPost2010Prop45
280
     0
102
RTVSPost2010PropOp45
 70
     1
102
RTVSPost2010Prop46
 90
       50
102
RTVSPost2010PropOp46
 70
     1
102
RTVSPost2010Prop47
 90
       50
102
RTVSPost2010PropOp47
 70
     1
102
RTVSPost2010Prop48
 90
       50
102
RTVSPost2010PropOp48
 70
     1
102
RTVSPost2010Prop49
280
     0
102
RTVSPost2010PropOp49
 70
     1
102
RTVSPost2010Prop50
 90
       50
102
RTVSPost2010PropOp50
 70
     1
102
RTVSPost2010Prop51ColorIndex
 90
      256
102
RTVSPost2010Prop51ColorRGB
 90
-16777216
102
RTVSPost2010PropOp51
 70
     0
102
RTVSPost2010Prop52
140
1.0
102
RTVSPost2010PropOp52
 70
     0
102
RTVSPost2010Prop53
 90
        2
102
RTVSPost2010PropOp53
 70
     1
102
RTVSPost2010Prop54
  1
strokes_ogs.tif
102
RTVSPost2010PropOp54
 70
     1
102
RTVSPost2010Prop55
280
     0
102
RTVSPost2010PropOp55
 70
     1
102
RTVSPost2010Prop56
140
1.0
102
RTVSPost2010PropOp56
 70
     1
102
RTVSPost2010Prop57
140
1.0
102
RTVSPost2010PropOp57
 70
     1
102
RTVSPropertyOp0
 70
     1
102
RTVSPropertyOp1
 70
     1
102
RTVSPropertyOp2
 70
     1
102
RTVSPropertyOp3
 70
     1
102
RTVSPropertyOp4
 70
     1
102
RTVSPropertyOp5
 70
     1
102
RTVSPropertyOp6
 70
     1
102
RTVSPropertyOp7
 70
     1
102
RTVSPropertyOp8
 70
     1
102
RTVSPropertyOp9
 70
     1
102
RTVSPropertyOp10
 70
     1
102
RTVSPropertyOp11
 70
     1
102
RTVSPropertyOp12
 70
     1
102
RTVSPropertyOp13
 70
     1
102
RTVSPropertyOp14
 70
     1
102
RTVSPropertyOp15
 70
     1
102
RTVSPropertyOp16
 70
     1
102
RTVSPropertyOp17
 70
     1
102
RTVSPropertyOp18
 70
     1
102
RTVSPropertyOp19
 70
     1
102
RTVSPropertyOp20
 70
     1
102
RTVSPropertyOp21
 70
     1
102
RTVSPropertyOp22
 70
     1
102
RTVSPropertyOp23
 70
     1
102
RTVSPropertyOp24
 70
     1
102
RTVSPropertyOp25
 70
     1
102
RTVSPropertyOp26
 70
     1
102
RTVSPropertyOp27
 70
     1
102
RTVSPropertyOp28
 70
     1
102
RTVSPropertyOp29
 70
     1
102
RTVSPropertyOp30
 70
     1
102
RTVSPropertyOp31
 70
     1
102
RTVSPropertyOp32
 70
     1
102
RTVSPropertyOp33
 70
     1
102
RTVSPropertyOp34
 70
     1
102
RTVSPropertyOp35
 70
     1
102
RTVSPropertyOp36
 70
     1
102
RTVSPropertyOp37
 70
     1
102
RTVSPropertyOp38
 70
     1
102
RTVSPropertyOp39
 70
     1
102
RTVSPropertyOp40
 70
     1
102
RTVSPropertyOp41
 70
     1
102
RTVSPropertyOp42
 70
     1
102
RTVSPropertyOp43
 70
     1
102
RTVSPropertyOp44
 70
     1
102
RTVSPropertyOp45
 70
     1
102
RTVSPropertyOp46
 70
     1
102
RTVSPropertyOp47
 70
     1
102
RTVSPropertyOp48
 70
     1
102
RTVSPropertyOp49
 70
     1
102
RTVSPropertyOp50
 70
     1
102
RTVSPropertyOp51
 70
     0
102
RTVSPropertyOp52
 70
     0
102
RTVSPropertyOp53
 70
     1
102
RTVSPropertyOp54
 70
     1
102
RTVSPropertyOp55
 70
     1
102
RTVSPropertyOp56
 70
     1
102
RTVSPropertyOp57
 70
     1
102
RTVSPropertyOp58
 70
     1
102
RTVSPropertyOp59
 70
     1
102
RTVSPropertyOp60
 70
     1
102
RTVSPropertyOp61
 70
     1
102
RTVSPropertyOp62
 70
     1
  0
ENDSEC
  0
EOF
