  0
SECTION
  2
HEADER
  9
$ACADVER
  1
AC1018
  9
$ACADMAINTVER
 70
   104
  9
$DWGCODEPAGE
  3
ANSI_932
  9
$TITLE
  1
20㎏型LPガス容器(構内フォークリフト用フロートゲージ付,A型)
  9
$SUBJECT
  1
組立図　
  9
$AUTHOR
  1
岩﨑
  9
$KEYWORDS
  1
LP-47-5100　HP用
  9
$COMMENTS
  1
元図：LP-47-4940^M^J^M^J材質、板厚の変更^M^J^M^JHP用に簡易図面を作成　20214.1.16
  9
$LASTSAVEDBY
  1
CKK004820
  9
$INSBASE
 10
0.0
 20
0.0
 30
0.0
  9
$EXTMIN
 10
-26.26639215027581
 20
-30.57557758587882
 30
-0.0000000116415251
  9
$EXTMAX
 10
1593.733607742987
 20
1139.424421937864
 30
-0.0000000116415251
  9
$LIMMIN
 10
-3.17498779296875
 20
-3.174999952316284
  9
$LIMMAX
 10
416.8139953613281
 20
293.8356506824494
  9
$ORTHOMODE
 70
     1
  9
$REGENMODE
 70
     1
  9
$FILLMODE
 70
     1
  9
$QTEXTMODE
 70
     0
  9
$MIRRTEXT
 70
     0
  9
$LTSCALE
 40
0.5
  9
$ATTMODE
 70
     1
  9
$TEXTSIZE
 40
4.0
  9
$TRACEWID
 40
1.0
  9
$TEXTSTYLE
  7
Standard
  9
$CLAYER
  8
Defpoints
  9
$CELTYPE
  6
ByLayer
  9
$CECOLOR
 62
   256
  9
$CELTSCALE
 40
1.0
  9
$DISPSILH
 70
     0
  9
$DIMSCALE
 40
1.0
  9
$DIMASZ
 40
0.001
  9
$DIMEXO
 40
0.625
  9
$DIMDLI
 40
6.0
  9
$DIMRND
 40
0.0
  9
$DIMDLE
 40
0.0
  9
$DIMEXE
 40
1.25
  9
$DIMTP
 40
0.0
  9
$DIMTM
 40
0.000000001
  9
$DIMTXT
 40
4.0
  9
$DIMCEN
 40
0.0
  9
$DIMTSZ
 40
0.0
  9
$DIMTOL
 70
     0
  9
$DIMLIM
 70
     0
  9
$DIMTIH
 70
     0
  9
$DIMTOH
 70
     0
  9
$DIMSE1
 70
     0
  9
$DIMSE2
 70
     0
  9
$DIMTAD
 70
     1
  9
$DIMZIN
 70
     8
  9
$DIMBLK
  1
30a
  9
$DIMASO
 70
     1
  9
$DIMSHO
 70
     1
  9
$DIMPOST
  1

  9
$DIMAPOST
  1

  9
$DIMALT
 70
     0
  9
$DIMALTD
 70
     3
  9
$DIMALTF
 40
0.03937007874016
  9
$DIMLFAC
 40
1.0
  9
$DIMTOFL
 70
     0
  9
$DIMTVP
 40
0.0
  9
$DIMTIX
 70
     0
  9
$DIMSOXD
 70
     0
  9
$DIMSAH
 70
     0
  9
$DIMBLK1
  1

  9
$DIMBLK2
  1

  9
$DIMSTYLE
  2
設計
  9
$DIMCLRD
 70
     0
  9
$DIMCLRE
 70
     0
  9
$DIMCLRT
 70
     0
  9
$DIMTFAC
 40
0.5
  9
$DIMGAP
 40
0.625
  9
$DIMJUST
 70
     0
  9
$DIMSD1
 70
     0
  9
$DIMSD2
 70
     0
  9
$DIMTOLJ
 70
     0
  9
$DIMTZIN
 70
     8
  9
$DIMALTZ
 70
     0
  9
$DIMALTTZ
 70
     0
  9
$DIMUPT
 70
     0
  9
$DIMDEC
 70
     2
  9
$DIMTDEC
 70
     2
  9
$DIMALTU
 70
     2
  9
$DIMALTTD
 70
     3
  9
$DIMTXSTY
  7
Standard
  9
$DIMAUNIT
 70
     0
  9
$DIMADEC
 70
     0
  9
$DIMALTRND
 40
0.0
  9
$DIMAZIN
 70
     0
  9
$DIMDSEP
 70
    46
  9
$DIMATFIT
 70
     3
  9
$DIMFRAC
 70
     0
  9
$DIMLDRBLK
  1
30a
  9
$DIMLUNIT
 70
     2
  9
$DIMLWD
 70
     9
  9
$DIMLWE
 70
     9
  9
$DIMTMOVE
 70
     0
  9
$LUNITS
 70
     2
  9
$LUPREC
 70
     4
  9
$SKETCHINC
 40
1.0
  9
$FILLETRAD
 40
0.0
  9
$AUNITS
 70
     0
  9
$AUPREC
 70
     8
  9
$MENU
  1
.
  9
$ELEVATION
 40
0.0
  9
$PELEVATION
 40
0.0
  9
$THICKNESS
 40
0.0
  9
$LIMCHECK
 70
     0
  9
$CHAMFERA
 40
0.5
  9
$CHAMFERB
 40
0.5
  9
$CHAMFERC
 40
0.0
  9
$CHAMFERD
 40
0.0
  9
$SKPOLY
 70
     0
  9
$TDCREATE
 40
2460957.651666667
  9
$TDUCREATE
 40
2460957.276666667
  9
$TDUPDATE
 40
2460957.653472223
  9
$TDUUPDATE
 40
2460957.278472223
  9
$TDINDWG
 40
0.0017939815
  9
$TDUSRTIMER
 40
0.0017939815
  9
$USRTIMER
 70
     1
  9
$ANGBASE
 50
0.0
  9
$ANGDIR
 70
     0
  9
$PDMODE
 70
     0
  9
$PDSIZE
 40
0.0
  9
$PLINEWID
 40
0.0
  9
$SPLFRAME
 70
     0
  9
$SPLINETYPE
 70
     6
  9
$SPLINESEGS
 70
     8
  9
$HANDSEED
  5
7B4
  9
$SURFTAB1
 70
     6
  9
$SURFTAB2
 70
     6
  9
$SURFTYPE
 70
     6
  9
$SURFU
 70
     6
  9
$SURFV
 70
     6
  9
$UCSBASE
  2

  9
$UCSNAME
  2

  9
$UCSORG
 10
0.0
 20
0.0
 30
0.0
  9
$UCSXDIR
 10
1.0
 20
0.0
 30
0.0
  9
$UCSYDIR
 10
0.0
 20
1.0
 30
0.0
  9
$UCSORTHOREF
  2

  9
$UCSORTHOVIEW
 70
     0
  9
$UCSORGTOP
 10
0.0
 20
0.0
 30
0.0
  9
$UCSORGBOTTOM
 10
0.0
 20
0.0
 30
0.0
  9
$UCSORGLEFT
 10
0.0
 20
0.0
 30
0.0
  9
$UCSORGRIGHT
 10
0.0
 20
0.0
 30
0.0
  9
$UCSORGFRONT
 10
0.0
 20
0.0
 30
0.0
  9
$UCSORGBACK
 10
0.0
 20
0.0
 30
0.0
  9
$PUCSBASE
  2

  9
$PUCSNAME
  2

  9
$PUCSORG
 10
0.0
 20
0.0
 30
0.0
  9
$PUCSXDIR
 10
1.0
 20
0.0
 30
0.0
  9
$PUCSYDIR
 10
0.0
 20
1.0
 30
0.0
  9
$PUCSORTHOREF
  2

  9
$PUCSORTHOVIEW
 70
     0
  9
$PUCSORGTOP
 10
0.0
 20
0.0
 30
0.0
  9
$PUCSORGBOTTOM
 10
0.0
 20
0.0
 30
0.0
  9
$PUCSORGLEFT
 10
0.0
 20
0.0
 30
0.0
  9
$PUCSORGRIGHT
 10
0.0
 20
0.0
 30
0.0
  9
$PUCSORGFRONT
 10
0.0
 20
0.0
 30
0.0
  9
$PUCSORGBACK
 10
0.0
 20
0.0
 30
0.0
  9
$USERI1
 70
     0
  9
$USERI2
 70
     0
  9
$USERI3
 70
     0
  9
$USERI4
 70
     0
  9
$USERI5
 70
     0
  9
$USERR1
 40
0.0
  9
$USERR2
 40
0.0
  9
$USERR3
 40
0.0
  9
$USERR4
 40
0.0
  9
$USERR5
 40
0.0
  9
$WORLDVIEW
 70
     1
  9
$SHADEDGE
 70
     3
  9
$SHADEDIF
 70
    70
  9
$TILEMODE
 70
     1
  9
$MAXACTVP
 70
    64
  9
$PINSBASE
 10
0.0
 20
0.0
 30
0.0
  9
$PLIMCHECK
 70
     0
  9
$PEXTMIN
 10
29.69999999999999
 20
21.0
 30
0.0
  9
$PEXTMAX
 10
267.3
 20
189.0
 30
0.0
  9
$PLIMMIN
 10
0.0
 20
0.0
  9
$PLIMMAX
 10
297.0
 20
210.0
  9
$UNITMODE
 70
     0
  9
$VISRETAIN
 70
     1
  9
$PLINEGEN
 70
     0
  9
$PSLTSCALE
 70
     1
  9
$TREEDEPTH
 70
  3020
  9
$CMLSTYLE
  2
Standard
  9
$CMLJUST
 70
     0
  9
$CMLSCALE
 40
20.0
  9
$PROXYGRAPHICS
 70
     1
  9
$MEASUREMENT
 70
     1
  9
$CELWEIGHT
370
    -1
  9
$ENDCAPS
280
     0
  9
$JOINSTYLE
280
     0
  9
$LWDISPLAY
290
     0
  9
$INSUNITS
 70
     4
  9
$HYPERLINKBASE
  1

  9
$STYLESHEET
  1

  9
$XEDIT
290
     1
  9
$CEPSNTYPE
380
     0
  9
$PSTYLEMODE
290
     0
  9
$FINGERPRINTGUID
  2
{228BD6E3-8181-F742-90D4-E3B58F4379CC}
  9
$VERSIONGUID
  2
{79E9DC38-FAC3-5545-8E93-732938E896F0}
  9
$EXTNAMES
290
     1
  9
$PSVPSCALE
 40
0.0
  9
$OLESTARTUP
290
     0
  9
$SORTENTS
280
   127
  9
$INDEXCTL
280
     0
  9
$HIDETEXT
280
     1
  9
$XCLIPFRAME
290
     0
  9
$HALOGAP
280
     0
  9
$OBSCOLOR
 70
   257
  9
$OBSLTYPE
280
     0
  9
$INTERSECTIONDISPLAY
280
     0
  9
$INTERSECTIONCOLOR
 70
   257
  9
$DIMASSOC
280
     2
  9
$PROJECTNAME
  1

  0
ENDSEC
  0
SECTION
  2
CLASSES
  0
CLASS
  1
ACDBDICTIONARYWDFLT
  2
AcDbDictionaryWithDefault
  3
ObjectDBX Classes
 90
        0
 91
        1
280
     0
281
     0
  0
CLASS
  1
MATERIAL
  2
AcDbMaterial
  3
ObjectDBX Classes
 90
     1153
 91
        3
280
     0
281
     0
  0
CLASS
  1
VISUALSTYLE
  2
AcDbVisualStyle
  3
ObjectDBX Classes
 90
     4095
 91
       24
280
     0
281
     0
  0
CLASS
  1
SCALE
  2
AcDbScale
  3
ObjectDBX Classes
 90
     1153
 91
       17
280
     0
281
     0
  0
CLASS
  1
TABLESTYLE
  2
AcDbTableStyle
  3
ObjectDBX Classes
 90
     4095
 91
        1
280
     0
281
     0
  0
CLASS
  1
MLEADERSTYLE
  2
AcDbMLeaderStyle
  3
ACDB_MLEADERSTYLE_CLASS
 90
     4095
 91
        1
280
     0
281
     0
  0
CLASS
  1
ACDBSECTIONVIEWSTYLE
  2
AcDbSectionViewStyle
  3
ObjectDBX Classes
 90
     1025
 91
        2
280
     0
281
     0
  0
CLASS
  1
ACDBDETAILVIEWSTYLE
  2
AcDbDetailViewStyle
  3
ObjectDBX Classes
 90
     1025
 91
        2
280
     0
281
     0
  0
CLASS
  1
SORTENTSTABLE
  2
AcDbSortentsTable
  3
ObjectDBX Classes
 90
        0
 91
        2
280
     0
281
     0
  0
CLASS
  1
DICTIONARYVAR
  2
AcDbDictionaryVar
  3
ObjectDBX Classes
 90
        0
 91
       10
280
     0
281
     0
  0
CLASS
  1
CELLSTYLEMAP
  2
AcDbCellStyleMap
  3
ObjectDBX Classes
 90
     1152
 91
        1
280
     0
281
     0
  0
ENDSEC
  0
SECTION
  2
TABLES
  0
TABLE
  2
VPORT
  5
8
330
0
100
AcDbSymbolTable
 70
     1
  0
VPORT
  5
57
330
8
100
AcDbSymbolTableRecord
100
AcDbViewportTableRecord
  2
*Active
 70
     0
 10
0.0
 20
0.0
 11
1.0
 21
1.0
 12
783.7336077963557
 22
554.4244221759925
 13
0.0
 23
0.0
 14
10.0
 24
10.0
 15
10.0
 25
10.0
 16
0.0
 26
0.0
 36
1.0
 17
0.0
 27
0.0
 37
0.0
 40
1177.959183193972
 41
1.62883087400681
 42
50.0
 43
0.0
 44
0.0
 50
0.0
 51
0.0
 71
     0
 72
  1000
 73
     1
 74
     1
 75
     0
 76
     0
 77
     0
 78
     0
281
     0
 65
     1
110
0.0
120
0.0
130
0.0
111
1.0
121
0.0
131
0.0
112
0.0
122
1.0
132
0.0
 79
     0
146
0.0
1001
ACAD_NAV_VCDISPLAY
1070
     3
  0
ENDTAB
  0
TABLE
  2
LTYPE
  5
5
330
0
100
AcDbSymbolTable
 70
     6
  0
LTYPE
  5
5B
330
5
100
AcDbSymbolTableRecord
100
AcDbLinetypeTableRecord
  2
ByBlock
 70
     0
  3

 72
    65
 73
     0
 40
0.0
  0
LTYPE
  5
5C
330
5
100
AcDbSymbolTableRecord
100
AcDbLinetypeTableRecord
  2
ByLayer
 70
     0
  3

 72
    65
 73
     0
 40
0.0
  0
LTYPE
  5
5D
330
5
100
AcDbSymbolTableRecord
100
AcDbLinetypeTableRecord
  2
Continuous
 70
     0
  3
Solid line
 72
    65
 73
     0
 40
0.0
  0
LTYPE
  5
7A
330
5
100
AcDbSymbolTableRecord
100
AcDbLinetypeTableRecord
  2
CENTER2
 70
     0
  3
Center (.5x) ___ _ ___ _ ___ _ ___ _ ___ _ ___
 72
    65
 73
     4
 40
28.575
 49
19.05
 74
     0
 49
-3.174999999999999
 74
     0
 49
3.174999999999999
 74
     0
 49
-3.174999999999999
 74
     0
  0
LTYPE
  5
7B
330
5
100
AcDbSymbolTableRecord
100
AcDbLinetypeTableRecord
  2
HIDDEN2
 70
     0
  3
Hidden (.5x) _ _ _ _ _ _ _ _ _ _ _ _ _ _ _ _ _
 72
    65
 73
     2
 40
4.762499999999999
 49
3.174999999999999
 74
     0
 49
-1.587499999999999
 74
     0
  0
LTYPE
  5
7C
330
5
100
AcDbSymbolTableRecord
100
AcDbLinetypeTableRecord
  2
PHANTOM2
 70
     0
  3
Phantom (.5x) ___ _ _ ___ _ _ ___ _ _ ___ _ _
 72
    65
 73
     6
 40
31.75
 49
15.875
 74
     0
 49
-3.174999999999999
 74
     0
 49
3.174999999999999
 74
     0
 49
-3.174999999999999
 74
     0
 49
3.174999999999999
 74
     0
 49
-3.174999999999999
 74
     0
  0
LTYPE
  5
7D
330
5
100
AcDbSymbolTableRecord
100
AcDbLinetypeTableRecord
  2
HIDDEN
 70
     0
  3
Hidden __ __ __ __ __ __ __ __ __ __ __ __ __ _
 72
    65
 73
     2
 40
9.524999999999998
 49
6.349999999999999
 74
     0
 49
-3.174999999999999
 74
     0
  0
ENDTAB
  0
TABLE
  2
LAYER
  5
2
102
{ACAD_XDICTIONARY
360
6C9
102
}
330
0
100
AcDbSymbolTable
 70
     8
  0
LAYER
  5
54
102
{ACAD_XDICTIONARY
360
757
102
}
330
2
100
AcDbSymbolTableRecord
100
AcDbLayerTableRecord
  2
0
 70
     0
 62
     7
  6
Continuous
370
    -3
390
83
1001
AcAecLayerStandard
1000

1000

  0
LAYER
  5
79
330
2
100
AcDbSymbolTableRecord
100
AcDbLayerTableRecord
  2
Defpoints
 70
     0
 62
   151
  6
Continuous
290
     0
370
    -3
390
83
1001
AcAecLayerStandard
1000

1000
非表示用
  0
LAYER
  5
95
102
{ACAD_XDICTIONARY
360
96
102
}
330
2
100
AcDbSymbolTableRecord
100
AcDbLayerTableRecord
  2
Center
 70
     0
 62
     2
  6
CENTER2
370
     9
390
83
1001
AcAecLayerStandard
1000

1000
一点鎖線
  0
LAYER
  5
9C
102
{ACAD_XDICTIONARY
360
9D
102
}
330
2
100
AcDbSymbolTableRecord
100
AcDbLayerTableRecord
  2
Line
 70
     0
 62
     3
  6
Continuous
370
    30
390
83
1001
AcAecLayerStandard
1000

1000
実線
  0
LAYER
  5
CB
102
{ACAD_XDICTIONARY
360
CC
102
}
330
2
100
AcDbSymbolTableRecord
100
AcDbLayerTableRecord
  2
Hidden
 70
     0
 62
     7
  6
HIDDEN2
370
     9
390
83
1001
AcAecLayerStandard
1000

1000
点線
  0
LAYER
  5
DA
102
{ACAD_XDICTIONARY
360
DB
102
}
330
2
100
AcDbSymbolTableRecord
100
AcDbLayerTableRecord
  2
Phantom
 70
     0
 62
     7
  6
PHANTOM2
370
     9
390
83
1001
AcAecLayerStandard
1000

1000
二点鎖線
  0
LAYER
  5
23D
102
{ACAD_XDICTIONARY
360
23E
102
}
330
2
100
AcDbSymbolTableRecord
100
AcDbLayerTableRecord
  2
Text
 70
     0
 62
     7
  6
Continuous
370
    30
390
83
1001
AcAecLayerStandard
1000

1000
文字
  0
LAYER
  5
255
102
{ACAD_XDICTIONARY
360
256
102
}
330
2
100
AcDbSymbolTableRecord
100
AcDbLayerTableRecord
  2
Size
 70
     0
 62
    40
  6
Continuous
370
    30
390
83
1001
AcAecLayerStandard
1000

1000
寸法
  0
ENDTAB
  0
TABLE
  2
STYLE
  5
3
330
0
100
AcDbSymbolTable
 70
     2
  0
STYLE
  5
55
330
3
100
AcDbSymbolTableRecord
100
AcDbTextStyleTableRecord
  2
Standard
 70
     0
 40
0.0
 41
1.0
 50
0.0
 71
     0
 42
4.0
  3
exthalf2.shx
  4
extfont2.shx
  0
STYLE
  5
5A
330
3
100
AcDbSymbolTableRecord
100
AcDbTextStyleTableRecord
  2
Annotative
 70
     0
 40
0.0
 41
1.0
 50
0.0
 71
     0
 42
0.2
  3
txt
  4

1001
AcadAnnotative
1000
AnnotativeData
1002
{
1070
     1
1070
     1
1002
}
  0
ENDTAB
  0
TABLE
  2
VIEW
  5
6
330
0
100
AcDbSymbolTable
 70
     2
  0
ENDTAB
  0
TABLE
  2
UCS
  5
7
330
0
100
AcDbSymbolTable
 70
     0
  0
ENDTAB
  0
TABLE
  2
APPID
  5
9
330
0
100
AcDbSymbolTable
 70
    16
  0
APPID
  5
56
330
9
100
AcDbSymbolTableRecord
100
AcDbRegAppTableRecord
  2
ACAD
 70
     0
  0
APPID
  5
5E
330
9
100
AcDbSymbolTableRecord
100
AcDbRegAppTableRecord
  2
AcadAnnotative
 70
     0
  0
APPID
  5
78
330
9
100
AcDbSymbolTableRecord
100
AcDbRegAppTableRecord
  2
ACAD_PSEXT
 70
     0
  0
APPID
  5
85
330
9
100
AcDbSymbolTableRecord
100
AcDbRegAppTableRecord
  2
AcDbBlockRepETag
 70
     0
  0
APPID
  5
89
330
9
100
AcDbSymbolTableRecord
100
AcDbRegAppTableRecord
  2
AcDbDynamicBlockGUID
 70
     0
  0
APPID
  5
8A
330
9
100
AcDbSymbolTableRecord
100
AcDbRegAppTableRecord
  2
ACAD_DSTYLE_DIMJOGGED_JOGANGLE_SYMBOL
 70
     0
  0
APPID
  5
98
330
9
100
AcDbSymbolTableRecord
100
AcDbRegAppTableRecord
  2
AcAecLayerStandard
 70
     0
  0
APPID
  5
99
330
9
100
AcDbSymbolTableRecord
100
AcDbRegAppTableRecord
  2
Sigma
 70
     0
  0
APPID
  5
264
330
9
100
AcDbSymbolTableRecord
100
AcDbRegAppTableRecord
  2
ACAD_DIMASSOC_CALC_DIMLFAC
 70
     0
  0
APPID
  5
265
330
9
100
AcDbSymbolTableRecord
100
AcDbRegAppTableRecord
  2
ACAD_DIMASSOC_DIMLFAC
 70
     0
  0
APPID
  5
266
330
9
100
AcDbSymbolTableRecord
100
AcDbRegAppTableRecord
  2
ACAD_DIMASSOC_OVERRIDDEN_DIMLFAC
 70
     0
  0
APPID
  5
6D0
330
9
100
AcDbSymbolTableRecord
100
AcDbRegAppTableRecord
  2
ACAD_NAV_VCDISPLAY
 70
     0
  0
APPID
  5
754
330
9
100
AcDbSymbolTableRecord
100
AcDbRegAppTableRecord
  2
ACAD_EXEMPT_FROM_CAD_STANDARDS
 70
     0
  0
APPID
  5
79F
330
9
100
AcDbSymbolTableRecord
100
AcDbRegAppTableRecord
  2
ACAD_MLEADERVER
 70
     0
  0
APPID
  5
7A6
330
9
100
AcDbSymbolTableRecord
100
AcDbRegAppTableRecord
  2
ACAD_DSTYLE_DIMARC_LENGTH_SYMBOL
 70
     0
  0
APPID
  5
7A7
330
9
100
AcDbSymbolTableRecord
100
AcDbRegAppTableRecord
  2
ACAD_DSTYLE_DIMEXT_LENGTH
 70
     0
  0
ENDTAB
  0
TABLE
  2
DIMSTYLE
  5
A
330
0
100
AcDbSymbolTable
 70
     5
100
AcDbDimStyleTable
 71
     1
340
7E
  0
DIMSTYLE
105
58
330
A
100
AcDbSymbolTableRecord
100
AcDbDimStyleTableRecord
  2
Standard
 70
     0
340
55
  0
DIMSTYLE
105
59
330
A
100
AcDbSymbolTableRecord
100
AcDbDimStyleTableRecord
  2
Annotative
 70
     0
340
55
1001
AcadAnnotative
1000
AnnotativeData
1002
{
1070
     1
1070
     1
1002
}
  0
DIMSTYLE
105
7E
330
A
100
AcDbSymbolTableRecord
100
AcDbDimStyleTableRecord
  2
設計
 70
     0
 41
0.001
 42
0.625
 43
6.0
 44
1.25
 48
0.000000001
 73
     0
 74
     0
 77
     1
 78
     8
140
4.0
141
0.0
143
0.03937007874016
146
0.5
147
0.625
171
     3
271
     2
272
     2
274
     3
283
     0
284
     8
340
55
341
7F
342
7F
371
     9
372
     9
1001
ACAD_DSTYLE_DIMARC_LENGTH_SYMBOL
1070
   379
1070
     1
1001
ACAD_DSTYLE_DIMEXT_LENGTH
1070
   378
1040
1.25
1001
ACAD_DSTYLE_DIMJOGGED_JOGANGLE_SYMBOL
1070
   384
1040
1.570796326794896
  0
DIMSTYLE
105
8B
330
A
100
AcDbSymbolTableRecord
100
AcDbDimStyleTableRecord
  2
設計$2
 70
     0
 41
2.0
 42
0.625
 43
6.0
 44
1.25
 48
0.000000001
 73
     0
 74
     0
 77
     1
 78
     8
140
4.0
141
0.0
143
0.03937007874016
146
0.5
147
0.625
171
     3
271
     2
272
     2
274
     3
283
     0
284
     8
340
55
341
7F
342
8C
371
     9
372
     9
1001
ACAD_DSTYLE_DIMARC_LENGTH_SYMBOL
1070
   379
1070
     1
1001
ACAD_DSTYLE_DIMEXT_LENGTH
1070
   378
1040
1.25
1001
ACAD_DSTYLE_DIMJOGGED_JOGANGLE_SYMBOL
1070
   384
1040
1.570796326794896
  0
DIMSTYLE
105
92
330
A
100
AcDbSymbolTableRecord
100
AcDbDimStyleTableRecord
  2
設計$3
 70
     0
 41
0.001
 42
0.625
 43
6.0
 44
1.25
 48
0.000000001
 73
     0
 74
     0
 77
     1
 78
     8
140
4.0
141
0.0
143
0.03937007874016
146
0.5
147
0.625
171
     3
172
     1
271
     2
272
     2
274
     3
283
     0
284
     8
288
     1
289
     0
340
55
341
7F
342
7F
371
     9
372
     9
1001
ACAD_DSTYLE_DIMARC_LENGTH_SYMBOL
1070
   379
1070
     1
1001
ACAD_DSTYLE_DIMEXT_LENGTH
1070
   378
1040
1.25
1001
ACAD_DSTYLE_DIMJOGGED_JOGANGLE_SYMBOL
1070
   384
1040
1.570796326794896
  0
ENDTAB
  0
TABLE
  2
BLOCK_RECORD
  5
1
330
0
100
AcDbSymbolTable
 70
    27
  0
BLOCK_RECORD
  5
70
102
{ACAD_XDICTIONARY
360
213
102
}
330
1
100
AcDbSymbolTableRecord
100
AcDbBlockTableRecord
  2
*Model_Space
340
73
  0
BLOCK_RECORD
  5
6C
330
1
100
AcDbSymbolTableRecord
100
AcDbBlockTableRecord
  2
*Paper_Space
340
6F
  0
BLOCK_RECORD
  5
7F
102
{ACAD_XDICTIONARY
360
80
102
}
330
1
100
AcDbSymbolTableRecord
100
AcDbBlockTableRecord
  2
30a
340
0
102
{BLKREFS
331
701
331
702
331
707
331
708
331
70D
331
70E
331
713
331
714
331
719
331
71A
331
71E
331
721
331
728
331
729
331
72E
331
72F
331
732
331
733
331
738
331
739
331
73E
331
73F
331
745
331
746
331
749
331
74C
331
74F
331
630
331
631
331
639
331
63A
331
642
331
643
331
649
331
64A
331
652
331
653
331
65B
331
65C
331
663
331
666
331
68E
331
68F
331
697
331
698
331
6A0
331
6A1
331
6B9
331
6BA
331
6C1
331
6C2
102
}
1001
AcDbDynamicBlockGUID
1000
{389DF1C4-3B1C-4050-A5E6-C67CA2AE57A6}
1001
AcDbBlockRepETag
1070
     1
1071
        6
1001
ACAD
1000
DesignCenter Data
1002
{
1070
     1
1070
     4
1002
}
  0
BLOCK_RECORD
  5
8C
330
1
100
AcDbSymbolTableRecord
100
AcDbBlockTableRecord
  2
_Open30
340
0
  0
BLOCK_RECORD
  5
330
330
1
100
AcDbSymbolTableRecord
100
AcDbBlockTableRecord
  2
*D15
340
0
  0
BLOCK_RECORD
  5
33C
330
1
100
AcDbSymbolTableRecord
100
AcDbBlockTableRecord
  2
*D16
340
0
  0
BLOCK_RECORD
  5
348
330
1
100
AcDbSymbolTableRecord
100
AcDbBlockTableRecord
  2
*D17
340
0
  0
BLOCK_RECORD
  5
354
330
1
100
AcDbSymbolTableRecord
100
AcDbBlockTableRecord
  2
*D18
340
0
  0
BLOCK_RECORD
  5
35F
330
1
100
AcDbSymbolTableRecord
100
AcDbBlockTableRecord
  2
*D19
340
0
  0
BLOCK_RECORD
  5
36A
330
1
100
AcDbSymbolTableRecord
100
AcDbBlockTableRecord
  2
*D20
340
0
  0
BLOCK_RECORD
  5
379
330
1
100
AcDbSymbolTableRecord
100
AcDbBlockTableRecord
  2
*D21
340
0
  0
BLOCK_RECORD
  5
385
330
1
100
AcDbSymbolTableRecord
100
AcDbBlockTableRecord
  2
*D22
340
0
  0
BLOCK_RECORD
  5
391
330
1
100
AcDbSymbolTableRecord
100
AcDbBlockTableRecord
  2
*D23
340
0
  0
BLOCK_RECORD
  5
39B
330
1
100
AcDbSymbolTableRecord
100
AcDbBlockTableRecord
  2
*D24
340
0
  0
BLOCK_RECORD
  5
3A7
330
1
100
AcDbSymbolTableRecord
100
AcDbBlockTableRecord
  2
*D25
340
0
  0
BLOCK_RECORD
  5
3B3
330
1
100
AcDbSymbolTableRecord
100
AcDbBlockTableRecord
  2
*D26
340
0
  0
ENDTAB
  0
ENDSEC
  0
SECTION
  2
BLOCKS
  0
BLOCK
  5
71
330
70
100
AcDbEntity
  8
0
100
AcDbBlockBegin
  2
*Model_Space
 70
     0
 10
0.0
 20
0.0
 30
0.0
  3
*Model_Space
  1

  0
ENDBLK
  5
72
330
70
100
AcDbEntity
  8
0
100
AcDbBlockEnd
  0
BLOCK
  5
6D
330
6C
100
AcDbEntity
 67
     1
  8
0
100
AcDbBlockBegin
  2
*Paper_Space
 70
     0
 10
0.0
 20
0.0
 30
0.0
  3
*Paper_Space
  1

  0
ENDBLK
  5
6E
330
6C
100
AcDbEntity
 67
     1
  8
0
100
AcDbBlockEnd
  0
BLOCK
  5
82
330
7F
100
AcDbEntity
  8
0
390
83
100
AcDbBlockBegin
  2
30a
 70
     0
 10
0.0
 20
0.0
 30
0.0
  3
30a
  1

  0
LINE
  5
84
330
7F
100
AcDbEntity
  8
0
  6
ByBlock
 62
     0
370
    -2
100
AcDbLine
 10
0.0000000000002331
 20
0.0000000000000381
 30
0.0
 11
-3500.0
 21
0.0000000000002524
 31
0.0
1001
AcDbBlockRepETag
1070
     1
1071
        3
1005
84
  0
LINE
  5
86
330
7F
100
AcDbEntity
  8
0
  6
ByBlock
 62
     0
370
    -2
100
AcDbLine
 10
0.0000000000003695
 20
0.0000000000000076
 30
0.0
 11
-1931.851652578136
 21
517.6380902050417
 31
0.0
1001
AcDbBlockRepETag
1070
     1
1071
        4
1005
86
  0
LINE
  5
87
330
7F
100
AcDbEntity
  8
0
  6
ByBlock
 62
     0
370
    -2
100
AcDbLine
 10
0.0000000000003695
 20
0.0000000000000076
 30
0.0
 11
-1931.851652578136
 21
-517.6380902050413
 31
0.0
1001
AcDbBlockRepETag
1070
     1
1071
        5
1005
87
  0
ENDBLK
  5
88
330
7F
100
AcDbEntity
  8
0
390
83
100
AcDbBlockEnd
  0
BLOCK
  5
8D
330
8C
100
AcDbEntity
  8
0
100
AcDbBlockBegin
  2
_Open30
 70
     0
 10
0.0
 20
0.0
 30
0.0
  3
_Open30
  1

  0
LINE
  5
8E
330
8C
100
AcDbEntity
  8
0
  6
ByBlock
 62
     0
370
    -2
100
AcDbLine
 10
-1.0
 20
0.26794919
 30
0.0
 11
0.0
 21
0.0
 31
0.0
  0
LINE
  5
8F
330
8C
100
AcDbEntity
  8
0
  6
ByBlock
 62
     0
370
    -2
100
AcDbLine
 10
0.0
 20
0.0
 30
0.0
 11
-1.0
 21
-0.26794919
 31
0.0
  0
LINE
  5
90
330
8C
100
AcDbEntity
  8
0
  6
ByBlock
 62
     0
370
    -2
100
AcDbLine
 10
0.0
 20
0.0
 30
0.0
 11
-1.0
 21
0.0
 31
0.0
  0
ENDBLK
  5
91
330
8C
100
AcDbEntity
  8
0
100
AcDbBlockEnd
  0
BLOCK
  5
331
330
330
100
AcDbEntity
  8
0
100
AcDbBlockBegin
  2
*D15
 70
     1
 10
0.0
 20
0.0
 30
0.0
  3
*D15
  1

  0
LINE
  5
694
330
330
100
AcDbEntity
  8
Size
 62
     0
440
 16777216
370
     9
100
AcDbLine
 10
252.5324441477479
 20
551.0761488899238
 30
0.0
 11
252.5324441477479
 21
399.8725987860897
 31
0.0
  0
LINE
  5
695
330
330
100
AcDbEntity
  8
Size
 62
     0
440
 16777216
370
     9
100
AcDbLine
 10
302.532443954219
 20
439.2879464049276
 30
0.0
 11
302.532443954219
 21
399.8725987860897
 31
0.0
  0
LINE
  5
696
330
330
100
AcDbEntity
  8
Size
 62
     0
440
 16777216
370
     9
100
AcDbLine
 10
252.5364441477479
 20
404.8725987860897
 30
0.0
 11
302.528443954219
 21
404.8725987860897
 31
0.0
  0
INSERT
  5
697
330
330
100
AcDbEntity
  8
Size
 62
     0
440
 16777216
370
     9
100
AcDbBlockReference
  2
30a
 10
252.5324441477479
 20
404.8725987860897
 30
0.0
 41
0.004
 42
0.004
 43
0.004
 50
180.0
  0
INSERT
  5
698
330
330
100
AcDbEntity
  8
Size
 62
     0
440
 16777216
370
     9
100
AcDbBlockReference
  2
30a
 10
302.532443954219
 20
404.8725987860897
 30
0.0
 41
0.004
 42
0.004
 43
0.004
  0
MTEXT
  5
699
330
330
100
AcDbEntity
  8
Size
 62
     0
440
 16777216
100
AcDbMText
 10
277.5324440509835
 20
415.3725987860897
 30
0.0
 40
16.0
 41
0.0
 71
     5
 72
     1
  1
50
 73
     1
 44
1.0
  0
POINT
  5
69A
330
330
100
AcDbEntity
  8
Defpoints
 62
     0
440
 16777216
100
AcDbPoint
 10
252.5324441477479
 20
553.5761488899238
 30
0.0
  0
POINT
  5
69B
330
330
100
AcDbEntity
  8
Defpoints
 62
     0
440
 16777216
100
AcDbPoint
 10
302.532443954219
 20
441.7879464049276
 30
0.0
  0
POINT
  5
69C
330
330
100
AcDbEntity
  8
Defpoints
 62
     0
440
 16777216
100
AcDbPoint
 10
302.532443954219
 20
404.8725987860897
 30
0.0
  0
ENDBLK
  5
332
330
330
100
AcDbEntity
  8
0
100
AcDbBlockEnd
  0
BLOCK
  5
33D
330
33C
100
AcDbEntity
  8
0
100
AcDbBlockBegin
  2
*D16
 70
     1
 10
0.0
 20
0.0
 30
0.0
  3
*D16
  1

  0
LINE
  5
68B
330
33C
100
AcDbEntity
  8
Size
 62
     0
440
 16777216
370
     9
100
AcDbLine
 10
302.532443954219
 20
439.2879464049277
 30
0.0
 11
302.532443954219
 21
399.8725987860898
 31
0.0
  0
LINE
  5
68C
330
33C
100
AcDbEntity
  8
Size
 62
     0
440
 16777216
370
     9
100
AcDbLine
 10
344.9324437901065
 20
543.1549141235435
 30
0.0
 11
344.9324437901065
 21
399.8725987860898
 31
0.0
  0
LINE
  5
68D
330
33C
100
AcDbEntity
  8
Size
 62
     0
440
 16777216
370
     9
100
AcDbLine
 10
302.5364439542191
 20
404.8725987860898
 30
0.0
 11
344.9284437901064
 21
404.8725987860898
 31
0.0
  0
INSERT
  5
68E
330
33C
100
AcDbEntity
  8
Size
 62
     0
440
 16777216
370
     9
100
AcDbBlockReference
  2
30a
 10
302.532443954219
 20
404.8725987860898
 30
0.0
 41
0.004
 42
0.004
 43
0.004
 50
180.0
  0
INSERT
  5
68F
330
33C
100
AcDbEntity
  8
Size
 62
     0
440
 16777216
370
     9
100
AcDbBlockReference
  2
30a
 10
344.9324437901065
 20
404.8725987860898
 30
0.0
 41
0.004
 42
0.004
 43
0.004
  0
MTEXT
  5
690
330
33C
100
AcDbEntity
  8
Size
 62
     0
440
 16777216
100
AcDbMText
 10
323.7324438721628
 20
415.3725987860898
 30
0.0
 40
16.0
 41
0.0
 71
     5
 72
     1
  1
42.4
 73
     1
 44
1.0
  0
POINT
  5
691
330
33C
100
AcDbEntity
  8
Defpoints
 62
     0
440
 16777216
100
AcDbPoint
 10
302.532443954219
 20
441.7879464049277
 30
0.0
  0
POINT
  5
692
330
33C
100
AcDbEntity
  8
Defpoints
 62
     0
440
 16777216
100
AcDbPoint
 10
344.9324437901065
 20
545.6549141235435
 30
0.0
  0
POINT
  5
693
330
33C
100
AcDbEntity
  8
Defpoints
 62
     0
440
 16777216
100
AcDbPoint
 10
344.9324437901065
 20
404.8725987860898
 30
0.0
  0
ENDBLK
  5
33E
330
33C
100
AcDbEntity
  8
0
100
AcDbBlockEnd
  0
BLOCK
  5
349
330
348
100
AcDbEntity
  8
0
100
AcDbBlockBegin
  2
*D17
 70
     1
 10
0.0
 20
0.0
 30
0.0
  3
*D17
  1

  0
LINE
  5
69D
330
348
100
AcDbEntity
  8
Size
 62
     0
440
 16777216
370
     9
100
AcDbLine
 10
217.4094934544176
 20
582.2237667568813
 30
0.0
 11
97.60093879367016
 21
582.2237667568813
 31
0.0
  0
LINE
  5
69E
330
348
100
AcDbEntity
  8
Size
 62
     0
440
 16777216
370
     9
100
AcDbLine
 10
111.179985668787
 20
624.6237665927687
 30
0.0
 11
97.60093879367014
 21
624.6237665927687
 31
0.0
  0
LINE
  5
69F
330
348
100
AcDbEntity
  8
Size
 62
     0
440
 16777216
370
     9
100
AcDbLine
 10
102.6009387936701
 20
582.2277667568813
 30
0.0
 11
102.6009387936701
 21
624.6197665927686
 31
0.0
  0
INSERT
  5
6A0
330
348
100
AcDbEntity
  8
Size
 62
     0
440
 16777216
370
     9
100
AcDbBlockReference
  2
30a
 10
102.6009387936701
 20
582.2237667568813
 30
0.0
 41
0.004
 42
0.004
 43
0.004
 50
270.0
  0
INSERT
  5
6A1
330
348
100
AcDbEntity
  8
Size
 62
     0
440
 16777216
370
     9
100
AcDbBlockReference
  2
30a
 10
102.6009387936701
 20
624.6237665927687
 30
0.0
 41
0.004
 42
0.004
 43
0.004
 50
90.0
  0
MTEXT
  5
6A2
330
348
100
AcDbEntity
  8
Size
 62
     0
440
 16777216
100
AcDbMText
 10
92.10093879367029
 20
603.4237666748249
 30
0.0
 40
16.0
 41
0.0
 71
     5
 72
     1
  1
42.4
 11
0.0000000000000001
 21
1.0
 31
0.0
 73
     1
 44
1.0
  0
POINT
  5
6A3
330
348
100
AcDbEntity
  8
Defpoints
 62
     0
440
 16777216
100
AcDbPoint
 10
219.9094934544176
 20
582.2237667568813
 30
0.0
  0
POINT
  5
6A4
330
348
100
AcDbEntity
  8
Defpoints
 62
     0
440
 16777216
100
AcDbPoint
 10
113.679985668787
 20
624.6237665927687
 30
0.0
  0
POINT
  5
6A5
330
348
100
AcDbEntity
  8
Defpoints
 62
     0
440
 16777216
100
AcDbPoint
 10
102.6009387936701
 20
624.6237665927687
 30
0.0
  0
ENDBLK
  5
34A
330
348
100
AcDbEntity
  8
0
100
AcDbBlockEnd
  0
BLOCK
  5
355
330
354
100
AcDbEntity
  8
0
100
AcDbBlockBegin
  2
*D18
 70
     1
 10
0.0
 20
0.0
 30
0.0
  3
*D18
  1

  0
LINE
  5
6BE
330
354
100
AcDbEntity
  8
Size
 62
     0
440
 16777216
370
     9
100
AcDbLine
 10
268.7297681095578
 20
574.3630600477286
 30
0.0
 11
268.7333667152065
 21
574.3613136121053
 31
0.0
  0
LINE
  5
6BF
330
354
100
AcDbEntity
  8
Size
 62
     0
440
 16777216
370
     9
100
AcDbLine
 10
236.3351201859374
 20
590.084473466054
 30
0.0
 11
199.2011507707745
 21
608.1059221453451
 31
0.0
  0
LINE
  5
6C0
330
354
100
AcDbEntity
  8
Size
 62
     0
440
 16777216
370
     9
100
AcDbLine
 10
268.7261695039092
 20
574.3648064833516
 30
0.0
 11
236.338718791586
 21
590.082727030431
 31
0.0
  0
INSERT
  5
6C1
330
354
100
AcDbEntity
  8
Size
 62
     0
440
 16777216
370
     9
100
AcDbBlockReference
  2
30a
 10
268.7261695039092
 20
574.3648064833516
 30
0.0
 41
0.004
 42
0.004
 43
0.004
 50
154.1122846842813
  0
INSERT
  5
6C2
330
354
100
AcDbEntity
  8
Size
 62
     0
440
 16777216
370
     9
100
AcDbBlockReference
  2
30a
 10
236.338718791586
 20
590.082727030431
 30
0.0
 41
0.004
 42
0.004
 43
0.004
 50
334.1122846842813
  0
MTEXT
  5
6C3
102
{ACAD_XDICTIONARY
360
7B2
102
}
330
354
100
AcDbEntity
  8
Size
 62
     0
440
 16777216
100
AcDbMText
 10
218.0300249739157
 20
610.6392876315576
 30
0.0
 40
16.0
 41
0.0
 71
     5
 72
     1
  1
\U+220536
 11
0.8996514121578153
 21
-0.436608905775465
 31
0.0
 73
     1
 44
1.0
  0
POINT
  5
6C4
330
354
100
AcDbEntity
  8
Defpoints
 62
     0
440
 16777216
100
AcDbPoint
 10
236.338718791586
 20
590.082727030431
 30
0.0
  0
POINT
  5
6C5
330
354
100
AcDbEntity
  8
Defpoints
 62
     0
440
 16777216
100
AcDbPoint
 10
268.7261695039092
 20
574.3648064833516
 30
0.0
  0
ENDBLK
  5
356
330
354
100
AcDbEntity
  8
0
100
AcDbBlockEnd
  0
BLOCK
  5
360
330
35F
100
AcDbEntity
  8
0
100
AcDbBlockBegin
  2
*D19
 70
     1
 10
0.0
 20
0.0
 30
0.0
  3
*D19
  1

  0
LINE
  5
6B6
330
35F
100
AcDbEntity
  8
Size
 62
     0
440
 16777216
370
     9
100
AcDbLine
 10
323.6090297005188
 20
573.5926588634409
 30
0.0
 11
323.6053219254933
 21
573.5911580622016
 31
0.0
  0
LINE
  5
6B7
330
35F
100
AcDbEntity
  8
Size
 62
     0
440
 16777216
370
     9
100
AcDbLine
 10
366.2558578796935
 20
590.8548746503212
 30
0.0
 11
404.5114446686134
 21
606.3396415696705
 31
0.0
  0
LINE
  5
6B8
330
35F
100
AcDbEntity
  8
Size
 62
     0
440
 16777216
370
     9
100
AcDbLine
 10
323.6127374755445
 20
573.5941596646802
 30
0.0
 11
366.2521501046679
 21
590.8533738490819
 31
0.0
  0
INSERT
  5
6B9
330
35F
100
AcDbEntity
  8
Size
 62
     0
440
 16777216
370
     9
100
AcDbBlockReference
  2
30a
 10
323.6127374755445
 20
573.5941596646802
 30
0.0
 41
0.004
 42
0.004
 43
0.004
 50
22.03669374446139
  0
INSERT
  5
6BA
330
35F
100
AcDbEntity
  8
Size
 62
     0
440
 16777216
370
     9
100
AcDbBlockReference
  2
30a
 10
366.2521501046679
 20
590.8533738490819
 30
0.0
 41
0.004
 42
0.004
 43
0.004
 50
202.0366937444613
  0
MTEXT
  5
6BB
102
{ACAD_XDICTIONARY
360
7B0
102
}
330
35F
100
AcDbEntity
  8
Size
 62
     0
440
 16777216
100
AcDbMText
 10
385.8952319393693
 20
610.1318794398438
 30
0.0
 40
16.0
 41
0.0
 71
     5
 72
     1
  1
\U+220546
 11
0.9269437563948409
 21
0.3752003098088029
 31
0.0
 73
     1
 44
1.0
  0
POINT
  5
6BC
330
35F
100
AcDbEntity
  8
Defpoints
 62
     0
440
 16777216
100
AcDbPoint
 10
366.2521501046679
 20
590.8533738490819
 30
0.0
  0
POINT
  5
6BD
330
35F
100
AcDbEntity
  8
Defpoints
 62
     0
440
 16777216
100
AcDbPoint
 10
323.6127374755445
 20
573.5941596646802
 30
0.0
  0
ENDBLK
  5
361
330
35F
100
AcDbEntity
  8
0
100
AcDbBlockEnd
  0
BLOCK
  5
36B
330
36A
100
AcDbEntity
  8
0
100
AcDbBlockBegin
  2
*D20
 70
     1
 10
0.0
 20
0.0
 30
0.0
  3
*D20
  1

  0
LINE
  5
661
330
36A
100
AcDbEntity
  8
Size
 62
     0
440
 16777216
370
     9
100
AcDbLine
 10
738.7970165019934
 20
653.1237664824573
 30
0.0
 11
608.0521963565753
 21
653.1237664824573
 31
0.0
  0
LINE
  5
662
330
36A
100
AcDbEntity
  8
Size
 62
     0
440
 16777216
370
     9
100
AcDbLine
 10
613.0521963565753
 20
624.6277665927688
 30
0.0
 11
613.0521963565753
 21
653.1197664824572
 31
0.0
  0
INSERT
  5
663
330
36A
100
AcDbEntity
  8
Size
 62
     0
440
 16777216
370
     9
100
AcDbBlockReference
  2
30a
 10
613.0521963565753
 20
624.6237665927687
 30
0.0
 41
0.004
 42
0.004
 43
0.004
 50
90.0
  0
LINE
  5
664
330
36A
100
AcDbEntity
  8
Size
 62
     0
440
 16777216
370
     9
100
AcDbLine
 10
613.0521963565753
 20
624.6197665927687
 30
0.0
 11
613.0521963565753
 21
624.6157665927687
 31
0.0
  0
LINE
  5
665
330
36A
100
AcDbEntity
  8
Size
 62
     0
440
 16777216
370
     9
100
AcDbLine
 10
613.0521963565753
 20
624.6237665927687
 30
0.0
 11
613.0521963565753
 21
624.6277665927688
 31
0.0
  0
INSERT
  5
666
330
36A
100
AcDbEntity
  8
Size
 62
     0
440
 16777216
370
     9
100
AcDbBlockReference
  2
30a
 10
613.0521963565753
 20
653.1237664824573
 30
0.0
 41
0.004
 42
0.004
 43
0.004
 50
270.0
  0
LINE
  5
667
330
36A
100
AcDbEntity
  8
Size
 62
     0
440
 16777216
370
     9
100
AcDbLine
 10
613.0521963565753
 20
653.1277664824573
 30
0.0
 11
613.0521963565753
 21
653.1317664824573
 31
0.0
  0
LINE
  5
668
330
36A
100
AcDbEntity
  8
Size
 62
     0
440
 16777216
370
     9
100
AcDbLine
 10
613.0521963565753
 20
653.1237664824573
 30
0.0
 11
613.0521963565753
 21
653.1197664824572
 31
0.0
  0
MTEXT
  5
669
330
36A
100
AcDbEntity
  8
Size
 62
     0
440
 16777216
100
AcDbMText
 10
602.5521963565753
 20
646.2552625593474
 30
0.0
 40
16.0
 41
0.0
 71
     5
 72
     1
  1
28.5
 11
0.0000000000000001
 21
1.0
 31
0.0
 73
     1
 44
1.0
  0
POINT
  5
66A
330
36A
100
AcDbEntity
  8
Defpoints
 62
     0
440
 16777216
100
AcDbPoint
 10
639.4475156026762
 20
624.6237665927687
 30
0.0
  0
POINT
  5
66B
330
36A
100
AcDbEntity
  8
Defpoints
 62
     0
440
 16777216
100
AcDbPoint
 10
741.2970165019934
 20
653.1237664824573
 30
0.0
  0
POINT
  5
66C
330
36A
100
AcDbEntity
  8
Defpoints
 62
     0
440
 16777216
100
AcDbPoint
 10
613.0521963565753
 20
653.1237664824573
 30
0.0
  0
ENDBLK
  5
36C
330
36A
100
AcDbEntity
  8
0
100
AcDbBlockEnd
  0
BLOCK
  5
37A
330
379
100
AcDbEntity
  8
0
100
AcDbBlockBegin
  2
*D21
 70
     1
 10
0.0
 20
0.0
 30
0.0
  3
*D21
  1

  0
LINE
  5
64F
330
379
100
AcDbEntity
  8
Size
 62
     0
440
 16777216
370
     9
100
AcDbLine
 10
706.7454898264858
 20
619.9354969199104
 30
0.0
 11
662.8883941791546
 21
631.6869702810081
 31
0.0
  0
LINE
  5
650
330
379
100
AcDbEntity
  8
Size
 62
     0
440
 16777216
370
     9
100
AcDbLine
 10
727.9686514427797
 20
699.1414143690239
 30
0.0
 11
684.1115557954485
 21
710.8928877301216
 31
0.0
  0
LINE
  5
651
330
379
100
AcDbEntity
  8
Size
 62
     0
440
 16777216
370
     9
100
AcDbLine
 10
667.7190585867798
 20
630.3967387587984
 30
0.0
 11
688.9401496507129
 21
709.5949288013017
 31
0.0
  0
INSERT
  5
652
330
379
100
AcDbEntity
  8
Size
 62
     0
440
 16777216
370
     9
100
AcDbBlockReference
  2
30a
 10
667.7180233105993
 20
630.3928750554933
 30
0.0
 41
0.004
 42
0.004
 43
0.004
 50
254.9999999999746
  0
INSERT
  5
653
330
379
100
AcDbEntity
  8
Size
 62
     0
440
 16777216
370
     9
100
AcDbBlockReference
  2
30a
 10
688.9411849268933
 20
709.5987925046069
 30
0.0
 41
0.004
 42
0.004
 43
0.004
 50
74.99999999997455
  0
MTEXT
  5
654
330
379
100
AcDbEntity
  8
Size
 62
     0
440
 16777216
100
AcDbMText
 10
672.2265338937298
 20
687.7877503222423
 30
0.0
 40
16.0
 41
0.0
 71
     5
 72
     1
  1
%%c82
 11
0.2588190451029499
 21
0.9659258262889533
 31
0.0
 73
     1
 44
1.0
  0
POINT
  5
655
330
379
100
AcDbEntity
  8
Defpoints
 62
     0
440
 16777216
100
AcDbPoint
 10
709.1603043922082
 20
619.2884493071531
 30
0.0
  0
POINT
  5
656
330
379
100
AcDbEntity
  8
Defpoints
 62
     0
440
 16777216
100
AcDbPoint
 10
730.383466008502
 20
698.4943667562665
 30
0.0
  0
POINT
  5
657
330
379
100
AcDbEntity
  8
Defpoints
 62
     0
440
 16777216
100
AcDbPoint
 10
688.9411849268933
 20
709.5987925046069
 30
0.0
  0
ENDBLK
  5
37B
330
379
100
AcDbEntity
  8
0
100
AcDbBlockEnd
  0
BLOCK
  5
386
330
385
100
AcDbEntity
  8
0
100
AcDbBlockBegin
  2
*D22
 70
     1
 10
0.0
 20
0.0
 30
0.0
  3
*D22
  1

  0
LINE
  5
62D
330
385
100
AcDbEntity
  8
Size
 62
     0
440
 16777216
370
     9
100
AcDbLine
 10
1436.50872799742
 20
479.4076950250898
 30
0.0
 11
1501.27743835363
 21
479.4076950250898
 31
0.0
  0
LINE
  5
62E
330
385
100
AcDbEntity
  8
Size
 62
     0
440
 16777216
370
     9
100
AcDbLine
 10
1436.50872799742
 20
769.4076939026226
 30
0.0
 11
1501.27743835363
 21
769.4076939026226
 31
0.0
  0
LINE
  5
62F
330
385
100
AcDbEntity
  8
Size
 62
     0
440
 16777216
370
     9
100
AcDbLine
 10
1496.27743835363
 20
479.4116950250899
 30
0.0
 11
1496.27743835363
 21
769.4036939026227
 31
0.0
  0
INSERT
  5
630
330
385
100
AcDbEntity
  8
Size
 62
     0
440
 16777216
370
     9
100
AcDbBlockReference
  2
30a
 10
1496.27743835363
 20
479.4076950250898
 30
0.0
 41
0.004
 42
0.004
 43
0.004
 50
270.0
  0
INSERT
  5
631
330
385
100
AcDbEntity
  8
Size
 62
     0
440
 16777216
370
     9
100
AcDbBlockReference
  2
30a
 10
1496.27743835363
 20
769.4076939026226
 30
0.0
 41
0.004
 42
0.004
 43
0.004
 50
90.0
  0
MTEXT
  5
632
330
385
100
AcDbEntity
  8
Size
 62
     0
440
 16777216
100
AcDbMText
 10
1485.77743835363
 20
624.4076944638556
 30
0.0
 40
16.0
 41
0.0
 71
     5
 72
     1
  1
%%c290
 11
0.0000000000000001
 21
1.0
 31
0.0
 73
     1
 44
1.0
  0
POINT
  5
633
330
385
100
AcDbEntity
  8
Defpoints
 62
     0
440
 16777216
100
AcDbPoint
 10
1434.008727997421
 20
479.4076950250898
 30
0.0
  0
POINT
  5
634
330
385
100
AcDbEntity
  8
Defpoints
 62
     0
440
 16777216
100
AcDbPoint
 10
1434.00872799742
 20
769.4076939026226
 30
0.0
  0
POINT
  5
635
330
385
100
AcDbEntity
  8
Defpoints
 62
     0
440
 16777216
100
AcDbPoint
 10
1496.27743835363
 20
769.4076939026226
 30
0.0
  0
ENDBLK
  5
387
330
385
100
AcDbEntity
  8
0
100
AcDbBlockEnd
  0
BLOCK
  5
392
330
391
100
AcDbEntity
  8
0
100
AcDbBlockBegin
  2
*D23
 70
     1
 10
0.0
 20
0.0
 30
0.0
  3
*D23
  1

  0
LINE
  5
648
330
391
100
AcDbEntity
  8
Size
 62
     0
440
 16777216
370
     9
100
AcDbLine
 10
1167.235894626148
 20
464.6277672120607
 30
0.0
 11
1167.235894626148
 21
784.6197659734765
 31
0.0
  0
INSERT
  5
649
330
391
100
AcDbEntity
  8
Size
 62
     0
440
 16777216
370
     9
100
AcDbBlockReference
  2
30a
 10
1167.235894626148
 20
464.6237672120607
 30
0.0
 41
0.004
 42
0.004
 43
0.004
 50
270.0
  0
INSERT
  5
64A
330
391
100
AcDbEntity
  8
Size
 62
     0
440
 16777216
370
     9
100
AcDbBlockReference
  2
30a
 10
1167.235894626148
 20
784.6237659734765
 30
0.0
 41
0.004
 42
0.004
 43
0.004
 50
90.0
  0
MTEXT
  5
64B
330
391
100
AcDbEntity
  8
Size
 62
     0
440
 16777216
100
AcDbMText
 10
1156.735894626148
 20
568.3595436160041
 30
0.0
 40
16.0
 41
0.0
 71
     5
 72
     1
  1
%%c320
 11
0.0000000000000001
 21
1.0
 31
0.0
 73
     1
 44
1.0
  0
POINT
  5
64C
330
391
100
AcDbEntity
  8
Defpoints
 62
     0
440
 16777216
100
AcDbPoint
 10
1077.379909212482
 20
464.6237672120606
 30
0.0
  0
POINT
  5
64D
330
391
100
AcDbEntity
  8
Defpoints
 62
     0
440
 16777216
100
AcDbPoint
 10
1077.379909212482
 20
784.6237659734765
 30
0.0
  0
POINT
  5
64E
330
391
100
AcDbEntity
  8
Defpoints
 62
     0
440
 16777216
100
AcDbPoint
 10
1167.235894626148
 20
784.6237659734765
 30
0.0
  0
ENDBLK
  5
393
330
391
100
AcDbEntity
  8
0
100
AcDbBlockEnd
  0
BLOCK
  5
39C
330
39B
100
AcDbEntity
  8
0
100
AcDbBlockBegin
  2
*D24
 70
     1
 10
0.0
 20
0.0
 30
0.0
  3
*D24
  1

  0
LINE
  5
63F
330
39B
100
AcDbEntity
  8
Size
 62
     0
440
 16777216
370
     9
100
AcDbLine
 10
739.8799105187918
 20
627.1237665927685
 30
0.0
 11
739.8799105187918
 21
836.1811426566646
 31
0.0
  0
LINE
  5
640
330
39B
100
AcDbEntity
  8
Size
 62
     0
440
 16777216
370
     9
100
AcDbLine
 10
1445.008727954843
 20
760.9076939451983
 30
0.0
 11
1445.008727954843
 21
836.1811426566646
 31
0.0
  0
LINE
  5
641
330
39B
100
AcDbEntity
  8
Size
 62
     0
440
 16777216
370
     9
100
AcDbLine
 10
739.8839105187918
 20
831.1811426566645
 30
0.0
 11
1445.004727954843
 21
831.1811426566645
 31
0.0
  0
INSERT
  5
642
330
39B
100
AcDbEntity
  8
Size
 62
     0
440
 16777216
370
     9
100
AcDbBlockReference
  2
30a
 10
739.8799105187918
 20
831.1811426566645
 30
0.0
 41
0.004
 42
0.004
 43
0.004
 50
180.0
  0
INSERT
  5
643
330
39B
100
AcDbEntity
  8
Size
 62
     0
440
 16777216
370
     9
100
AcDbBlockReference
  2
30a
 10
1445.008727954843
 20
831.1811426566645
 30
0.0
 41
0.004
 42
0.004
 43
0.004
  0
MTEXT
  5
644
330
39B
100
AcDbEntity
  8
Size
 62
     0
440
 16777216
100
AcDbMText
 10
1092.444319236817
 20
841.6811426566646
 30
0.0
 40
16.0
 41
0.0
 71
     5
 72
     1
  1
705
 73
     1
 44
1.0
  0
POINT
  5
645
330
39B
100
AcDbEntity
  8
Defpoints
 62
     0
440
 16777216
100
AcDbPoint
 10
739.8799105187918
 20
624.6237665927686
 30
0.0
  0
POINT
  5
646
330
39B
100
AcDbEntity
  8
Defpoints
 62
     0
440
 16777216
100
AcDbPoint
 10
1445.008727954843
 20
758.4076939451984
 30
0.0
  0
POINT
  5
647
330
39B
100
AcDbEntity
  8
Defpoints
 62
     0
440
 16777216
100
AcDbPoint
 10
1445.008727954843
 20
831.1811426566645
 30
0.0
  0
ENDBLK
  5
39D
330
39B
100
AcDbEntity
  8
0
100
AcDbBlockEnd
  0
BLOCK
  5
3A8
330
3A7
100
AcDbEntity
  8
0
100
AcDbBlockBegin
  2
*D25
 70
     1
 10
0.0
 20
0.0
 30
0.0
  3
*D25
  1

  0
LINE
  5
636
330
3A7
100
AcDbEntity
  8
Size
 62
     0
440
 16777216
370
     9
100
AcDbLine
 10
639.4475156026961
 20
743.4737661424269
 30
0.0
 11
639.4475156026961
 21
860.1811425637706
 31
0.0
  0
LINE
  5
637
330
3A7
100
AcDbEntity
  8
Size
 62
     0
440
 16777216
370
     9
100
AcDbLine
 10
1445.008727954844
 20
760.9076939451983
 30
0.0
 11
1445.008727954844
 21
860.1811425637706
 31
0.0
  0
LINE
  5
638
330
3A7
100
AcDbEntity
  8
Size
 62
     0
440
 16777216
370
     9
100
AcDbLine
 10
639.4515156026962
 20
855.1811425637705
 30
0.0
 11
1445.004727954844
 21
855.1811425637705
 31
0.0
  0
INSERT
  5
639
330
3A7
100
AcDbEntity
  8
Size
 62
     0
440
 16777216
370
     9
100
AcDbBlockReference
  2
30a
 10
639.4475156026961
 20
855.1811425637705
 30
0.0
 41
0.004
 42
0.004
 43
0.004
 50
180.0
  0
INSERT
  5
63A
330
3A7
100
AcDbEntity
  8
Size
 62
     0
440
 16777216
370
     9
100
AcDbBlockReference
  2
30a
 10
1445.008727954844
 20
855.1811425637705
 30
0.0
 41
0.004
 42
0.004
 43
0.004
  0
MTEXT
  5
63B
330
3A7
100
AcDbEntity
  8
Size
 62
     0
440
 16777216
100
AcDbMText
 10
1042.22812177877
 20
865.6811425637705
 30
0.0
 40
16.0
 41
0.0
 71
     5
 72
     1
  1
約806
 73
     1
 44
1.0
  0
POINT
  5
63C
330
3A7
100
AcDbEntity
  8
Defpoints
 62
     0
440
 16777216
100
AcDbPoint
 10
639.4475156026961
 20
740.9737661424269
 30
0.0
  0
POINT
  5
63D
330
3A7
100
AcDbEntity
  8
Defpoints
 62
     0
440
 16777216
100
AcDbPoint
 10
1445.008727954844
 20
758.4076939451984
 30
0.0
  0
POINT
  5
63E
330
3A7
100
AcDbEntity
  8
Defpoints
 62
     0
440
 16777216
100
AcDbPoint
 10
1445.008727954844
 20
855.1811425637705
 30
0.0
  0
ENDBLK
  5
3A9
330
3A7
100
AcDbEntity
  8
0
100
AcDbBlockEnd
  0
BLOCK
  5
3B4
330
3B3
100
AcDbEntity
  8
0
100
AcDbBlockBegin
  2
*D26
 70
     1
 10
0.0
 20
0.0
 30
0.0
  3
*D26
  1

  0
LINE
  5
658
330
3B3
100
AcDbEntity
  8
Size
 62
     0
440
 16777216
370
     9
100
AcDbLine
 10
645.5975155692158
 20
499.6237670765908
 30
0.0
 11
582.8202024323617
 21
499.6237670765908
 31
0.0
  0
LINE
  5
659
330
3B3
100
AcDbEntity
  8
Size
 62
     0
440
 16777216
370
     9
100
AcDbLine
 10
645.5975155692162
 20
749.6237661089467
 30
0.0
 11
582.8202024323617
 21
749.6237661089467
 31
0.0
  0
LINE
  5
65A
330
3B3
100
AcDbEntity
  8
Size
 62
     0
440
 16777216
370
     9
100
AcDbLine
 10
587.8202024323617
 20
499.6277670765908
 30
0.0
 11
587.8202024323617
 21
749.6197661089467
 31
0.0
  0
INSERT
  5
65B
330
3B3
100
AcDbEntity
  8
Size
 62
     0
440
 16777216
370
     9
100
AcDbBlockReference
  2
30a
 10
587.8202024323617
 20
499.6237670765908
 30
0.0
 41
0.004
 42
0.004
 43
0.004
 50
270.0
  0
INSERT
  5
65C
330
3B3
100
AcDbEntity
  8
Size
 62
     0
440
 16777216
370
     9
100
AcDbBlockReference
  2
30a
 10
587.8202024323617
 20
749.6237661089467
 30
0.0
 41
0.004
 42
0.004
 43
0.004
 50
90.0
  0
MTEXT
  5
65D
330
3B3
100
AcDbEntity
  8
Size
 62
     0
440
 16777216
100
AcDbMText
 10
577.3202024323617
 20
624.6237665927686
 30
0.0
 40
16.0
 41
0.0
 71
     5
 72
     1
  1
%%c250
 11
0.0000000000000001
 21
1.0
 31
0.0
 73
     1
 44
1.0
  0
POINT
  5
65E
330
3B3
100
AcDbEntity
  8
Defpoints
 62
     0
440
 16777216
100
AcDbPoint
 10
648.0975155692158
 20
499.6237670765908
 30
0.0
  0
POINT
  5
65F
330
3B3
100
AcDbEntity
  8
Defpoints
 62
     0
440
 16777216
100
AcDbPoint
 10
648.0975155692163
 20
749.6237661089467
 30
0.0
  0
POINT
  5
660
330
3B3
100
AcDbEntity
  8
Defpoints
 62
     0
440
 16777216
100
AcDbPoint
 10
587.8202024323617
 20
749.6237661089467
 30
0.0
  0
ENDBLK
  5
3B5
330
3B3
100
AcDbEntity
  8
0
100
AcDbBlockEnd
  0
ENDSEC
  0
SECTION
  2
ENTITIES
  0
LINE
  5
94
330
70
100
AcDbEntity
  8
Center
100
AcDbLine
 10
1470.814333919163
 20
624.6237665927695
 30
0.0
 11
113.679985668787
 21
624.6237665927695
 31
0.0
1001
Sigma
1000

  0
LINE
  5
9A
330
70
100
AcDbEntity
  8
Center
100
AcDbLine
 10
263.3426123029063
 20
770.8822094557048
 30
0.0
 11
278.4041874972093
 21
714.6716455883422
 31
0.0
1001
Sigma
1000

  0
CIRCLE
  5
9B
330
70
100
AcDbEntity
  8
Line
100
AcDbCircle
 10
302.532443954219
 20
624.6237665927695
 30
0.0
 40
159.9999993807076
1001
Sigma
1000

  0
LINE
  5
9F
330
70
100
AcDbEntity
  8
Center
100
AcDbLine
 10
302.532443954219
 20
812.176004672804
 30
0.0
 11
302.532443954219
 21
441.7879464049287
 31
0.0
1001
Sigma
1000

  0
CIRCLE
  5
A0
330
70
100
AcDbEntity
  8
Line
100
AcDbCircle
 10
302.532443954219
 20
624.6237665927695
 30
0.0
 40
124.9999995161778
1001
Sigma
1000

  0
CIRCLE
  5
A1
330
70
100
AcDbEntity
  8
Line
100
AcDbCircle
 10
302.532443954219
 20
624.6237665927695
 30
0.0
 40
107.6999995831388
1001
Sigma
1000

  0
CIRCLE
  5
A2
330
70
100
AcDbEntity
  8
Center
100
AcDbCircle
 10
302.532443954219
 20
624.6237665927695
 30
0.0
 40
116.3499995496583
1001
Sigma
1000

  0
CIRCLE
  5
A3
330
70
100
AcDbEntity
  8
Center
100
AcDbCircle
 10
302.532443954219
 20
658.8914080317039
 30
0.0
 40
32.49999987420623
1001
Sigma
1000

  0
LINE
  5
A4
330
70
100
AcDbEntity
  8
Center
100
AcDbLine
 10
219.9094934544175
 20
582.223766756882
 30
0.0
 11
379.5717749746323
 21
582.223766756882
 31
0.0
1001
Sigma
1000

  0
LINE
  5
A5
330
70
100
AcDbEntity
  8
Center
100
AcDbLine
 10
252.5324441477479
 20
553.5761488899247
 30
0.0
 11
252.5324441477479
 21
610.8713846238491
 31
0.0
1001
Sigma
1000

  0
LINE
  5
A6
330
70
100
AcDbEntity
  8
Center
100
AcDbLine
 10
344.9324437901065
 20
782.6237659812181
 30
0.0
 11
344.9324437901065
 21
545.6549141235444
 31
0.0
1001
Sigma
1000

  0
CIRCLE
  5
A7
330
70
100
AcDbEntity
  8
Line
100
AcDbCircle
 10
252.5324441477479
 20
582.223766756892
 30
0.0
 40
17.99999993032961
1001
Sigma
1000

  0
CIRCLE
  5
A8
330
70
100
AcDbEntity
  8
Line
 62
     7
100
AcDbCircle
 10
344.9324437901065
 20
582.223766756882
 30
0.0
 40
22.99999991097672
1001
Sigma
1000

  0
CIRCLE
  5
A9
330
70
100
AcDbEntity
  8
Line
 62
     4
370
     9
100
AcDbCircle
 10
344.9324437901065
 20
582.223766756882
 30
0.0
 40
13.99999994581192
1001
Sigma
1000

  0
CIRCLE
  5
AA
330
70
100
AcDbEntity
  8
Line
 62
     4
370
     9
100
AcDbCircle
 10
252.5324441477479
 20
582.223766756892
 30
0.0
 40
9.999999961294225
1001
Sigma
1000

  0
LINE
  5
AB
330
70
100
AcDbEntity
  8
Center
100
AcDbLine
 10
426.5667116019347
 20
711.473495795961
 30
0.0
 11
379.4861007777639
 21
678.5072971933791
 31
0.0
1001
Sigma
1000

  0
LINE
  5
AC
330
70
100
AcDbEntity
  8
Center
100
AcDbLine
 10
341.7222756056316
 20
478.3653237298221
 30
0.0
 11
327.7481402933198
 21
530.5175067071751
 31
0.0
1001
Sigma
1000

  0
LINE
  5
AD
330
70
100
AcDbEntity
  8
Center
100
AcDbLine
 10
178.4981763066032
 20
537.774037389568
 30
0.0
 11
224.4351177601007
 21
569.9394300775894
 31
0.0
1001
Sigma
1000

  0
ARC
  5
AE
330
70
100
AcDbEntity
  8
Line
100
AcDbCircle
 10
406.9133761459045
 20
693.4831949504536
 30
0.0
 40
7.99999996903538
100
AcDbArc
 50
9.341093726750228
 51
60.65890627325784
1001
Sigma
1000

  0
LINE
  5
AF
330
70
100
AcDbEntity
  8
Line
100
AcDbLine
 10
410.8334384673317
 20
700.4569393464513
 30
0.0
 11
404.926449094095
 21
696.3208208591405
 31
0.0
1001
Sigma
1000

  0
LINE
  5
B0
330
70
100
AcDbEntity
  8
Line
100
AcDbLine
 10
415.4535195267492
 20
695.2341805148263
 30
0.0
 11
407.5058113192114
 21
706.5846841495534
 31
0.0
1001
Sigma
1000

  0
LINE
  5
B1
330
70
100
AcDbEntity
  8
Line
100
AcDbLine
 10
400.9525949902761
 20
701.9960726765041
 30
0.0
 11
407.5058113192114
 21
706.5846841495534
 31
0.0
1001
Sigma
1000

  0
LINE
  5
B2
330
70
100
AcDbEntity
  8
Line
100
AcDbLine
 10
408.900303197814
 20
690.645569041777
 30
0.0
 11
400.9525949902761
 21
701.9960726765041
 31
0.0
1001
Sigma
1000

  0
LINE
  5
B3
330
70
100
AcDbEntity
  8
Line
100
AcDbLine
 10
415.4535195267492
 20
695.2341805148263
 30
0.0
 11
408.900303197814
 21
690.645569041777
 31
0.0
1001
Sigma
1000

  0
ARC
  5
B4
330
70
100
AcDbEntity
  8
Line
100
AcDbCircle
 10
402.9395220421856
 20
699.158446767817
 30
0.0
 40
7.99999996903538
100
AcDbArc
 50
9.341093726750228
 51
60.65890627325784
1001
Sigma
1000

  0
ARC
  5
B5
330
70
100
AcDbEntity
  8
Line
100
AcDbCircle
 10
266.8339982396926
 20
744.4679189428633
 30
0.0
 40
7.99999996903538
100
AcDbArc
 50
79.34109372674264
 51
130.6589062732562
1001
Sigma
1000

  0
LINE
  5
B6
330
70
100
AcDbEntity
  8
Line
100
AcDbLine
 10
274.8016414928533
 20
754.885051929363
 30
0.0
 11
276.872193845639
 21
747.1576453489625
 31
0.0
1001
Sigma
1000

  0
LINE
  5
B7
330
70
100
AcDbEntity
  8
Line
100
AcDbLine
 10
276.872193845639
 20
747.1576453489625
 30
0.0
 11
263.4879330376437
 21
743.5713434741638
 31
0.0
1001
Sigma
1000

  0
LINE
  5
B8
330
70
100
AcDbEntity
  8
Line
100
AcDbLine
 10
263.4879330376437
 20
743.5713434741638
 30
0.0
 11
261.417380684858
 21
751.2987500545742
 31
0.0
1001
Sigma
1000

  0
LINE
  5
B9
330
70
100
AcDbEntity
  8
Line
100
AcDbLine
 10
274.8016414928533
 20
754.885051929363
 30
0.0
 11
261.417380684858
 21
751.2987500545742
 31
0.0
1001
Sigma
1000

  0
LINE
  5
BA
330
70
100
AcDbEntity
  8
Line
100
AcDbLine
 10
268.3136927725653
 20
752.3298845745629
 30
0.0
 11
270.1800634416414
 21
745.3644944115633
 31
0.0
1001
Sigma
1000

  0
ARC
  5
BB
330
70
100
AcDbEntity
  8
Line
100
AcDbCircle
 10
273.5261286436902
 20
746.2610698802628
 30
0.0
 40
7.99999996903538
100
AcDbArc
 50
79.34109372674264
 51
130.6589062732562
1001
Sigma
1000

  0
ARC
  5
BC
330
70
100
AcDbEntity
  8
Line
100
AcDbCircle
 10
338.2308896688454
 20
504.7796142426655
 30
0.0
 40
7.99999996903538
100
AcDbArc
 50
259.3410937267459
 51
310.6589062732612
1001
Sigma
1000

  0
LINE
  5
BD
330
70
100
AcDbEntity
  8
Line
100
AcDbLine
 10
330.2632464156847
 20
494.3624812561658
 30
0.0
 11
328.192694062799
 21
502.0898878365763
 31
0.0
1001
Sigma
1000

  0
LINE
  5
BE
330
70
100
AcDbEntity
  8
Line
100
AcDbLine
 10
328.192694062799
 20
502.0898878365763
 30
0.0
 11
341.5769548708941
 21
505.6761897113652
 31
0.0
1001
Sigma
1000

  0
LINE
  5
BF
330
70
100
AcDbEntity
  8
Line
100
AcDbLine
 10
341.5769548708941
 20
505.6761897113652
 30
0.0
 11
343.6475072236799
 21
497.9487831309647
 31
0.0
1001
Sigma
1000

  0
LINE
  5
C0
330
70
100
AcDbEntity
  8
Line
100
AcDbLine
 10
330.2632464156847
 20
494.3624812561658
 30
0.0
 11
343.6475072236799
 21
497.9487831309647
 31
0.0
1001
Sigma
1000

  0
LINE
  5
C1
330
70
100
AcDbEntity
  8
Line
100
AcDbLine
 10
336.7511951359727
 20
496.9176486109659
 30
0.0
 11
334.8848244667966
 21
503.8830387739658
 31
0.0
1001
Sigma
1000

  0
ARC
  5
C2
330
70
100
AcDbEntity
  8
Line
100
AcDbCircle
 10
331.5387592648477
 20
502.9864633052661
 30
0.0
 40
7.99999996903538
100
AcDbArc
 50
259.3410937267459
 51
310.6589062732612
1001
Sigma
1000

  0
ARC
  5
C3
330
70
100
AcDbEntity
  8
Line
100
AcDbCircle
 10
198.1515117625334
 20
555.7643382350752
 30
0.0
 40
7.99999996903538
100
AcDbArc
 50
189.3410937267502
 51
240.6589062732639
1001
Sigma
1000

  0
LINE
  5
C4
330
70
100
AcDbEntity
  8
Line
100
AcDbLine
 10
194.2314494411063
 20
548.7905938390777
 30
0.0
 11
200.1384388144429
 21
552.9267123263984
 31
0.0
1001
Sigma
1000

  0
LINE
  5
C5
330
70
100
AcDbEntity
  8
Line
100
AcDbLine
 10
189.6113683817887
 20
554.0133526707125
 30
0.0
 11
197.5590765892265
 21
542.6628490359855
 31
0.0
1001
Sigma
1000

  0
LINE
  5
C6
330
70
100
AcDbEntity
  8
Line
100
AcDbLine
 10
204.1122929181618
 20
547.2514605090349
 30
0.0
 11
197.5590765892265
 21
542.6628490359855
 31
0.0
1001
Sigma
1000

  0
LINE
  5
C7
330
70
100
AcDbEntity
  8
Line
100
AcDbLine
 10
196.164584710724
 20
558.601964143762
 30
0.0
 11
204.1122929181618
 21
547.2514605090349
 31
0.0
1001
Sigma
1000

  0
LINE
  5
C8
330
70
100
AcDbEntity
  8
Line
100
AcDbLine
 10
189.6113683817887
 20
554.0133526707125
 30
0.0
 11
196.164584710724
 21
558.601964143762
 31
0.0
1001
Sigma
1000

  0
ARC
  5
C9
330
70
100
AcDbEntity
  8
Line
100
AcDbCircle
 10
202.1253658663524
 20
550.0890864177117
 30
0.0
 40
7.99999996903538
100
AcDbArc
 50
189.3410937267502
 51
240.6589062732639
1001
Sigma
1000

  0
LINE
  5
CA
330
70
100
AcDbEntity
  8
Hidden
 62
     3
100
AcDbLine
 10
251.6903637666072
 20
738.8169483560959
 30
0.0
 11
252.9919210193694
 21
735.8936029029609
 31
0.0
1001
Sigma
1000

  0
LINE
  5
CE
330
70
100
AcDbEntity
  8
Hidden
 62
     3
100
AcDbLine
 10
412.0055583697948
 20
678.0173720650155
 30
0.0
 11
414.8816993067624
 21
679.4201597293058
 31
0.0
1001
Sigma
1000

  0
LINE
  5
CF
330
70
100
AcDbEntity
  8
Hidden
 62
     3
100
AcDbLine
 10
352.0729668891686
 20
513.3539302825779
 30
0.0
 11
353.3745241419307
 21
510.4305848294329
 31
0.0
1001
Sigma
1000

  0
LINE
  5
D0
330
70
100
AcDbEntity
  8
Hidden
 62
     3
100
AcDbLine
 10
190.1831886016754
 20
569.8273734562231
 30
0.0
 11
193.0593295387431
 21
571.2301611205236
 31
0.0
1001
Sigma
1000

  0
ARC
  5
D1
330
70
100
AcDbEntity
  8
Hidden
 62
     3
100
AcDbCircle
 10
302.532443954219
 20
624.6237665927695
 30
0.0
 40
121.7999995285637
100
AcDbArc
 50
26.00000000000137
 51
113.9999999999976
1001
Sigma
1000

  0
ARC
  5
D2
330
70
100
AcDbEntity
  8
Hidden
 62
     3
100
AcDbCircle
 10
302.532443954219
 20
624.6237665927695
 30
0.0
 40
121.7999995285637
100
AcDbArc
 50
206.0000000000013
 51
293.9999999999976
1001
Sigma
1000

  0
LINE
  5
D3
330
70
100
AcDbEntity
  8
Hidden
 62
     7
100
AcDbLine
 10
334.0824438321023
 20
761.3737660634679
 30
0.0
 11
334.0824438321023
 21
602.5037444890267
 31
0.0
1001
Sigma
1000

  0
LINE
  5
D4
330
70
100
AcDbEntity
  8
Hidden
 62
     7
100
AcDbLine
 10
355.7824437481108
 20
761.3737660634679
 30
0.0
 11
355.7824437481108
 21
602.5037444890267
 31
0.0
1001
Sigma
1000

  0
CIRCLE
  5
D5
330
70
100
AcDbEntity
  8
Hidden
 62
     3
100
AcDbCircle
 10
302.532443954219
 20
624.6237665927695
 30
0.0
 40
157.3499993909646
1001
Sigma
1000

  0
ARC
  5
D8
330
70
100
AcDbEntity
  8
Hidden
 62
     7
100
AcDbCircle
 10
344.9324437901065
 20
761.3737660634679
 30
0.0
 40
10.84999995800423
100
AcDbArc
 50
0.0
 51
180.0
1001
Sigma
1000

  0
LINE
  5
D9
330
70
100
AcDbEntity
  8
Phantom
 62
     7
100
AcDbLine
 10
404.5226675618579
 20
665.8304917090256
 30
0.0
 11
439.7556538989858
 21
680.065542203728
 31
0.0
1001
Sigma
1000

  0
LINE
  5
DD
330
70
100
AcDbEntity
  8
Phantom
 62
     7
100
AcDbLine
 10
354.1743156608352
 20
527.4995317542063
 30
0.0
 11
372.0142349775843
 21
493.947523355442
 31
0.0
1001
Sigma
1000

  0
ARC
  5
DE
330
70
100
AcDbEntity
  8
Phantom
 62
     7
100
AcDbCircle
 10
302.532443954219
 20
624.6237665927695
 30
0.0
 40
109.9999995742365
100
AcDbArc
 50
298.0000000000001
 51
22.00000000000011
1001
Sigma
1000

  0
ARC
  5
DF
330
70
100
AcDbEntity
  8
Phantom
 62
     7
100
AcDbCircle
 10
302.532443954219
 20
624.6237665927695
 30
0.0
 40
147.9999994271545
100
AcDbArc
 50
298.0000000000001
 51
22.00000000000011
1001
Sigma
1000

  0
LINE
  5
E0
330
70
100
AcDbEntity
  8
Center
100
AcDbLine
 10
396.6519094426223
 20
590.3670826899626
 30
0.0
 11
471.9088944352343
 21
562.9757802320427
 31
0.0
1001
Sigma
1000

  0
LINE
  5
E1
330
70
100
AcDbEntity
  8
Center
100
AcDbLine
 10
348.4417886167234
 20
658.8914080317039
 30
0.0
 11
254.2826795685734
 21
658.8914080317039
 31
0.0
1001
Sigma
1000

  0
CIRCLE
  5
E2
330
70
100
AcDbEntity
  8
Line
100
AcDbCircle
 10
302.532443954219
 20
658.8914080317039
 30
0.0
 40
25.27815608528972
1001
Sigma
1000

  0
CIRCLE
  5
E3
330
70
100
AcDbEntity
  8
Line
100
AcDbCircle
 10
302.532443954219
 20
658.8914080317039
 30
0.0
 40
19.63739466330208
1001
Sigma
1000

  0
LINE
  5
E4
330
70
100
AcDbEntity
  8
Line
100
AcDbLine
 10
343.5324437955253
 20
658.8914080317039
 30
0.0
 11
343.5324437955253
 21
651.9705848955014
 31
0.0
1001
Sigma
1000

  0
LINE
  5
E5
330
70
100
AcDbEntity
  8
Line
100
AcDbLine
 10
261.5324441129128
 20
658.8914080317039
 30
0.0
 11
261.5324441129128
 21
651.9705848955014
 31
0.0
1001
Sigma
1000

  0
ARC
  5
E6
330
70
100
AcDbEntity
  8
Line
100
AcDbCircle
 10
302.532443954219
 20
651.9705848955014
 30
0.0
 40
40.99999984130632
100
AcDbArc
 50
180.0
 51
0.0
1001
Sigma
1000

  0
ARC
  5
E7
330
70
100
AcDbEntity
  8
Line
100
AcDbCircle
 10
302.532443954219
 20
651.7738843189327
 30
0.0
 40
20.2844422735575
100
AcDbArc
 50
15.36113404298557
 51
164.6388659570144
1001
Sigma
1000

  0
CIRCLE
  5
E8
330
70
100
AcDbEntity
  8
Line
 62
     4
370
     9
100
AcDbCircle
 10
270.0324440800128
 20
658.8914080317039
 30
0.0
 40
3.99999998451769
1001
Sigma
1000

  0
CIRCLE
  5
E9
330
70
100
AcDbEntity
  8
Line
 62
     4
370
     9
100
AcDbCircle
 10
302.532443954219
 20
691.3914079059102
 30
0.0
 40
3.99999998451769
1001
Sigma
1000

  0
CIRCLE
  5
EA
330
70
100
AcDbEntity
  8
Line
 62
     4
370
     9
100
AcDbCircle
 10
335.0324438284253
 20
658.8914080317039
 30
0.0
 40
3.99999998451769
1001
Sigma
1000

  0
CIRCLE
  5
EB
330
70
100
AcDbEntity
  8
Line
 62
     4
370
     9
100
AcDbCircle
 10
302.532443954219
 20
626.3914081574977
 30
0.0
 40
3.99999998451769
1001
Sigma
1000

  0
CIRCLE
  5
EC
330
70
100
AcDbEntity
  8
Line
100
AcDbCircle
 10
302.532443954219
 20
691.3914079059102
 30
0.0
 40
3.323499987136135
1001
Sigma
1000

  0
CIRCLE
  5
ED
330
70
100
AcDbEntity
  8
Line
100
AcDbCircle
 10
270.0324440800128
 20
658.8914080317039
 30
0.0
 40
3.323499987136135
1001
Sigma
1000

  0
CIRCLE
  5
EE
330
70
100
AcDbEntity
  8
Line
100
AcDbCircle
 10
302.532443954219
 20
626.3914081574977
 30
0.0
 40
3.323499987136135
1001
Sigma
1000

  0
CIRCLE
  5
EF
330
70
100
AcDbEntity
  8
Line
100
AcDbCircle
 10
335.0324438284253
 20
658.8914080317039
 30
0.0
 40
3.323499987136135
1001
Sigma
1000

  0
ARC
  5
F0
330
70
100
AcDbEntity
  8
Hidden
 62
     3
100
AcDbCircle
 10
302.532443954219
 20
476.4737671661955
 30
0.0
 40
8.649999966519505
100
AcDbArc
 50
205.3054043257071
 51
25.30540432570713
1001
Sigma
1000

  0
LINE
  5
F1
330
70
100
AcDbEntity
  8
Center
100
AcDbLine
 10
252.5324441477479
 20
582.223766756882
 30
0.0
 11
311.3630200359395
 21
457.797098753394
 31
0.0
1001
Sigma
1000

  0
LINE
  5
F2
330
70
100
AcDbEntity
  8
Hidden
 62
     3
100
AcDbLine
 10
310.3524092640513
 20
480.1711502913915
 30
0.0
 11
267.099752013664
 21
571.6505203759366
 31
0.0
1001
Sigma
1000

  0
LINE
  5
F3
330
70
100
AcDbEntity
  8
Hidden
 62
     3
100
AcDbLine
 10
294.7124786443868
 20
472.7763840409996
 30
0.0
 11
251.4598213940996
 21
564.2557541255485
 31
0.0
1001
Sigma
1000

  0
LINE
  5
F8
330
70
100
AcDbEntity
  8
Center
100
AcDbLine
 10
1077.379909212472
 20
445.0647328709165
 30
0.0
 11
1077.379909212472
 21
804.1828003146221
 31
0.0
1001
Sigma
1000

  0
LINE
  5
F9
330
70
100
AcDbEntity
  8
Line
100
AcDbLine
 10
1312.879908300951
 20
464.6237672120618
 30
0.0
 11
841.8799101239928
 21
464.6237672120618
 31
0.0
1001
Sigma
1000

  0
LINE
  5
FA
330
70
100
AcDbEntity
  8
Line
100
AcDbLine
 10
841.8799101239928
 20
784.623765973477
 30
0.0
 11
1312.879908300951
 21
784.623765973477
 31
0.0
1001
Sigma
1000

  0
LINE
  5
FB
330
70
100
AcDbEntity
  8
Line
100
AcDbLine
 10
1312.879908300961
 20
782.2737659825848
 30
0.0
 11
841.8799101239928
 21
782.273765982573
 31
0.0
1001
Sigma
1000

  0
LINE
  5
FC
330
70
100
AcDbEntity
  8
Hidden
 62
     3
100
AcDbLine
 10
1077.379909212472
 20
466.9737672029659
 30
0.0
 11
1133.865399568508
 21
466.9737672029659
 31
0.0
1001
Sigma
1000

  0
LINE
  5
FD
330
70
100
AcDbEntity
  8
Line
 62
     4
100
AcDbLine
 10
821.1963276555893
 20
781.973765983734
 30
0.0
 11
838.6723107090324
 21
781.973765983734
 31
0.0
  0
LINE
  5
FE
330
70
100
AcDbEntity
  8
Line
 62
     4
100
AcDbLine
 10
821.1963276555893
 20
784.623765973477
 30
0.0
 11
839.9080259983614
 21
784.623765973477
 31
0.0
  0
LINE
  5
FF
330
70
100
AcDbEntity
  8
Center
100
AcDbLine
 10
841.8799101239928
 20
445.1155705662698
 30
0.0
 11
841.8799101239928
 21
801.8222268667088
 31
0.0
  0
LINE
  5
100
330
70
100
AcDbEntity
  8
Line
 62
     4
100
AcDbLine
 10
849.8799100930282
 20
781.8521434801049
 30
0.0
 11
849.5111013769164
 21
779.2279331080962
 31
0.0
1001
Sigma
1000

  0
LINE
  5
101
330
70
100
AcDbEntity
  8
Line
 62
     4
100
AcDbLine
 10
846.8799101046398
 20
782.273765982573
 30
0.0
 11
849.8799100930282
 21
781.8521434801049
 31
0.0
1001
Sigma
1000

  0
LINE
  5
102
330
70
100
AcDbEntity
  8
Line
 62
     4
100
AcDbLine
 10
846.69460405371
 20
779.6237659928299
 30
0.0
 11
849.5111013769164
 21
779.2279331080962
 31
0.0
1001
Sigma
1000

  0
LINE
  5
103
330
70
100
AcDbEntity
  8
Line
 62
     4
100
AcDbLine
 10
841.8799101239928
 20
782.273765982573
 30
0.0
 11
839.9080259983614
 21
784.623765973477
 31
0.0
1001
Sigma
1000

  0
LINE
  5
104
330
70
100
AcDbEntity
  8
Line
 62
     4
100
AcDbLine
 10
840.6441948346637
 20
779.6237659928299
 30
0.0
 11
838.6723107090324
 21
781.973765983734
 31
0.0
1001
Sigma
1000

  0
LINE
  5
105
330
70
100
AcDbEntity
  8
Line
100
AcDbLine
 10
841.8799101239928
 20
782.3037659824568
 30
0.0
 11
841.8799101239928
 21
784.623765973477
 31
0.0
1001
Sigma
1000

  0
LINE
  5
106
330
70
100
AcDbEntity
  8
Line
 62
     4
100
AcDbLine
 10
841.8799101239928
 20
782.273765982573
 30
0.0
 11
846.8799101046398
 21
782.273765982573
 31
0.0
1001
Sigma
1000

  0
LINE
  5
107
330
70
100
AcDbEntity
  8
Line
 62
     4
100
AcDbLine
 10
840.6441948346637
 20
779.6237659928299
 30
0.0
 11
846.69460405371
 21
779.6237659928299
 31
0.0
1001
Sigma
1000

  0
LINE
  5
108
330
70
100
AcDbEntity
  8
Line
 62
     4
100
AcDbLine
 10
849.8799100930282
 20
781.8521434801049
 30
0.0
 11
849.8799100930282
 21
624.6237665927695
 31
0.0
1001
Sigma
1000

  0
ARC
  5
109
330
70
100
AcDbEntity
  8
Line
 62
     4
100
AcDbCircle
 10
1027.17605940679
 20
624.6237665927695
 30
0.0
 40
284.6461488982551
100
AcDbArc
 50
153.4324023097876
 51
166.0995122035785
  0
ARC
  5
10A
330
70
100
AcDbEntity
  8
Hidden
 62
     4
100
AcDbCircle
 10
1027.17605940679
 20
624.6237665927695
 30
0.0
 40
284.6461488982551
100
AcDbArc
 50
166.0995122035785
 51
206.5675976902123
  0
ARC
  5
10B
330
70
100
AcDbEntity
  8
Line
 62
     4
100
AcDbCircle
 10
1027.17605940679
 20
624.6237665927695
 30
0.0
 40
287.296148887998
100
AcDbArc
 50
153.4324023097876
 51
166.0893691504106
  0
ARC
  5
10C
330
70
100
AcDbEntity
  8
Hidden
 62
     4
100
AcDbCircle
 10
1027.17605940679
 20
624.6237665927695
 30
0.0
 40
287.296148887998
100
AcDbArc
 50
166.0893691504106
 51
180.0
  0
ARC
  5
10D
330
70
100
AcDbEntity
  8
Line
 62
     4
100
AcDbCircle
 10
821.1963276555893
 20
727.625076194095
 30
0.0
 40
54.34868978963919
100
AcDbArc
 50
90.0
 51
153.4324023097876
  0
ARC
  5
10E
330
70
100
AcDbEntity
  8
Line
 62
     4
100
AcDbCircle
 10
821.1963276555893
 20
727.625076194095
 30
0.0
 40
56.99868977938216
100
AcDbArc
 50
90.0
 51
153.4324023097876
  0
LINE
  5
10F
330
70
100
AcDbEntity
  8
Line
100
AcDbLine
 10
839.7821610541722
 20
624.6237665927695
 30
0.0
 11
839.7821610541722
 21
464.6237672120618
 31
0.0
1001
Sigma
1000

  0
LINE
  5
110
330
70
100
AcDbEntity
  8
Line
100
AcDbLine
 10
843.9776591938233
 20
624.6237665927695
 30
0.0
 11
843.9776591938233
 21
464.6237672120618
 31
0.0
1001
Sigma
1000

  0
LINE
  5
111
330
70
100
AcDbEntity
  8
Line
 62
     4
100
AcDbLine
 10
821.1963276555893
 20
464.6237672120618
 30
0.0
 11
841.8799101239928
 21
464.6237672120618
 31
0.0
  0
ARC
  5
112
330
70
100
AcDbEntity
  8
Line
 62
     4
100
AcDbCircle
 10
1027.17605940679
 20
624.6237665927695
 30
0.0
 40
287.296148887998
100
AcDbArc
 50
180.0
 51
183.8719091387278
  0
ARC
  5
113
330
70
100
AcDbEntity
  8
Line
 62
     4
100
AcDbCircle
 10
821.1963276555893
 20
521.6224569914438
 30
0.0
 40
56.99868977938216
100
AcDbArc
 50
206.5675976902123
 51
270.0
  0
LINE
  5
114
330
70
100
AcDbEntity
  8
Line
 62
     4
100
AcDbLine
 10
1333.563490769354
 20
781.973765983734
 30
0.0
 11
1316.087507715911
 21
781.973765983734
 31
0.0
  0
LINE
  5
115
330
70
100
AcDbEntity
  8
Line
 62
     4
100
AcDbLine
 10
1333.563490769354
 20
784.623765973477
 30
0.0
 11
1314.851792426582
 21
784.623765973477
 31
0.0
  0
LINE
  5
116
330
70
100
AcDbEntity
  8
Center
100
AcDbLine
 10
1312.879908300951
 20
445.1155705662698
 30
0.0
 11
1312.879908300951
 21
801.8222268667088
 31
0.0
  0
LINE
  5
117
330
70
100
AcDbEntity
  8
Line
 62
     4
100
AcDbLine
 10
1304.879908331915
 20
781.8521434801049
 30
0.0
 11
1305.248717048027
 21
779.2279331080962
 31
0.0
1001
Sigma
1000

  0
LINE
  5
118
330
70
100
AcDbEntity
  8
Line
 62
     4
100
AcDbLine
 10
1307.879908320304
 20
782.273765982573
 30
0.0
 11
1304.879908331915
 21
781.8521434801049
 31
0.0
1001
Sigma
1000

  0
LINE
  5
119
330
70
100
AcDbEntity
  8
Line
 62
     4
100
AcDbLine
 10
1308.065214371233
 20
779.6237659928299
 30
0.0
 11
1305.248717048027
 21
779.2279331080962
 31
0.0
1001
Sigma
1000

  0
LINE
  5
11A
330
70
100
AcDbEntity
  8
Line
 62
     4
100
AcDbLine
 10
1312.879908300951
 20
782.273765982573
 30
0.0
 11
1314.851792426582
 21
784.623765973477
 31
0.0
1001
Sigma
1000

  0
LINE
  5
11B
330
70
100
AcDbEntity
  8
Line
 62
     4
100
AcDbLine
 10
1314.11562359028
 20
779.6237659928299
 30
0.0
 11
1316.087507715911
 21
781.973765983734
 31
0.0
1001
Sigma
1000

  0
LINE
  5
11C
330
70
100
AcDbEntity
  8
Line
100
AcDbLine
 10
1312.879908300951
 20
782.3037659824568
 30
0.0
 11
1312.879908300951
 21
784.623765973477
 31
0.0
1001
Sigma
1000

  0
LINE
  5
11D
330
70
100
AcDbEntity
  8
Line
 62
     4
100
AcDbLine
 10
1312.879908300951
 20
782.273765982573
 30
0.0
 11
1307.879908320304
 21
782.273765982573
 31
0.0
1001
Sigma
1000

  0
LINE
  5
11E
330
70
100
AcDbEntity
  8
Line
 62
     4
100
AcDbLine
 10
1314.11562359028
 20
779.6237659928299
 30
0.0
 11
1308.065214371233
 21
779.6237659928299
 31
0.0
1001
Sigma
1000

  0
LINE
  5
11F
330
70
100
AcDbEntity
  8
Line
 62
     4
100
AcDbLine
 10
1304.879908331915
 20
781.8521434801049
 30
0.0
 11
1304.879908331916
 21
624.6237665927695
 31
0.0
1001
Sigma
1000

  0
ARC
  5
120
330
70
100
AcDbEntity
  8
Line
 62
     4
100
AcDbCircle
 10
1127.583759018154
 20
624.6237665927695
 30
0.0
 40
284.6461488982551
100
AcDbArc
 50
0.0
 51
26.56759769021966
  0
ARC
  5
121
330
70
100
AcDbEntity
  8
Line
 62
     4
100
AcDbCircle
 10
1127.583759018154
 20
624.6237665927695
 30
0.0
 40
287.296148887998
100
AcDbArc
 50
0.0
 51
26.56759769021966
  0
ARC
  5
122
330
70
100
AcDbEntity
  8
Line
 62
     4
100
AcDbCircle
 10
1333.563490769354
 20
727.625076194095
 30
0.0
 40
54.34868978963919
100
AcDbArc
 50
26.56759769021966
 51
90.0
  0
ARC
  5
123
330
70
100
AcDbEntity
  8
Line
 62
     4
100
AcDbCircle
 10
1333.563490769354
 20
727.625076194095
 30
0.0
 40
56.99868977938216
100
AcDbArc
 50
26.56759769021966
 51
90.0
  0
LINE
  5
124
330
70
100
AcDbEntity
  8
Line
100
AcDbLine
 10
1314.977657370771
 20
624.6237665927695
 30
0.0
 11
1314.977657370771
 21
464.6237672120618
 31
0.0
1001
Sigma
1000

  0
LINE
  5
125
330
70
100
AcDbEntity
  8
Line
100
AcDbLine
 10
1310.78215923112
 20
624.6237665927695
 30
0.0
 11
1310.78215923112
 21
464.6237672120618
 31
0.0
1001
Sigma
1000

  0
LINE
  5
126
330
70
100
AcDbEntity
  8
Line
 62
     4
100
AcDbLine
 10
1333.563490769354
 20
464.6237672120618
 30
0.0
 11
1312.879908300951
 21
464.6237672120618
 31
0.0
  0
ARC
  5
127
330
70
100
AcDbEntity
  8
Hidden
 62
     4
100
AcDbCircle
 10
1127.583759018154
 20
624.6237665927695
 30
0.0
 40
287.296148887998
100
AcDbArc
 50
333.4324023097803
 51
334.3794240959031
  0
ARC
  5
128
330
70
100
AcDbEntity
  8
Line
 62
     4
100
AcDbCircle
 10
1127.583759018154
 20
624.6237665927695
 30
0.0
 40
287.296148887998
100
AcDbArc
 50
334.3794240959031
 51
337.5661455330501
  0
ARC
  5
129
330
70
100
AcDbEntity
  8
Hidden
 62
     4
100
AcDbCircle
 10
1127.583759018154
 20
624.6237665927695
 30
0.0
 40
287.296148887998
100
AcDbArc
 50
337.5661455330501
 51
0.0
  0
ARC
  5
12A
330
70
100
AcDbEntity
  8
Line
 62
     4
100
AcDbCircle
 10
1333.563490769354
 20
521.6224569914438
 30
0.0
 40
56.99868977938216
100
AcDbArc
 50
270.0
 51
326.3452151363779
  0
ARC
  5
12B
330
70
100
AcDbEntity
  8
Hidden
 62
     4
100
AcDbCircle
 10
1333.563490769354
 20
521.6224569914438
 30
0.0
 40
56.99868977938216
100
AcDbArc
 50
326.3452151363779
 51
333.4324023097803
  0
ARC
  5
12C
330
70
100
AcDbEntity
  8
Line
100
AcDbCircle
 10
1392.008728159984
 20
501.9088056378882
 30
0.0
 40
3.99999998451769
100
AcDbArc
 50
239.9999999999811
 51
0.0
1001
Sigma
1000

  0
LINE
  5
12D
330
70
100
AcDbEntity
  8
Line
100
AcDbLine
 10
1390.008728167726
 20
498.4447040361613
 30
0.0
 11
1382.408728197142
 21
502.8325660650226
 31
0.0
1001
Sigma
1000

  0
LINE
  5
12E
330
70
100
AcDbEntity
  8
Line
100
AcDbLine
 10
1381.008728202561
 20
500.4076949438083
 30
0.0
 11
1382.408728197142
 21
502.8325660650226
 31
0.0
1001
Sigma
1000

  0
LINE
  5
12F
330
70
100
AcDbEntity
  8
Line
100
AcDbLine
 10
1381.008728202561
 20
522.4076948586556
 30
0.0
 11
1381.008728202561
 21
601.9076945509446
 31
0.0
1001
Sigma
1000

  0
LINE
  5
130
330
70
100
AcDbEntity
  8
Line
100
AcDbLine
 10
1381.008728202561
 20
500.4076949438083
 30
0.0
 11
1388.508728173531
 21
496.077567941646
 31
0.0
1001
Sigma
1000

  0
LINE
  5
131
330
70
100
AcDbEntity
  8
Line
100
AcDbLine
 10
1381.008728202561
 20
522.4076948586556
 30
0.0
 11
1391.008728163855
 21
516.6341921891024
 31
0.0
1001
Sigma
1000

  0
ARC
  5
132
330
70
100
AcDbEntity
  8
Line
100
AcDbCircle
 10
1391.008728163855
 20
500.4076949438083
 30
0.0
 40
4.999999980647112
100
AcDbArc
 50
239.9999999999985
 51
0.0
1001
Sigma
1000

  0
ARC
  5
133
330
70
100
AcDbEntity
  8
Line
100
AcDbCircle
 10
1386.008728183208
 20
507.9739381847826
 30
0.0
 40
9.999999961294225
100
AcDbArc
 50
0.0
 51
59.99999999999847
1001
Sigma
1000

  0
ARC
  5
134
330
70
100
AcDbEntity
  8
Line
100
AcDbCircle
 10
1386.008728183208
 20
611.9076945122389
 30
0.0
 40
9.999999961294225
100
AcDbArc
 50
270.0
 51
0.0
1001
Sigma
1000

  0
LINE
  5
135
330
70
100
AcDbEntity
  8
Line
100
AcDbLine
 10
1396.008728144502
 20
507.9739381847826
 30
0.0
 11
1396.008728144502
 21
500.4076949438083
 31
0.0
1001
Sigma
1000

  0
LINE
  5
136
330
70
100
AcDbEntity
  8
Line
100
AcDbLine
 10
1381.008728202561
 20
601.9076945509446
 30
0.0
 11
1386.008728183208
 21
601.9076945509446
 31
0.0
1001
Sigma
1000

  0
LINE
  5
137
330
70
100
AcDbEntity
  8
Line
100
AcDbLine
 10
1396.008728144502
 20
624.4076944638567
 30
0.0
 11
1396.008728144502
 21
611.9076945122389
 31
0.0
1001
Sigma
1000

  0
LINE
  5
138
330
70
100
AcDbEntity
  8
Center
100
AcDbLine
 10
1415.008728070961
 20
681.0470385069248
 30
0.0
 11
1415.008728070961
 21
712.7683498595549
 31
0.0
1001
Sigma
1000

  0
LINE
  5
139
330
70
100
AcDbEntity
  8
Center
100
AcDbLine
 10
1415.008728070961
 20
777.5486285420229
 30
0.0
 11
1415.008728070961
 21
758.3683007474119
 31
0.0
1001
Sigma
1000

  0
CIRCLE
  5
13A
330
70
100
AcDbEntity
  8
Line
100
AcDbCircle
 10
1415.008728070961
 20
551.9076947444736
 30
0.0
 40
7.499999970970669
1001
Sigma
1000

  0
CIRCLE
  5
13B
330
70
100
AcDbEntity
  8
Line
100
AcDbCircle
 10
1415.008728070961
 20
696.9076941832399
 30
0.0
 40
7.499999970970669
1001
Sigma
1000

  0
LINE
  5
13C
330
70
100
AcDbEntity
  8
Line
100
AcDbLine
 10
1422.508728041932
 20
766.2076939150088
 30
0.0
 11
1422.508728041932
 21
769.407693902623
 31
0.0
1001
Sigma
1000

  0
LINE
  5
13D
330
70
100
AcDbEntity
  8
Line
100
AcDbLine
 10
1407.50872809999
 20
766.2076939150088
 30
0.0
 11
1407.50872809999
 21
769.407693902623
 31
0.0
1001
Sigma
1000

  0
LINE
  5
13E
330
70
100
AcDbEntity
  8
Line
100
AcDbLine
 10
1434.00872799742
 20
769.407693902623
 30
0.0
 11
1397.97546508214
 21
769.407693902623
 31
0.0
1001
Sigma
1000

  0
LINE
  5
13F
330
70
100
AcDbEntity
  8
Line
100
AcDbLine
 10
1434.00872799742
 20
479.4076950250904
 30
0.0
 11
1397.97546508214
 21
479.4076950250914
 31
0.0
1001
Sigma
1000

  0
LINE
  5
140
330
70
100
AcDbEntity
  8
Line
100
AcDbLine
 10
1445.008727954844
 20
490.4076949825151
 30
0.0
 11
1445.008727954844
 21
758.4076939451994
 31
0.0
1001
Sigma
1000

  0
LINE
  5
141
330
70
100
AcDbEntity
  8
Line
100
AcDbLine
 10
1381.008728202561
 20
489.6023390494333
 30
0.0
 11
1381.008728202561
 21
500.4076949438083
 31
0.0
1001
Sigma
1000

  0
ARC
  5
142
330
70
100
AcDbEntity
  8
Line
100
AcDbCircle
 10
1434.00872799742
 20
758.4076939451994
 30
0.0
 40
10.99999995742365
100
AcDbArc
 50
300.0000000000015
 51
90.0
1001
Sigma
1000

  0
ARC
  5
143
330
70
100
AcDbEntity
  8
Line
100
AcDbCircle
 10
1434.00872799742
 20
490.4076949825141
 30
0.0
 40
10.99999995742365
100
AcDbArc
 50
270.0
 51
0.0
1001
Sigma
1000

  0
LINE
  5
144
330
70
100
AcDbEntity
  8
Line
100
AcDbLine
 10
1381.008728202561
 20
489.6023390494333
 30
0.0
 11
1397.97546508214
 21
479.4076950250914
 31
0.0
1001
Sigma
1000

  0
LINE
  5
145
330
70
100
AcDbEntity
  8
Line
100
AcDbLine
 10
1381.008728202561
 20
759.2130498782822
 30
0.0
 11
1397.97546508214
 21
769.407693902623
 31
0.0
1001
Sigma
1000

  0
LINE
  5
146
330
70
100
AcDbEntity
  8
Center
100
AcDbLine
 10
1434.00872799742
 20
758.4076939451994
 30
0.0
 11
1446.99910900391
 21
765.90769391617
 31
0.0
1001
Sigma
1000

  0
LINE
  5
147
330
70
100
AcDbEntity
  8
Line
100
AcDbLine
 10
1439.994009348494
 20
767.6368004139673
 30
0.0
 11
1436.693320545759
 21
765.7311468451936
 31
0.0
1001
Sigma
1000

  0
LINE
  5
148
330
70
100
AcDbEntity
  8
Line
100
AcDbLine
 10
1444.994009329141
 20
758.9765464096376
 30
0.0
 11
1441.693320526406
 21
757.0708928408735
 31
0.0
1001
Sigma
1000

  0
LINE
  5
149
330
70
100
AcDbEntity
  8
Line
100
AcDbLine
 10
1437.908727982325
 20
751.652695821825
 30
0.0
 11
1439.508727976132
 21
748.8814145404415
 31
0.0
1001
Sigma
1000

  0
ARC
  5
14A
330
70
100
AcDbEntity
  8
Line
100
AcDbCircle
 10
1434.00872799742
 20
758.4076939451994
 30
0.0
 40
7.799999969809496
100
AcDbArc
 50
300.0000000000015
 51
90.0
1001
Sigma
1000

  0
LINE
  5
14B
330
70
100
AcDbEntity
  8
Line
100
AcDbLine
 10
1434.00872799742
 20
766.2076939150088
 30
0.0
 11
1398.862903619705
 21
766.2076939150088
 31
0.0
1001
Sigma
1000

  0
LINE
  5
14C
330
70
100
AcDbEntity
  8
Line
100
AcDbLine
 10
1398.862903619705
 20
766.2076939150088
 30
0.0
 11
1382.706929388365
 21
756.5002052373703
 31
0.0
1001
Sigma
1000

  0
LINE
  5
14D
330
70
100
AcDbEntity
  8
Line
100
AcDbLine
 10
1437.908727982325
 20
751.652695821825
 30
0.0
 11
1437.908727982325
 21
624.4076944638567
 31
0.0
1001
Sigma
1000

  0
LINE
  5
14E
330
70
100
AcDbEntity
  8
Line
100
AcDbLine
 10
1439.508727976132
 20
624.4076944638567
 30
0.0
 11
1439.508727976132
 21
748.8814145404415
 31
0.0
1001
Sigma
1000

  0
LINE
  5
14F
330
70
100
AcDbEntity
  8
Center
100
AcDbLine
 10
1415.008728070961
 20
536.4158915257509
 30
0.0
 11
1415.008728070961
 21
567.3994979631963
 31
0.0
1001
Sigma
1000

  0
LINE
  5
150
330
70
100
AcDbEntity
  8
Center
100
AcDbLine
 10
1427.549711628975
 20
696.9076941832399
 30
0.0
 11
1402.467744512947
 21
696.9076941832399
 31
0.0
1001
Sigma
1000

  0
LINE
  5
151
330
70
100
AcDbEntity
  8
Center
100
AcDbLine
 10
1428.287416544155
 20
551.9076947444736
 30
0.0
 11
1401.730039597768
 21
551.9076947444736
 31
0.0
1001
Sigma
1000

  0
LINE
  5
152
330
70
100
AcDbEntity
  8
Line
 62
     7
100
AcDbLine
 10
838.3799101370341
 20
633.0737665600631
 30
0.0
 11
838.3799101370341
 21
753.3255597907191
 31
0.0
1001
Sigma
1000

  0
LINE
  5
153
330
70
100
AcDbEntity
  8
Center
100
AcDbLine
 10
711.470646136062
 20
582.223766756882
 30
0.0
 11
776.6799103758516
 21
582.223766756882
 31
0.0
1001
Sigma
1000

  0
LINE
  5
154
330
70
100
AcDbEntity
  8
Line
370
     9
100
AcDbLine
 10
723.8799105802112
 20
600.2237666872115
 30
0.0
 11
735.8799105337683
 21
600.2237666872115
 31
0.0
1001
Sigma
1000

  0
LINE
  5
155
330
70
100
AcDbEntity
  8
Hidden
 62
     3
100
AcDbLine
 10
763.8799104259012
 20
564.2237668265523
 30
0.0
 11
763.8799104253921
 21
600.2237666872115
 31
0.0
1001
Sigma
1000

  0
LINE
  5
156
330
70
100
AcDbEntity
  8
Line
370
     9
100
AcDbLine
 10
723.8799105802112
 20
600.2237666872115
 30
0.0
 11
723.8799105802112
 21
564.2237668265523
 31
0.0
1001
Sigma
1000

  0
LINE
  5
157
330
70
100
AcDbEntity
  8
Hidden
 62
     3
100
AcDbLine
 10
763.8799104253921
 20
600.2237666872115
 30
0.0
 11
735.8799105337683
 21
600.2237666872115
 31
0.0
1001
Sigma
1000

  0
LINE
  5
158
330
70
100
AcDbEntity
  8
Hidden
 62
     7
100
AcDbLine
 10
775.8799103789453
 20
559.2237668459053
 30
0.0
 11
775.8799103789453
 21
605.2237666678587
 31
0.0
1001
Sigma
1000

  0
LINE
  5
159
330
70
100
AcDbEntity
  8
Line
 62
     7
100
AcDbLine
 10
735.8799105337683
 20
605.2237666678587
 30
0.0
 11
743.689339642518
 21
605.2237666678587
 31
0.0
1001
Sigma
1000

  0
LINE
  5
15A
330
70
100
AcDbEntity
  8
Line
 62
     7
100
AcDbLine
 10
735.8799105337683
 20
605.2237666678587
 30
0.0
 11
735.8799105337683
 21
559.2237668459053
 31
0.0
1001
Sigma
1000

  0
LINE
  5
15B
330
70
100
AcDbEntity
  8
Hidden
 62
     7
100
AcDbLine
 10
743.6893396425181
 20
605.2237666678585
 30
0.0
 11
775.8799103789453
 21
605.2237666678587
 31
0.0
1001
Sigma
1000

  0
LINE
  5
15C
330
70
100
AcDbEntity
  8
Line
 62
     7
100
AcDbLine
 10
816.6799102210255
 20
633.0737665600631
 30
0.0
 11
816.6799102210255
 21
772.2255597175654
 31
0.0
1001
Sigma
1000

  0
LINE
  5
15D
330
70
100
AcDbEntity
  8
Hidden
 62
     7
100
AcDbLine
 10
775.8799103789453
 20
571.3737667988777
 30
0.0
 11
776.6799103758507
 21
571.3737667988777
 31
0.0
1001
Sigma
1000

  0
LINE
  5
15E
330
70
100
AcDbEntity
  8
Hidden
 62
     7
100
AcDbLine
 10
775.8799103789453
 20
593.0737667148862
 30
0.0
 11
776.6799103758507
 21
593.0737667148862
 31
0.0
1001
Sigma
1000

  0
LINE
  5
15F
330
70
100
AcDbEntity
  8
Center
100
AcDbLine
 10
827.5299101790297
 20
633.0737665600631
 30
0.0
 11
827.5299101790297
 21
778.0181459442247
 31
0.0
1001
Sigma
1000

  0
ARC
  5
160
330
70
100
AcDbEntity
  8
Line
 62
     7
100
AcDbCircle
 10
776.6799103758507
 20
633.0737665600631
 30
0.0
 40
39.9999998451769
100
AcDbArc
 50
347.8043845059084
 51
0.0
1001
Sigma
1000

  0
ARC
  5
161
330
70
100
AcDbEntity
  8
Line
 62
     7
100
AcDbCircle
 10
776.6799103758507
 20
633.0737665600631
 30
0.0
 40
61.69999976118537
100
AcDbArc
 50
352.1284324772304
 51
0.0
1001
Sigma
1000

  0
ARC
  5
162
330
70
100
AcDbEntity
  8
Center
100
AcDbCircle
 10
776.6799103758516
 20
633.0737665600631
 30
0.0
 40
50.84999980318114
100
AcDbArc
 50
270.0
 51
0.0
1001
Sigma
1000

  0
ARC
  5
163
330
70
100
AcDbEntity
  8
Hidden
 62
     7
100
AcDbCircle
 10
776.6799103758507
 20
633.0737665600631
 30
0.0
 40
61.69999976118537
100
AcDbArc
 50
270.0
 51
352.1284324772304
1001
Sigma
1000

  0
LINE
  5
164
330
70
100
AcDbEntity
  8
Line
 62
     7
100
AcDbLine
 10
819.479910210188
 20
772.2255597175654
 30
0.0
 11
838.3799101370341
 21
753.3255597907191
 31
0.0
1001
Sigma
1000

  0
ARC
  5
165
330
70
100
AcDbEntity
  8
Hidden
 62
     7
100
AcDbCircle
 10
776.6799103758507
 20
633.0737665600631
 30
0.0
 40
39.9999998451769
100
AcDbArc
 50
270.0
 51
347.8043845059155
1001
Sigma
1000

  0
LINE
  5
166
330
70
100
AcDbEntity
  8
Line
 62
     7
100
AcDbLine
 10
819.479910210188
 20
772.2255597175654
 30
0.0
 11
816.6799102210255
 21
772.2255597175654
 31
0.0
1001
Sigma
1000

  0
LINE
  5
167
330
70
100
AcDbEntity
  8
Hidden
 62
     3
100
AcDbLine
 10
823.6449680265071
 20
468.2231580067641
 30
0.0
 11
835.812361609588
 21
485.5999968996927
 31
0.0
1001
Sigma
1000

  0
LINE
  5
168
330
70
100
AcDbEntity
  8
Hidden
 62
     3
100
AcDbLine
 10
821.3799102033441
 20
467.823767199676
 30
0.0
 11
823.6449680265071
 21
468.2231580067641
 31
0.0
1001
Sigma
1000

  0
LINE
  5
169
330
70
100
AcDbEntity
  8
Hidden
 62
     3
100
AcDbLine
 10
835.812361609588
 20
485.5999968996927
 30
0.0
 11
825.5988309776041
 21
543.5238074869832
 31
0.0
1001
Sigma
1000

  0
LINE
  5
16A
330
70
100
AcDbEntity
  8
Hidden
 62
     3
100
AcDbLine
 10
763.879910425652
 20
573.5737667903625
 30
0.0
 11
769.1693469484189
 21
573.5737667903625
 31
0.0
1001
Sigma
1000

  0
LINE
  5
16B
330
70
100
AcDbEntity
  8
Hidden
 62
     3
100
AcDbLine
 10
763.879910425652
 20
590.8737667234014
 30
0.0
 11
769.1693469484189
 21
590.8737667234014
 31
0.0
1001
Sigma
1000

  0
LINE
  5
16C
330
70
100
AcDbEntity
  8
Center
100
AcDbLine
 10
817.0802439470159
 20
542.0217507559869
 30
0.0
 11
831.3110276183728
 21
461.3149660416918
 31
0.0
1001
Sigma
1000

  0
ARC
  5
16D
330
70
100
AcDbEntity
  8
Hidden
 62
     3
100
AcDbCircle
 10
769.1693469484189
 20
533.5737669451856
 30
0.0
 40
57.29999977821591
100
AcDbArc
 50
9.999999999998486
 51
90.0
1001
Sigma
1000

  0
ARC
  5
16E
330
70
100
AcDbEntity
  8
Center
100
AcDbCircle
 10
769.1693469484189
 20
533.5737669451856
 30
0.0
 40
48.64999981169641
100
AcDbArc
 50
9.999999999998486
 51
90.0
1001
Sigma
1000

  0
ARC
  5
16F
330
70
100
AcDbEntity
  8
Hidden
 62
     3
100
AcDbCircle
 10
769.1693469484189
 20
533.5737669451856
 30
0.0
 40
39.9999998451769
100
AcDbArc
 50
9.999999999998486
 51
90.0
1001
Sigma
1000

  0
LINE
  5
170
330
70
100
AcDbEntity
  8
Line
370
     9
100
AcDbLine
 10
723.8799105802112
 20
564.2237668265523
 30
0.0
 11
735.8799105337683
 21
564.2237668265523
 31
0.0
1001
Sigma
1000

  0
LINE
  5
171
330
70
100
AcDbEntity
  8
Hidden
 62
     3
100
AcDbLine
 10
763.8799104253921
 20
564.2237668265523
 30
0.0
 11
735.8799105337683
 21
564.2237668265523
 31
0.0
1001
Sigma
1000

  0
LINE
  5
172
330
70
100
AcDbEntity
  8
Line
 62
     7
100
AcDbLine
 10
735.8799105337683
 20
559.2237668459053
 30
0.0
 11
750.6540284347542
 21
559.2237668459053
 31
0.0
1001
Sigma
1000

  0
LINE
  5
173
330
70
100
AcDbEntity
  8
Hidden
 62
     7
100
AcDbLine
 10
750.6540284347542
 20
559.2237668459053
 30
0.0
 11
775.8799103789453
 21
559.2237668459053
 31
0.0
1001
Sigma
1000

  0
LINE
  5
174
330
70
100
AcDbEntity
  8
Hidden
 62
     4
100
AcDbLine
 10
821.1963276555893
 20
467.2737672018049
 30
0.0
 11
841.8799101239928
 21
467.2737672018049
 31
0.0
  0
ARC
  5
175
330
70
100
AcDbEntity
  8
Hidden
 62
     4
100
AcDbCircle
 10
821.1963276555893
 20
521.6224569914438
 30
0.0
 40
54.34868978963919
100
AcDbArc
 50
206.5675976902123
 51
270.0
  0
LINE
  5
176
330
70
100
AcDbEntity
  8
Hidden
 62
     3
100
AcDbLine
 10
747.3414020506159
 20
624.6237665927695
 30
0.0
 11
743.4499241582862
 21
610.1005733820626
 31
0.0
1001
Sigma
1000

  0
LINE
  5
177
330
70
100
AcDbEntity
  8
Hidden
 62
     3
100
AcDbLine
 10
740.2045337263529
 20
610.9701731274197
 30
0.0
 11
743.4499241582862
 21
610.1005733820626
 31
0.0
1001
Sigma
1000

  0
LINE
  5
178
330
70
100
AcDbEntity
  8
Line
100
AcDbLine
 10
764.6730857745417
 20
689.3064908311901
 30
0.0
 11
730.3834660085023
 21
698.4943667562675
 31
0.0
1001
Sigma
1000

  0
LINE
  5
179
330
70
100
AcDbEntity
  8
Line
100
AcDbLine
 10
747.3962798551773
 20
688.5766898979246
 30
0.0
 11
745.6759096690401
 21
682.1561809554257
 31
0.0
1001
Sigma
1000

  0
LINE
  5
17A
330
70
100
AcDbEntity
  8
Line
100
AcDbLine
 10
743.7076676483095
 20
690.2654148932782
 30
0.0
 11
741.6371152955029
 21
682.5380083128777
 31
0.0
1001
Sigma
1000

  0
LINE
  5
17B
330
70
100
AcDbEntity
  8
Line
100
AcDbLine
 10
740.2045337263529
 20
610.9701731274197
 30
0.0
 11
709.1603043922482
 21
619.2884493071402
 31
0.0
1001
Sigma
1000

  0
LINE
  5
17C
330
70
100
AcDbEntity
  8
Line
100
AcDbLine
 10
764.6730857745426
 20
689.3064908311901
 30
0.0
 11
747.3414020506159
 21
624.6237665927695
 31
0.0
1001
Sigma
1000

  0
LINE
  5
17D
330
70
100
AcDbEntity
  8
Line
100
AcDbLine
 10
713.1719995758005
 20
634.2602995566705
 30
0.0
 11
715.5868141321838
 21
633.613251946415
 31
0.0
1001
Sigma
1000

  0
LINE
  5
17E
330
70
100
AcDbEntity
  8
Line
100
AcDbLine
 10
726.37177082494
 20
683.5225165067372
 30
0.0
 11
728.7865853813233
 21
682.8754688964819
 31
0.0
1001
Sigma
1000

  0
LINE
  5
17F
330
70
100
AcDbEntity
  8
Phantom
 62
     7
100
AcDbLine
 10
729.417540185951
 20
698.7531858003659
 30
0.0
 11
708.1943785696969
 21
619.5472683512385
 31
0.0
1001
Sigma
1000

  0
LINE
  5
180
330
70
100
AcDbEntity
  8
Phantom
 62
     7
100
AcDbLine
 10
726.8547337362206
 20
683.3931069846881
 30
0.0
 11
713.6549624870812
 21
634.1308900346214
 31
0.0
1001
Sigma
1000

  0
LINE
  5
181
330
70
100
AcDbEntity
  8
Line
100
AcDbLine
 10
730.3834660085023
 20
698.4943667562675
 30
0.0
 11
709.1603043922482
 21
619.2884493071402
 31
0.0
1001
Sigma
1000

  0
LINE
  5
182
330
70
100
AcDbEntity
  8
Line
100
AcDbLine
 10
715.5868141321838
 20
633.613251946415
 30
0.0
 11
728.7865853813233
 21
682.8754688964819
 31
0.0
1001
Sigma
1000

  0
LINE
  5
183
330
70
100
AcDbEntity
  8
Line
100
AcDbLine
 10
740.8996453943915
 20
631.4894420453753
 30
0.0
 11
744.8635449651224
 21
624.6237665927695
 31
0.0
1001
Sigma
1000

  0
LINE
  5
184
330
70
100
AcDbEntity
  8
Hidden
 62
     3
100
AcDbLine
 10
744.8635449651224
 20
624.6237665927695
 30
0.0
 11
746.5559528279889
 21
621.6924301871554
 31
0.0
1001
Sigma
1000

  0
LINE
  5
185
330
70
100
AcDbEntity
  8
Line
100
AcDbLine
 10
751.7700452466275
 20
672.0583265924902
 30
0.0
 11
761.5670571048367
 21
677.7146340260872
 31
0.0
1001
Sigma
1000

  0
LINE
  5
186
330
70
100
AcDbEntity
  8
Line
100
AcDbLine
 10
716.7514998306359
 20
637.9599181478909
 30
0.0
 11
740.8996453943903
 21
631.4894420453753
 31
0.0
1001
Sigma
1000

  0
LINE
  5
187
330
70
100
AcDbEntity
  8
Line
100
AcDbLine
 10
727.6218996828712
 20
678.528802695006
 30
0.0
 11
751.7700452466275
 21
672.0583265924902
 31
0.0
1001
Sigma
1000

  0
LINE
  5
188
330
70
100
AcDbEntity
  8
Phantom
 62
     7
100
AcDbLine
 10
715.8945786702526
 20
702.3766524177808
 30
0.0
 11
694.6714170539885
 21
623.1707349686536
 31
0.0
1001
Sigma
1000

  0
LINE
  5
189
330
70
100
AcDbEntity
  8
Phantom
 62
     7
100
AcDbLine
 10
715.8945786702526
 20
702.3766524177808
 30
0.0
 11
729.417540185951
 21
698.7531858003659
 31
0.0
1001
Sigma
1000

  0
LINE
  5
18A
330
70
100
AcDbEntity
  8
Phantom
 62
     7
100
AcDbLine
 10
694.6714170539885
 20
623.1707349686436
 30
0.0
 11
708.1943785696969
 21
619.5472683512385
 31
0.0
1001
Sigma
1000

  0
LINE
  5
18B
330
70
100
AcDbEntity
  8
Phantom
 62
     7
100
AcDbLine
 10
725.4058450023986
 20
683.7813355508355
 30
0.0
 11
726.8547337362206
 21
683.3931069846881
 31
0.0
1001
Sigma
1000

  0
LINE
  5
18C
330
70
100
AcDbEntity
  8
Phantom
 62
     7
100
AcDbLine
 10
712.2060737532592
 20
634.5191186007687
 30
0.0
 11
713.6549624870812
 21
634.1308900346214
 31
0.0
1001
Sigma
1000

  0
LINE
  5
18D
330
70
100
AcDbEntity
  8
Phantom
 62
     7
100
AcDbLine
 10
702.1542749073354
 20
685.8704702749492
 30
0.0
 11
691.0250560110021
 21
644.3356599052831
 31
0.0
1001
Sigma
1000

  0
LINE
  5
18E
330
70
100
AcDbEntity
  8
Phantom
 62
     7
100
AcDbLine
 10
702.1542749073354
 20
685.8704702749492
 30
0.0
 11
710.8476073102872
 21
683.5410988780453
 31
0.0
1001
Sigma
1000

  0
LINE
  5
18F
330
70
100
AcDbEntity
  8
Phantom
 62
     7
100
AcDbLine
 10
691.0250560110021
 20
644.3356599052831
 30
0.0
 11
699.7183884139539
 21
642.006288508379
 31
0.0
1001
Sigma
1000

  0
LINE
  5
190
330
70
100
AcDbEntity
  8
Center
100
AcDbLine
 10
697.0312563147346
 20
698.631216910088
 30
0.0
 11
753.0263672376725
 21
683.6273721581915
 31
0.0
1001
Sigma
1000

  0
LINE
  5
191
330
70
100
AcDbEntity
  8
Center
100
AcDbLine
 10
680.2080184481902
 20
635.8460384443028
 30
0.0
 11
736.2031293711228
 21
620.8421936924163
 31
0.0
1001
Sigma
1000

  0
LINE
  5
192
330
70
100
AcDbEntity
  8
Phantom
 62
     7
100
AcDbLine
 10
726.1046564214636
 20
686.3893352717209
 30
0.0
 11
712.5816949057553
 21
690.0128018891361
 31
0.0
1001
Sigma
1000

  0
LINE
  5
193
330
70
100
AcDbEntity
  8
Phantom
 62
     7
100
AcDbLine
 10
728.3305002007283
 20
694.6962973456582
 30
0.0
 11
714.8075386850301
 21
698.3197639630636
 31
0.0
1001
Sigma
1000

  0
LINE
  5
194
330
70
100
AcDbEntity
  8
Phantom
 62
     7
100
AcDbLine
 10
697.9843008184756
 20
635.5345854972884
 30
0.0
 11
711.5072623341839
 21
631.9111188798832
 31
0.0
1001
Sigma
1000

  0
LINE
  5
195
330
70
100
AcDbEntity
  8
Phantom
 62
     7
100
AcDbLine
 10
695.7584570392111
 20
627.227623423361
 30
0.0
 11
709.2814185549194
 21
623.604156805946
 31
0.0
1001
Sigma
1000

  0
LINE
  5
196
330
70
100
AcDbEntity
  8
Center
100
AcDbLine
 10
890.5578760149348
 20
770.7374060568953
 30
0.0
 11
829.7085023786669
 21
558.5304215390988
 31
0.0
1001
Sigma
1000

  0
LINE
  5
197
330
70
100
AcDbEntity
  8
Center
100
AcDbLine
 10
890.5578760149348
 20
478.5101271286426
 30
0.0
 11
829.8124640727646
 21
690.3545541328135
 31
0.0
1001
Sigma
1000

  0
ARC
  5
198
330
70
100
AcDbEntity
  8
Center
100
AcDbCircle
 10
848.6604641021621
 20
624.6237665927695
 30
0.0
 40
145.9999994348957
100
AcDbArc
 50
286.0000000000001
 51
73.99999999999995
1001
Sigma
1000

  0
LINE
  5
199
330
70
100
AcDbEntity
  8
Center
100
AcDbLine
 10
861.84503282247
 20
757.1223779194035
 30
0.0
 11
907.6928823264024
 21
743.9757186271886
 31
0.0
1001
Sigma
1000

  0
CIRCLE
  5
19A
330
70
100
AcDbEntity
  8
Phantom
 62
     3
100
AcDbCircle
 10
884.7689575744311
 20
750.5490482732958
 30
0.0
 40
14.99999994194134
1001
Sigma
1000

  0
LINE
  5
19B
330
70
100
AcDbEntity
  8
Center
100
AcDbLine
 10
861.84503282247
 20
492.1251552661356
 30
0.0
 11
907.6928823264024
 21
505.2718145583504
 31
0.0
1001
Sigma
1000

  0
CIRCLE
  5
19C
330
70
100
AcDbEntity
  8
Phantom
 62
     3
100
AcDbCircle
 10
884.7689575744311
 20
498.698484912243
 30
0.0
 40
14.99999994194134
1001
Sigma
1000

  0
LINE
  5
19D
330
70
100
AcDbEntity
  8
Line
100
AcDbLine
 10
751.7700452466275
 20
672.0583265924902
 30
0.0
 11
740.8996453943944
 21
631.4894420453753
 31
0.0
1001
Sigma
1000

  0
LINE
  5
19E
330
70
100
AcDbEntity
  8
Line
100
AcDbLine
 10
729.0436892267178
 20
693.494251735841
 30
0.0
 11
747.3962798551773
 21
688.5766898979246
 31
0.0
1001
Sigma
1000

  0
LINE
  5
19F
330
70
100
AcDbEntity
  8
Line
100
AcDbLine
 10
727.3233190405768
 20
687.0737427933421
 30
0.0
 11
745.6759096690401
 21
682.1561809554357
 31
0.0
1001
Sigma
1000

  0
LINE
  5
1A0
330
70
100
AcDbEntity
  8
Line
100
AcDbLine
 10
748.3895360452501
 20
684.8698073316425
 30
0.0
 11
745.6759096690401
 21
682.1561809554357
 31
0.0
1001
Sigma
1000

  0
LINE
  5
1A1
330
70
100
AcDbEntity
  8
Line
100
AcDbLine
 10
747.3962798551773
 20
688.5766898979246
 30
0.0
 11
748.3895360452501
 21
684.8698073316425
 31
0.0
1001
Sigma
1000

  0
LINE
  5
1A2
330
70
100
AcDbEntity
  8
Line
 62
     4
370
     9
100
AcDbLine
 10
729.2187803100503
 20
694.1477005547916
 30
0.0
 11
743.7076676483095
 21
690.2654148932782
 31
0.0
1001
Sigma
1000

  0
LINE
  5
1A3
330
70
100
AcDbEntity
  8
Line
 62
     4
370
     9
100
AcDbLine
 10
727.1482279572446
 20
686.4202939743911
 30
0.0
 11
741.6371152955029
 21
682.5380083128777
 31
0.0
1001
Sigma
1000

  0
LINE
  5
1A4
330
70
100
AcDbEntity
  8
Line
 62
     4
370
     9
100
AcDbLine
 10
743.7076676483095
 20
690.2654148932782
 30
0.0
 11
743.909845416501
 21
689.5108771902287
 31
0.0
1001
Sigma
1000

  0
LINE
  5
1A5
330
70
100
AcDbEntity
  8
Line
 62
     4
370
     9
100
AcDbLine
 10
741.637115295502
 20
682.5380083128777
 30
0.0
 11
742.1894752303622
 21
683.09036824774
 31
0.0
1001
Sigma
1000

  0
LINE
  5
1A6
330
70
100
AcDbEntity
  8
Phantom
 62
     3
100
AcDbLine
 10
835.8259818592587
 20
561.7248315171146
 30
0.0
 11
841.3387289542614
 21
580.9500653614719
 31
0.0
1001
Sigma
1000

  0
LINE
  5
1A7
330
70
100
AcDbEntity
  8
Phantom
 62
     3
100
AcDbLine
 10
826.2133649370753
 20
564.4812050646159
 30
0.0
 11
831.7261120320775
 21
583.7064389089731
 31
0.0
1001
Sigma
1000

  0
LINE
  5
1A8
330
70
100
AcDbEntity
  8
Phantom
 62
     3
100
AcDbLine
 10
841.3387289542614
 20
580.9500653614719
 30
0.0
 11
831.7261120320775
 21
583.7064389089731
 31
0.0
1001
Sigma
1000

  0
LINE
  5
1A9
330
70
100
AcDbEntity
  8
Phantom
 62
     3
100
AcDbLine
 10
826.2133649370753
 20
564.4812050646159
 30
0.0
 11
835.8259818592587
 21
561.7248315171146
 31
0.0
1001
Sigma
1000

  0
LINE
  5
1AA
330
70
100
AcDbEntity
  8
Phantom
 62
     3
100
AcDbLine
 10
826.2133649370753
 20
684.766328120923
 30
0.0
 11
835.8259818592587
 21
687.5227016684242
 31
0.0
1001
Sigma
1000

  0
LINE
  5
1AB
330
70
100
AcDbEntity
  8
Phantom
 62
     3
100
AcDbLine
 10
841.3387289542614
 20
668.2974678240671
 30
0.0
 11
831.7261120320775
 21
665.5410942765658
 31
0.0
1001
Sigma
1000

  0
LINE
  5
1AC
330
70
100
AcDbEntity
  8
Phantom
 62
     3
100
AcDbLine
 10
826.2133649370753
 20
684.766328120923
 30
0.0
 11
831.7261120320775
 21
665.5410942765658
 31
0.0
1001
Sigma
1000

  0
LINE
  5
1AD
330
70
100
AcDbEntity
  8
Phantom
 62
     3
100
AcDbLine
 10
835.8259818592587
 20
687.5227016684242
 30
0.0
 11
841.3387289542614
 21
668.2974678240671
 31
0.0
1001
Sigma
1000

  0
LINE
  5
1AE
330
70
100
AcDbEntity
  8
Phantom
 62
     7
100
AcDbLine
 10
714.398007099575
 20
689.8367053565179
 30
0.0
 11
716.4685594523908
 21
697.5641119369184
 31
0.0
1001
Sigma
1000

  0
LINE
  5
1AF
330
70
100
AcDbEntity
  8
Phantom
 62
     4
100
AcDbLine
 10
716.2615042171024
 20
696.7913712788791
 30
0.0
 11
715.1301333715913
 21
697.9227421244002
 31
0.0
1001
Sigma
1000

  0
LINE
  5
1B0
330
70
100
AcDbEntity
  8
Phantom
 62
     4
100
AcDbLine
 10
714.6050623348637
 20
690.6094460145566
 30
0.0
 11
713.0595810187757
 21
690.1953355439997
 31
0.0
1001
Sigma
1000

  0
LINE
  5
1B1
330
70
100
AcDbEntity
  8
Phantom
 62
     4
100
AcDbLine
 10
740.4096497808661
 20
690.3208951763637
 30
0.0
 11
716.2615042171024
 21
696.7913712788791
 31
0.0
1001
Sigma
1000

  0
LINE
  5
1B2
330
70
100
AcDbEntity
  8
Phantom
 62
     4
100
AcDbLine
 10
714.6050623348637
 20
690.6094460145566
 30
0.0
 11
738.7532078986215
 21
684.1389699120413
 31
0.0
1001
Sigma
1000

  0
LINE
  5
1B3
330
70
100
AcDbEntity
  8
Phantom
 62
     7
100
AcDbLine
 10
740.4096497808661
 20
690.3208951763637
 30
0.0
 11
739.8439643581065
 21
691.3006910696813
 31
0.0
1001
Sigma
1000

  0
LINE
  5
1B4
330
70
100
AcDbEntity
  8
Phantom
 62
     7
100
AcDbLine
 10
739.8439643581065
 20
691.3006910696813
 30
0.0
 11
714.7298929718005
 21
698.029986216305
 31
0.0
1001
Sigma
1000

  0
LINE
  5
1B5
330
70
100
AcDbEntity
  8
Phantom
 62
     7
100
AcDbLine
 10
737.7734120052999
 20
683.5732844892808
 30
0.0
 11
739.8439643581065
 21
691.3006910696813
 31
0.0
1001
Sigma
1000

  0
LINE
  5
1B6
330
70
100
AcDbEntity
  8
Phantom
 62
     7
100
AcDbLine
 10
737.7734120052999
 20
683.5732844892808
 30
0.0
 11
712.6593406189849
 21
690.3025796359045
 31
0.0
1001
Sigma
1000

  0
LINE
  5
1B7
330
70
100
AcDbEntity
  8
Phantom
 62
     7
100
AcDbLine
 10
738.7532078986215
 20
684.1389699120413
 30
0.0
 11
740.4096497808661
 21
690.3208951763637
 31
0.0
1001
Sigma
1000

  0
LINE
  5
1B8
330
70
100
AcDbEntity
  8
Phantom
 62
     7
100
AcDbLine
 10
737.7734120052999
 20
683.5732844892808
 30
0.0
 11
738.7532078986215
 21
684.1389699120413
 31
0.0
1001
Sigma
1000

  0
ARC
  5
1B9
330
70
100
AcDbEntity
  8
Phantom
 62
     7
100
AcDbCircle
 10
706.4015524369562
 20
689.9087965728786
 30
0.0
 40
3.257359300272838
100
AcDbArc
 50
127.1211205082817
 51
202.878879491713
1001
Sigma
1000

  0
ARC
  5
1BA
330
70
100
AcDbEntity
  8
Phantom
 62
     7
100
AcDbCircle
 10
709.5073809661747
 20
701.4999064434744
 30
0.0
 40
3.257359300272838
100
AcDbArc
 50
127.1211205082817
 51
202.878879491713
1001
Sigma
1000

  0
LINE
  5
1BB
330
70
100
AcDbEntity
  8
Phantom
 62
     7
100
AcDbLine
 10
709.5683779868287
 20
691.1308005770187
 30
0.0
 11
704.4357297341549
 21
692.5060895313555
 31
0.0
1001
Sigma
1000

  0
LINE
  5
1BC
330
70
100
AcDbEntity
  8
Phantom
 62
     7
100
AcDbLine
 10
711.6389303396346
 20
698.8582071574293
 30
0.0
 11
706.5062820869608
 21
700.233496111766
 31
0.0
1001
Sigma
1000

  0
LINE
  5
1BD
330
70
100
AcDbEntity
  8
Phantom
 62
     7
100
AcDbLine
 10
703.2551849633242
 20
690.7518631965256
 30
0.0
 11
706.3610134925331
 21
702.3429730671312
 31
0.0
1001
Sigma
1000

  0
LINE
  5
1BE
330
70
100
AcDbEntity
  8
Phantom
 62
     7
100
AcDbLine
 10
707.5415582633636
 20
704.0971994019614
 30
0.0
 11
715.7651691482036
 21
701.8936895065002
 31
0.0
1001
Sigma
1000

  0
LINE
  5
1BF
330
70
100
AcDbEntity
  8
Phantom
 62
     7
100
AcDbLine
 10
708.5331018104258
 20
687.2670972868236
 30
0.0
 11
712.6742065160372
 21
702.7219104476245
 31
0.0
1001
Sigma
1000

  0
LINE
  5
1C0
330
70
100
AcDbEntity
  8
Phantom
 62
     7
100
AcDbLine
 10
703.400453557752
 20
688.6423862411604
 30
0.0
 11
711.6240644425819
 21
686.4388763456992
 31
0.0
1001
Sigma
1000

  0
ARC
  5
1C1
330
70
100
AcDbEntity
  8
Phantom
 62
     7
100
AcDbCircle
 10
716.3992090985295
 20
693.4415896026147
 30
0.0
 40
11.99999995355307
100
AcDbArc
 50
145.5287793655085
 51
184.4712206344951
1001
Sigma
1000

  0
LINE
  5
1C2
330
70
100
AcDbEntity
  8
Phantom
 62
     7
100
AcDbLine
 10
715.7651691482036
 20
701.8936895065002
 30
0.0
 11
711.6240644425819
 21
686.4388763456992
 31
0.0
1001
Sigma
1000

  0
LINE
  5
1C3
330
70
100
AcDbEntity
  8
Center
100
AcDbLine
 10
872.5630229908754
 20
617.9511460501064
 30
0.0
 11
684.3895755901452
 21
668.3720693181083
 31
0.0
1001
Sigma
1000

  0
LINE
  5
1C4
330
70
100
AcDbEntity
  8
Line
100
AcDbLine
 10
721.2275397516203
 20
571.2301611205236
 30
0.0
 11
656.7475155357352
 21
571.2301611205236
 31
0.0
1001
Sigma
1000

  0
LINE
  5
1C5
330
70
100
AcDbEntity
  8
Line
100
AcDbLine
 10
761.4475151304856
 20
746.423766121333
 30
0.0
 11
761.4475151304856
 21
749.6237661089472
 31
0.0
1001
Sigma
1000

  0
LINE
  5
1C6
330
70
100
AcDbEntity
  8
Line
100
AcDbLine
 10
654.8146577927164
 20
499.6237670765916
 30
0.0
 11
654.8146577927164
 21
513.3539302826079
 31
0.0
1001
Sigma
1000

  0
LINE
  5
1C7
330
70
100
AcDbEntity
  8
Line
100
AcDbLine
 10
654.8146577927164
 20
746.423766121333
 30
0.0
 11
654.8146577927164
 21
749.6237661089472
 31
0.0
1001
Sigma
1000

  0
CIRCLE
  5
1C8
330
70
100
AcDbEntity
  8
Line
100
AcDbCircle
 10
648.0975155692156
 20
740.9737661424279
 30
0.0
 40
6.349999975421833
1001
Sigma
1000

  0
ARC
  5
1C9
330
70
100
AcDbEntity
  8
Line
100
AcDbCircle
 10
648.0975155692156
 20
508.2737670431111
 30
0.0
 40
8.649999966519505
100
AcDbArc
 50
180.0
 51
320.9456127001036
1001
Sigma
1000

  0
CIRCLE
  5
1CA
330
70
100
AcDbEntity
  8
Line
100
AcDbCircle
 10
648.0975155692156
 20
740.9737661424279
 30
0.0
 40
8.649999966519505
1001
Sigma
1000

  0
LINE
  5
1CB
330
70
100
AcDbEntity
  8
Center
100
AcDbLine
 10
627.8081713854272
 20
508.2737670431111
 30
0.0
 11
666.6606302514757
 21
508.2737670431111
 31
0.0
1001
Sigma
1000

  0
LINE
  5
1CC
330
70
100
AcDbEntity
  8
Center
100
AcDbLine
 10
666.6606302514757
 20
740.9737661424279
 30
0.0
 11
627.8081713854272
 21
740.9737661424279
 31
0.0
1001
Sigma
1000

  0
LINE
  5
1CD
330
70
100
AcDbEntity
  8
Center
100
AcDbLine
 10
648.0975155692156
 20
762.9222735201645
 30
0.0
 11
648.0975155692257
 21
485.1312298192541
 31
0.0
1001
Sigma
1000

  0
LINE
  5
1CE
330
70
100
AcDbEntity
  8
Line
100
AcDbLine
 10
656.7475155357352
 20
740.9737661424279
 30
0.0
 11
656.7475155357352
 21
513.3539302826079
 31
0.0
1001
Sigma
1000

  0
LINE
  5
1CF
330
70
100
AcDbEntity
  8
Line
100
AcDbLine
 10
639.4475156026762
 20
740.9737661424279
 30
0.0
 11
639.4475156026762
 21
508.2737670431111
 31
0.0
1001
Sigma
1000

  0
LINE
  5
1D0
330
70
100
AcDbEntity
  8
Line
100
AcDbLine
 10
764.4475151188739
 20
740.8682898281775
 30
0.0
 11
711.4475153240144
 21
740.8682898281775
 31
0.0
1001
Sigma
1000

  0
LINE
  5
1D1
330
70
100
AcDbEntity
  8
Line
100
AcDbLine
 10
654.8146577927164
 20
746.423766121333
 30
0.0
 11
739.9475152137031
 21
746.423766121333
 31
0.0
1001
Sigma
1000

  0
LINE
  5
1D2
330
70
100
AcDbEntity
  8
Line
100
AcDbLine
 10
648.0975155692156
 20
499.6237670765916
 30
0.0
 11
761.4475151304856
 21
499.6237670765916
 31
0.0
1001
Sigma
1000

  0
LINE
  5
1D3
330
70
100
AcDbEntity
  8
Line
100
AcDbLine
 10
654.8146577927164
 20
749.6237661089472
 30
0.0
 11
761.4475151304856
 21
749.6237661089472
 31
0.0
1001
Sigma
1000

  0
LINE
  5
1D4
330
70
100
AcDbEntity
  8
Center
100
AcDbLine
 10
744.4475151962864
 20
722.3114344309617
 30
0.0
 11
744.4475151962864
 21
763.7117652915597
 31
0.0
1001
Sigma
1000

  0
LINE
  5
1D5
330
70
100
AcDbEntity
  8
Line
100
AcDbLine
 10
740.4475152117678
 20
749.6237661089472
 30
0.0
 11
740.4475152117678
 21
740.8682898281775
 31
0.0
1001
Sigma
1000

  0
LINE
  5
1D6
330
70
100
AcDbEntity
  8
Line
100
AcDbLine
 10
748.4475151808036
 20
730.4237661832623
 30
0.0
 11
748.4475151808041
 21
733.9237661697153
 31
0.0
1001
Sigma
1000

  0
LINE
  5
1D7
330
70
100
AcDbEntity
  8
Line
 62
     4
370
     9
100
AcDbLine
 10
741.2475152086715
 20
746.623766120559
 30
0.0
 11
741.2475152086715
 21
740.8682898281775
 31
0.0
1001
Sigma
1000

  0
LINE
  5
1D8
330
70
100
AcDbEntity
  8
Line
 62
     4
370
     9
100
AcDbLine
 10
747.6475151838999
 20
729.6237661863588
 30
0.0
 11
747.6475151839004
 21
733.9237661697153
 31
0.0
1001
Sigma
1000

  0
LINE
  5
1D9
330
70
100
AcDbEntity
  8
Line
100
AcDbLine
 10
764.4475151188739
 20
744.8682898126953
 30
0.0
 11
748.9475151788687
 21
744.8682898126953
 31
0.0
1001
Sigma
1000

  0
LINE
  5
1DA
330
70
100
AcDbEntity
  8
Line
100
AcDbLine
 10
752.4475151653217
 20
738.8682898359187
 30
0.0
 11
736.4475152272501
 21
738.8682898359187
 31
0.0
1001
Sigma
1000

  0
LINE
  5
1DB
330
70
100
AcDbEntity
  8
Line
100
AcDbLine
 10
738.447515219509
 20
732.3682898610774
 30
0.0
 11
750.4475151730629
 21
732.3682898610774
 31
0.0
1001
Sigma
1000

  0
ARC
  5
1DC
330
70
100
AcDbEntity
  8
Line
100
AcDbCircle
 10
750.4475151730629
 20
735.6256491613496
 30
0.0
 40
3.257359300272838
100
AcDbArc
 50
232.1211205082756
 51
307.8788794917152
1001
Sigma
1000

  0
ARC
  5
1DD
330
70
100
AcDbEntity
  8
Line
100
AcDbCircle
 10
738.447515219509
 20
735.6256491613496
 30
0.0
 40
3.257359300272838
100
AcDbArc
 50
232.1211205082756
 51
307.8788794917152
1001
Sigma
1000

  0
ARC
  5
1DE
330
70
100
AcDbEntity
  8
Line
100
AcDbCircle
 10
744.4475151962864
 20
744.3682898146305
 30
0.0
 40
11.99999995355307
100
AcDbArc
 50
250.5287793655016
 51
289.4712206344932
1001
Sigma
1000

  0
LINE
  5
1DF
330
70
100
AcDbEntity
  8
Line
100
AcDbLine
 10
740.4475152117678
 20
738.8682898359187
 30
0.0
 11
740.4475152117678
 21
733.0545813594312
 31
0.0
1001
Sigma
1000

  0
LINE
  5
1E0
330
70
100
AcDbEntity
  8
Line
100
AcDbLine
 10
748.4475151808041
 20
738.8682898359187
 30
0.0
 11
748.4475151808041
 21
733.0545813594312
 31
0.0
1001
Sigma
1000

  0
LINE
  5
1E1
330
70
100
AcDbEntity
  8
Line
100
AcDbLine
 10
736.4475152272501
 20
733.0545813594312
 30
0.0
 11
736.4475152272501
 21
740.8682898281775
 31
0.0
1001
Sigma
1000

  0
LINE
  5
1E2
330
70
100
AcDbEntity
  8
Line
100
AcDbLine
 10
752.4475151653217
 20
738.8682898359187
 30
0.0
 11
736.4475152272501
 21
738.8682898359187
 31
0.0
1001
Sigma
1000

  0
LINE
  5
1E3
330
70
100
AcDbEntity
  8
Line
100
AcDbLine
 10
752.4475151653217
 20
733.0545813594312
 30
0.0
 11
752.4475151653217
 21
740.8682898281775
 31
0.0
1001
Sigma
1000

  0
LINE
  5
1E4
330
70
100
AcDbEntity
  8
Line
 62
     4
370
     9
100
AcDbLine
 10
747.6475151839004
 20
746.623766120559
 30
0.0
 11
747.6475151839004
 21
740.8682898281775
 31
0.0
1001
Sigma
1000

  0
LINE
  5
1E5
330
70
100
AcDbEntity
  8
Line
 62
     4
370
     9
100
AcDbLine
 10
741.2475152086715
 20
733.9237661697153
 30
0.0
 11
741.247515208671
 21
729.6237661863588
 31
0.0
1001
Sigma
1000

  0
LINE
  5
1E6
330
70
100
AcDbEntity
  8
Line
100
AcDbLine
 10
748.4475151808041
 20
749.6237661089472
 30
0.0
 11
748.4475151808041
 21
740.8682898281775
 31
0.0
1001
Sigma
1000

  0
LINE
  5
1E7
330
70
100
AcDbEntity
  8
Line
100
AcDbLine
 10
740.4475152117678
 20
733.9237661697153
 30
0.0
 11
740.4475152117673
 21
730.4237661832623
 31
0.0
1001
Sigma
1000

  0
LINE
  5
1E8
330
70
100
AcDbEntity
  8
Line
100
AcDbLine
 10
711.4475153240144
 20
745.3682898107599
 30
0.0
 11
711.4475153240144
 21
740.8682898281775
 31
0.0
1001
Sigma
1000

  0
LINE
  5
1E9
330
70
100
AcDbEntity
  8
Line
100
AcDbLine
 10
761.4475151304856
 20
499.6237670765916
 30
0.0
 11
761.4475151305856
 21
513.3539302826079
 31
0.0
1001
Sigma
1000

  0
LINE
  5
1EA
330
70
100
AcDbEntity
  8
Line
100
AcDbLine
 10
654.8146577927164
 20
513.3539302826079
 30
0.0
 11
761.4475151305856
 21
513.3539302826079
 31
0.0
1001
Sigma
1000

  0
LINE
  5
1EB
330
70
100
AcDbEntity
  8
Line
100
AcDbLine
 10
748.9475151788687
 20
749.6237661089472
 30
0.0
 11
748.9475151788687
 21
746.423766121333
 31
0.0
1001
Sigma
1000

  0
LINE
  5
1EC
330
70
100
AcDbEntity
  8
Line
100
AcDbLine
 10
748.9475151788688
 20
744.8682898126953
 30
0.0
 11
748.9475151788687
 21
740.8682898281775
 31
0.0
1001
Sigma
1000

  0
LINE
  5
1ED
330
70
100
AcDbEntity
  8
Line
100
AcDbLine
 10
739.9475152137031
 20
749.6237661089472
 30
0.0
 11
739.9475152137029
 21
746.423766121333
 31
0.0
1001
Sigma
1000

  0
LINE
  5
1EE
330
70
100
AcDbEntity
  8
Line
100
AcDbLine
 10
739.9475152137029
 20
745.3682898107599
 30
0.0
 11
739.9475152137031
 21
740.8682898281775
 31
0.0
1001
Sigma
1000

  0
LINE
  5
1EF
330
70
100
AcDbEntity
  8
Line
100
AcDbLine
 10
656.7475155357352
 20
735.8936029029609
 30
0.0
 11
734.4269501779412
 21
735.8936029029609
 31
0.0
1001
Sigma
1000

  0
LINE
  5
1F0
330
70
100
AcDbEntity
  8
Line
100
AcDbLine
 10
654.8146577927164
 20
510.4305848294429
 30
0.0
 11
761.4475151305856
 21
510.4305848294429
 31
0.0
1001
Sigma
1000

  0
LINE
  5
1F1
330
70
100
AcDbEntity
  8
Line
100
AcDbLine
 10
740.4475152117678
 20
746.623766120559
 30
0.0
 11
748.4475151808041
 21
746.623766120559
 31
0.0
1001
Sigma
1000

  0
LINE
  5
1F2
330
70
100
AcDbEntity
  8
Line
 62
     4
370
     9
100
AcDbLine
 10
747.6475151839004
 20
746.623766120559
 30
0.0
 11
748.4475151808041
 21
748.009406761246
 31
0.0
1001
Sigma
1000

  0
LINE
  5
1F3
330
70
100
AcDbEntity
  8
Line
 62
     4
370
     9
100
AcDbLine
 10
741.2475152086715
 20
746.623766120559
 30
0.0
 11
740.4475152117678
 21
748.009406761246
 31
0.0
1001
Sigma
1000

  0
LINE
  5
1F4
330
70
100
AcDbEntity
  8
Line
100
AcDbLine
 10
747.6475151838999
 20
729.6237661863588
 30
0.0
 11
748.4475151808036
 21
730.4237661832623
 31
0.0
1001
Sigma
1000

  0
LINE
  5
1F5
330
70
100
AcDbEntity
  8
Line
100
AcDbLine
 10
740.4475152117673
 20
730.4237661832623
 30
0.0
 11
748.4475151808036
 21
730.4237661832623
 31
0.0
1001
Sigma
1000

  0
LINE
  5
1F6
330
70
100
AcDbEntity
  8
Line
100
AcDbLine
 10
741.247515208671
 20
729.6237661863588
 30
0.0
 11
747.6475151838999
 21
729.6237661863588
 31
0.0
1001
Sigma
1000

  0
LINE
  5
1F7
330
70
100
AcDbEntity
  8
Line
100
AcDbLine
 10
740.4475152117673
 20
730.4237661832623
 30
0.0
 11
741.247515208671
 21
729.6237661863588
 31
0.0
1001
Sigma
1000

  0
ARC
  5
1F8
330
70
100
AcDbEntity
  8
Line
100
AcDbCircle
 10
738.447515219509
 20
752.3664067854516
 30
0.0
 40
3.257359300272838
100
AcDbArc
 50
52.12112050828479
 51
127.8788794917152
1001
Sigma
1000

  0
ARC
  5
1F9
330
70
100
AcDbEntity
  8
Line
100
AcDbCircle
 10
750.4475151730629
 20
752.3664067854516
 30
0.0
 40
3.257359300272838
100
AcDbArc
 50
52.12112050828479
 51
127.8788794917152
1001
Sigma
1000

  0
LINE
  5
1FA
330
70
100
AcDbEntity
  8
Line
100
AcDbLine
 10
740.4475152117678
 20
749.6237661089472
 30
0.0
 11
740.4475152117678
 21
754.9374745873603
 31
0.0
1001
Sigma
1000

  0
LINE
  5
1FB
330
70
100
AcDbEntity
  8
Line
100
AcDbLine
 10
748.4475151808041
 20
749.6237661089472
 30
0.0
 11
748.4475151808041
 21
754.9374745873603
 31
0.0
1001
Sigma
1000

  0
LINE
  5
1FC
330
70
100
AcDbEntity
  8
Line
100
AcDbLine
 10
738.447515219509
 20
755.6237660857237
 30
0.0
 11
750.4475151730629
 21
755.6237660857237
 31
0.0
1001
Sigma
1000

  0
LINE
  5
1FD
330
70
100
AcDbEntity
  8
Line
100
AcDbLine
 10
752.4475151653217
 20
749.6237661089472
 30
0.0
 11
752.4475151653217
 21
754.9374745873603
 31
0.0
1001
Sigma
1000

  0
LINE
  5
1FE
330
70
100
AcDbEntity
  8
Line
100
AcDbLine
 10
736.4475152272501
 20
749.6237661089472
 30
0.0
 11
752.4475151653217
 21
749.6237661089472
 31
0.0
1001
Sigma
1000

  0
LINE
  5
1FF
330
70
100
AcDbEntity
  8
Line
100
AcDbLine
 10
736.4475152272501
 20
754.9374745873603
 30
0.0
 11
736.4475152272501
 21
749.6237661089472
 31
0.0
1001
Sigma
1000

  0
ARC
  5
200
330
70
100
AcDbEntity
  8
Line
100
AcDbCircle
 10
744.4475151962864
 20
743.6237661321707
 30
0.0
 40
11.99999995355307
100
AcDbArc
 50
70.52877936550377
 51
109.4712206344962
1001
Sigma
1000

  0
LINE
  5
201
330
70
100
AcDbEntity
  8
Line
100
AcDbLine
 10
764.4475151188739
 20
740.8682898281775
 30
0.0
 11
764.4475151188739
 21
744.8682898126953
 31
0.0
1001
Sigma
1000

  0
LINE
  5
202
330
70
100
AcDbEntity
  8
Hidden
 62
     3
100
AcDbLine
 10
719.9475152911146
 20
744.8682898126953
 30
0.0
 11
719.9475152911146
 21
740.8682898281775
 31
0.0
1001
Sigma
1000

  0
LINE
  5
203
330
70
100
AcDbEntity
  8
Hidden
 62
     3
100
AcDbLine
 10
728.9475152562793
 20
744.8682898126953
 30
0.0
 11
728.9475152562793
 21
740.8682898281775
 31
0.0
1001
Sigma
1000

  0
LINE
  5
204
330
70
100
AcDbEntity
  8
Center
100
AcDbLine
 10
724.447515273697
 20
755.7473611999071
 30
0.0
 11
724.447515273697
 21
734.9892184216128
 31
0.0
1001
Sigma
1000

  0
LINE
  5
205
330
70
100
AcDbEntity
  8
Line
100
AcDbLine
 10
761.4475151304856
 20
746.423766121333
 30
0.0
 11
748.9475151788687
 21
746.423766121333
 31
0.0
1001
Sigma
1000

  0
LINE
  5
206
330
70
100
AcDbEntity
  8
Line
100
AcDbLine
 10
711.4475153240144
 20
745.3682898107599
 30
0.0
 11
739.9475152137031
 21
745.3682898107599
 31
0.0
  0
LINE
  5
207
330
70
100
AcDbEntity
  8
Hidden
 62
     7
100
AcDbLine
 10
835.5799101478718
 20
694.5996631699722
 30
0.0
 11
835.5799101478718
 21
756.1255597798814
 31
0.0
1001
Sigma
1000

  0
LINE
  5
208
330
70
100
AcDbEntity
  8
Hidden
 62
     7
100
AcDbLine
 10
819.479910210188
 20
710.6996631076561
 30
0.0
 11
819.479910210188
 21
772.2255597175654
 31
0.0
1001
Sigma
1000

  0
CIRCLE
  5
209
330
70
100
AcDbEntity
  8
Line
 62
     7
100
AcDbCircle
 10
344.9324437901065
 20
582.223766756882
 30
0.0
 40
12.83799995030949
  0
CIRCLE
  5
20A
330
70
100
AcDbEntity
  8
Line
100
AcDbCircle
 10
252.5324441477479
 20
582.223766756892
 30
0.0
 40
8.837999965791837
1001
Sigma
1000

  0
ELLIPSE
  5
20B
330
70
100
AcDbEntity
  8
Line
100
AcDbEllipse
 10
302.532443954219
 20
658.8914080317039
 30
0.0
 11
40.99999984130632
 21
0.0
 31
0.0
210
0.0
220
0.0
230
1.0
 40
0.9659258262890237
 41
0.0
 42
6.283185307179586
  0
LINE
  5
20C
330
70
100
AcDbEntity
  8
Hidden
 62
     3
100
AcDbLine
 10
821.3799102033437
 20
467.823767199676
 30
0.0
 11
808.5616569164379
 21
540.5196940249807
 31
0.0
1001
Sigma
1000

  0
LINE
  5
20D
330
70
100
AcDbEntity
  8
Line
 62
     7
100
AcDbLine
 10
750.6540284347542
 20
559.2237668459053
 30
0.0
 11
750.6540284347542
 21
582.223766756882
 31
0.0
  0
ARC
  5
20E
330
70
100
AcDbEntity
  8
Line
 62
     7
100
AcDbCircle
 10
678.7995479277883
 20
573.0198253247357
 30
0.0
 40
72.44155511039434
100
AcDbArc
 50
7.299349001830607
 51
26.39459389125753
  0
ARC
  5
20F
330
70
100
AcDbEntity
  8
Hidden
 62
     4
100
AcDbCircle
 10
1027.17605940679
 20
624.6237665927695
 30
0.0
 40
287.296148887998
100
AcDbArc
 50
183.8719091387278
 51
193.1581488124658
  0
ARC
  5
210
330
70
100
AcDbEntity
  8
Line
 62
     4
100
AcDbCircle
 10
1027.17605940679
 20
624.6237665927695
 30
0.0
 40
287.296148887998
100
AcDbArc
 50
193.1581488124658
 51
206.5675976902123
  0
LINE
  5
215
330
70
100
AcDbEntity
  8
0
  6
Continuous
 62
     4
370
     9
390
83
100
AcDbLine
 10
1553.733608913184
 20
554.4244228616551
 30
0.0
 11
1593.733608913184
 21
554.4244228616551
 31
0.0
  0
LINE
  5
216
330
70
100
AcDbEntity
  8
0
  6
Continuous
 62
     4
370
     9
390
83
100
AcDbLine
 10
783.7336089131844
 20
9.42442286165496
 30
0.0
 11
783.7336089131844
 21
-30.57557713834504
 31
0.0
  0
LINE
  5
217
330
70
100
AcDbEntity
  8
0
  6
Continuous
 62
     4
370
     9
390
83
100
AcDbLine
 10
783.7336089131844
 20
1099.424422861655
 30
0.0
 11
783.7336089131844
 21
1139.424422861655
 31
0.0
  0
LINE
  5
218
330
70
100
AcDbEntity
  8
0
  6
Continuous
 62
     4
370
    40
390
83
100
AcDbLine
 10
13.73360891318441
 20
1099.424422861655
 30
0.0
 11
1553.733608913184
 21
1099.424422861655
 31
0.0
  0
LINE
  5
219
330
70
100
AcDbEntity
  8
0
  6
Continuous
 62
     4
370
     9
390
83
100
AcDbLine
 10
13.73360891318441
 20
554.4244228616551
 30
0.0
 11
-26.26639108681559
 21
554.4244228616551
 31
0.0
  0
LINE
  5
21A
330
70
100
AcDbEntity
  8
0
  6
Continuous
 62
     4
370
    40
390
83
100
AcDbLine
 10
13.73360891318441
 20
9.42442286165496
 30
0.0
 11
13.73360891318441
 21
1099.424422861655
 31
0.0
  0
LINE
  5
21B
330
70
100
AcDbEntity
  8
0
  6
Continuous
 62
     4
370
    40
390
83
100
AcDbLine
 10
13.73360891318441
 20
9.42442286165496
 30
0.0
 11
1553.733608913184
 21
9.42442286165496
 31
0.0
  0
LINE
  5
21C
330
70
100
AcDbEntity
  8
0
  6
Continuous
 62
     4
370
    40
390
83
100
AcDbLine
 10
1553.733608913184
 20
9.42442286165496
 30
0.0
 11
1553.733608913184
 21
1099.424422861655
 31
0.0
  0
TEXT
  5
21D
330
70
100
AcDbEntity
  8
0
 62
     7
370
    30
390
83
100
AcDbText
 10
1164.819799676571
 20
-18.75441313834503
 30
0.0
 40
16.0
  1
中国工業株式会社
 41
1.258928571428571
 72
     5
 11
1352.819799676571
 21
-18.75441313834503
 31
0.0
100
AcDbText
1001
AcDbBlockRepETag
1070
     1
1071
       26
1005
21D
  0
TEXT
  5
21E
330
70
100
AcDbEntity
  8
0
 62
     7
370
    30
390
83
100
AcDbText
 10
1165.219799676572
 20
-18.75441313834503
 30
0.0
 40
16.0
  1
中国工業株式会社
 41
1.258928571428571
 72
     5
 11
1353.219799676572
 21
-18.75441313834503
 31
0.0
100
AcDbText
1001
AcDbBlockRepETag
1070
     1
1071
       27
1005
21E
  0
TEXT
  5
21F
330
70
100
AcDbEntity
  8
0
 62
     7
370
    30
390
83
100
AcDbText
 10
1165.619799676571
 20
-18.75441313834503
 30
0.0
 40
16.0
  1
中国工業株式会社
 41
1.258928571428574
 72
     5
 11
1353.619799676572
 21
-18.75441313834503
 31
0.0
100
AcDbText
1001
AcDbBlockRepETag
1070
     1
1071
       28
1005
21F
  0
LINE
  5
220
330
70
100
AcDbEntity
  8
0
 62
     7
390
83
100
AcDbLine
 10
1124.739015676571
 20
-5.775577138345042
 30
0.0
 11
1129.117755676571
 21
-5.775577138345042
 31
0.0
1001
AcDbBlockRepETag
1070
     1
1071
       29
1005
220
  0
LINE
  5
221
330
70
100
AcDbEntity
  8
0
 62
     7
390
83
100
AcDbLine
 10
1129.117755676571
 20
-15.37557713834504
 30
0.0
 11
1124.739015676571
 21
-15.37557713834504
 31
0.0
1001
AcDbBlockRepETag
1070
     1
1071
       30
1005
221
  0
LINE
  5
222
330
70
100
AcDbEntity
  8
0
 62
     7
390
83
100
AcDbLine
 10
1146.663123676571
 20
-15.37557713834504
 30
0.0
 11
1151.041867676571
 21
-15.37557713834504
 31
0.0
1001
AcDbBlockRepETag
1070
     1
1071
       31
1005
222
  0
LINE
  5
223
330
70
100
AcDbEntity
  8
0
 62
     7
390
83
100
AcDbLine
 10
1151.041867676571
 20
-5.775577138345042
 30
0.0
 11
1146.663123676571
 21
-5.775577138345042
 31
0.0
1001
AcDbBlockRepETag
1070
     1
1071
       32
1005
223
  0
ARC
  5
224
330
70
100
AcDbEntity
  8
0
 62
     7
390
83
100
AcDbCircle
 10
1137.890440565681
 20
-10.57557841103149
 30
0.0
 40
13.99999872843208
100
AcDbArc
 50
200.0510389212319
 51
339.9489606452732
1001
AcDbBlockRepETag
1070
     1
1071
       33
1005
224
  0
ARC
  5
225
330
70
100
AcDbEntity
  8
0
 62
     7
390
83
100
AcDbCircle
 10
1137.890439676571
 20
-10.57557713834504
 30
0.0
 40
10.0
100
AcDbArc
 50
208.6854020000005
 51
331.3145979999994
1001
AcDbBlockRepETag
1070
     1
1071
       36
1005
225
  0
TEXT
  5
226
330
70
100
AcDbEntity
  8
0
 62
     7
370
    30
390
83
100
AcDbText
 10
1121.624950366894
 20
-14.35441313834504
 30
0.0
 40
7.2
  1
ＣＫＫ
 41
1.475694444444444
 72
     5
 11
1155.624950366894
 21
-14.35441313834504
 31
0.0
100
AcDbText
1001
AcDbBlockRepETag
1070
     1
1071
       38
1005
226
  0
TEXT
  5
227
330
70
100
AcDbEntity
  8
0
 62
     7
370
    30
390
83
100
AcDbText
 10
1121.024950366894
 20
-14.35441313834504
 30
0.0
 40
7.2
  1
ＣＫＫ
 41
1.475694444444444
 72
     5
 11
1155.024950366894
 21
-14.35441313834504
 31
0.0
100
AcDbText
1001
AcDbBlockRepETag
1070
     1
1071
       39
1005
227
  0
TEXT
  5
228
330
70
100
AcDbEntity
  8
0
 62
     7
370
    30
390
83
100
AcDbText
 10
1120.424950366894
 20
-14.35441313834504
 30
0.0
 40
7.2
  1
ＣＫＫ
 41
1.475694444444444
 72
     5
 11
1154.424950366894
 21
-14.35441313834504
 31
0.0
100
AcDbText
1001
AcDbBlockRepETag
1070
     1
1071
       40
1005
228
  0
TEXT
  5
229
330
70
100
AcDbEntity
  8
0
 62
     7
370
    30
390
83
100
AcDbText
 10
1119.824950366894
 20
-14.35441313834504
 30
0.0
 40
7.2
  1
ＣＫＫ
 41
1.475694444444444
 72
     5
 11
1153.824950366894
 21
-14.35441313834504
 31
0.0
100
AcDbText
1001
AcDbBlockRepETag
1070
     1
1071
       41
1005
229
  0
ARC
  5
22A
330
70
100
AcDbEntity
  8
0
 62
     7
390
83
100
AcDbCircle
 10
1137.890439676571
 20
-10.57557713834504
 30
0.0
 40
14.0
100
AcDbArc
 50
20.05104300000031
 51
159.9489569999997
1001
AcDbBlockRepETag
1070
     1
1071
       42
1005
22A
  0
ARC
  5
22B
330
70
100
AcDbEntity
  8
0
 62
     7
390
83
100
AcDbCircle
 10
1137.890439676571
 20
-10.57557713834504
 30
0.0
 40
10.0
100
AcDbArc
 50
28.68540200000055
 51
151.3145979999994
1001
AcDbBlockRepETag
1070
     1
1071
       43
1005
22B
  0
TEXT
  5
22C
330
70
100
AcDbEntity
  8
0
 62
     7
370
    30
390
83
100
AcDbText
 10
1166.019799676571
 20
-18.75441313834503
 30
0.0
 40
16.0
  1
中国工業株式会社
 41
1.258928571428571
 72
     5
 11
1354.019799676571
 21
-18.75441313834503
 31
0.0
100
AcDbText
1001
AcDbBlockRepETag
1070
     1
1071
       45
1005
22C
  0
TEXT
  5
22D
330
70
100
AcDbEntity
  8
0
 62
     7
370
    30
390
83
100
AcDbText
 10
1166.419799676571
 20
-18.75441313834503
 30
0.0
 40
16.0
  1
中国工業株式会社
 41
1.258928571428571
 72
     5
 11
1354.419799676571
 21
-18.75441313834503
 31
0.0
100
AcDbText
1001
AcDbBlockRepETag
1070
     1
1071
       46
1005
22D
  0
TEXT
  5
22E
330
70
100
AcDbEntity
  8
0
 62
     7
370
    30
390
83
100
AcDbText
 10
1166.819799676571
 20
-18.75441313834503
 30
0.0
 40
16.0
  1
中国工業株式会社
 41
1.258928571428571
 72
     5
 11
1354.819799676572
 21
-18.75441313834503
 31
0.0
100
AcDbText
1001
AcDbBlockRepETag
1070
     1
1071
       47
1005
22E
  0
TEXT
  5
22F
330
70
100
AcDbEntity
  8
0
 62
     7
370
    30
390
83
100
AcDbText
 10
1167.219799676572
 20
-18.75441313834503
 30
0.0
 40
16.0
  1
中国工業株式会社
 41
1.258928571428571
 72
     5
 11
1355.219799676572
 21
-18.75441313834503
 31
0.0
100
AcDbText
1001
AcDbBlockRepETag
1070
     1
1071
       48
1005
22F
  0
TEXT
  5
230
330
70
100
AcDbEntity
  8
0
 62
     7
370
    30
390
83
100
AcDbText
 10
1167.619799676571
 20
-18.75441313834503
 30
0.0
 40
16.0
  1
中国工業株式会社
 41
1.258928571428574
 72
     5
 11
1355.619799676572
 21
-18.75441313834503
 31
0.0
100
AcDbText
1001
AcDbBlockRepETag
1070
     1
1071
       49
1005
230
  0
TEXT
  5
231
330
70
100
AcDbEntity
  8
0
 62
     7
370
    30
390
83
100
AcDbText
 10
1168.019799676571
 20
-18.75441313834503
 30
0.0
 40
16.0
  1
中国工業株式会社
 41
1.258928571428571
 72
     5
 11
1356.019799676571
 21
-18.75441313834503
 31
0.0
100
AcDbText
1001
AcDbBlockRepETag
1070
     1
1071
       50
1005
231
  0
TEXT
  5
232
330
70
100
AcDbEntity
  8
0
 62
     7
370
    30
390
83
100
AcDbText
 10
1164.419799676571
 20
-18.75441313834503
 30
0.0
 40
16.0
  1
中国工業株式会社
 41
1.258928571428571
 72
     5
 11
1352.419799676571
 21
-18.75441313834503
 31
0.0
100
AcDbText
1001
AcDbBlockRepETag
1070
     1
1071
       51
1005
232
  0
HATCH
  5
233
330
70
100
AcDbEntity
  8
0
 62
     7
390
83
100
AcDbHatch
 10
0.0
 20
0.0
 30
0.0
210
0.0
220
0.0
230
1.0
  2
SOLID
 70
     1
 71
     0
 91
        1
 92
        1
 93
        4
 72
     2
 10
1137.890439676571
 20
-10.57557713834504
 40
10.0
 50
28.68540200000055
 51
151.3145979999994
 73
     1
 72
     1
 10
1129.117755676571
 20
-5.775577138345042
 11
1124.739015676571
 21
-5.775577138345042
 72
     2
 10
1137.890439676571
 20
-10.57557713834504
 40
14.0
 50
200.0510430000003
 51
339.9489569999997
 73
     0
 72
     1
 10
1151.041867676571
 20
-5.775577138345042
 11
1146.663123676571
 21
-5.775577138345042
 97
        0
 75
     0
 76
     1
 98
        1
 10
820.7551196765713
 20
-44.57557713834503
450
        0
451
        0
460
0.0
461
0.0
452
        0
462
0.0
453
        0
470

1001
ACAD
1010
0.0
1020
0.0
1030
0.0
1001
AcDbBlockRepETag
1070
     1
1071
      139
1005
233
  0
HATCH
  5
234
330
70
100
AcDbEntity
  8
0
 62
     7
390
83
100
AcDbHatch
 10
0.0
 20
0.0
 30
0.0
210
0.0
220
0.0
230
1.0
  2
SOLID
 70
     1
 71
     0
 91
        1
 92
        1
 93
        4
 72
     2
 10
1137.890439676571
 20
-10.57557713834504
 40
10.0
 50
208.6854020000005
 51
331.3145979999994
 73
     1
 72
     1
 10
1146.663123676571
 20
-15.37557713834504
 11
1151.041867676571
 21
-15.37557713834504
 72
     2
 10
1137.890440565681
 20
-10.57557841103149
 40
13.99999872843208
 50
20.05103935472679
 51
159.948961078768
 73
     0
 72
     1
 10
1124.739015676571
 20
-15.37557713834504
 11
1129.117755676571
 21
-15.37557713834504
 97
        0
 75
     0
 76
     1
 98
        1
 10
820.7551196765713
 20
-44.57557713834503
450
        0
451
        0
460
0.0
461
0.0
452
        0
462
0.0
453
        0
470

1001
ACAD
1010
0.0
1020
0.0
1030
0.0
1001
AcDbBlockRepETag
1070
     1
1071
      140
1005
234
  0
LINE
  5
235
330
70
100
AcDbEntity
  8
Line
 62
     7
370
     9
100
AcDbLine
 10
37.73360891318442
 20
61.4244228616549
 30
0.0
 11
371.1762319131846
 21
61.4244228616549
 31
0.0
  0
LINE
  5
236
330
70
100
AcDbEntity
  8
Line
 62
     7
370
     9
100
AcDbLine
 10
37.73360891318442
 20
89.42442286165491
 30
0.0
 11
371.1762319131846
 21
89.42442286165491
 31
0.0
  0
LINE
  5
237
330
70
100
AcDbEntity
  8
Line
 62
     7
370
     9
100
AcDbLine
 10
37.73360891318442
 20
117.4244228616549
 30
0.0
 11
371.1762319131846
 21
117.4244228616549
 31
0.0
  0
LINE
  5
238
330
70
100
AcDbEntity
  8
Line
 62
     7
370
     9
100
AcDbLine
 10
37.73360891318488
 20
145.4244228616544
 30
0.0
 11
371.176231913185
 21
145.4244228616544
 31
0.0
  0
LINE
  5
239
330
70
100
AcDbEntity
  8
Line
 62
     7
370
     9
100
AcDbLine
 10
37.73360891318488
 20
173.424422861655
 30
0.0
 11
371.176231913185
 21
173.424422861655
 31
0.0
  0
LINE
  5
23A
330
70
100
AcDbEntity
  8
Line
 62
     7
370
     9
100
AcDbLine
 10
125.2745919131849
 20
203.6874518616544
 30
0.0
 11
283.635247913185
 21
203.6874518616544
 31
0.0
  0
LINE
  5
23B
330
70
100
AcDbEntity
  8
Line
 62
     7
370
     9
100
AcDbLine
 10
125.2745919131849
 20
207.6874518616544
 30
0.0
 11
283.635247913185
 21
207.6874518616544
 31
0.0
  0
LINE
  5
250
330
70
100
AcDbEntity
  8
Line
 62
     7
370
     9
100
AcDbLine
 10
37.73360891318442
 20
33.42442286165496
 30
0.0
 11
371.1762319131846
 21
33.42442286165496
 31
0.0
  0
LINE
  5
2EA
330
70
100
AcDbEntity
  8
0
  6
Continuous
 62
     4
370
    40
390
83
100
AcDbLine
 10
1137.733608913184
 20
9.42442286165496
 30
0.0
 11
1137.733608913184
 21
73.42442286165496
 31
0.0
  0
TEXT
  5
2EB
330
70
100
AcDbEntity
  8
0
 62
     4
370
    30
390
83
100
AcDbText
 10
1143.333608913184
 20
51.02442286165495
 30
0.0
 40
12.8
  1
名
 41
1.08372288357531
 72
     5
 11
1155.355708101646
 21
51.02442286165495
 31
0.0
100
AcDbText
1001
AcDbBlockRepETag
1070
     1
1071
       22
1005
2EB
  0
TEXT
  5
2EC
330
70
100
AcDbEntity
  8
0
 62
     4
370
    30
390
83
100
AcDbText
 10
1143.333608913184
 20
19.02442286165495
 30
0.0
 40
12.8
  1
称
 41
1.071428571428586
 72
     5
 11
1156.133608913184
 21
19.02442286165495
 31
0.0
100
AcDbText
1001
AcDbBlockRepETag
1070
     1
1071
       23
1005
2EC
  0
LINE
  5
2EE
330
70
100
AcDbEntity
  8
0
  6
Continuous
 62
     4
370
     9
390
83
100
AcDbLine
 10
1161.733608913184
 20
9.42442286165496
 30
0.0
 11
1161.733608913184
 21
73.42442286165496
 31
0.0
  0
TEXT
  5
2FE
330
70
100
AcDbEntity
  8
Text
100
AcDbText
 10
67.25644432410357
 20
423.5076412013138
 30
0.0
 40
16.0
  1
(E.F.V付)
100
AcDbText
  0
LINE
  5
305
330
70
100
AcDbEntity
  8
0
  6
Continuous
 62
     4
370
     9
390
83
100
AcDbLine
 10
1553.733608913184
 20
554.4244228616551
 30
0.0
 11
1593.733608913184
 21
554.4244228616551
 31
0.0
  0
LINE
  5
306
330
70
100
AcDbEntity
  8
0
  6
Continuous
 62
     4
370
     9
390
83
100
AcDbLine
 10
783.7336089131844
 20
9.42442286165496
 30
0.0
 11
783.7336089131844
 21
-30.57557713834504
 31
0.0
  0
LINE
  5
307
330
70
100
AcDbEntity
  8
0
  6
Continuous
 62
     4
370
     9
390
83
100
AcDbLine
 10
783.7336089131844
 20
1099.424422861655
 30
0.0
 11
783.7336089131844
 21
1139.424422861655
 31
0.0
  0
LINE
  5
308
330
70
100
AcDbEntity
  8
0
  6
Continuous
 62
     4
370
    40
390
83
100
AcDbLine
 10
13.73360891318441
 20
1099.424422861655
 30
0.0
 11
1553.733608913184
 21
1099.424422861655
 31
0.0
  0
LINE
  5
309
330
70
100
AcDbEntity
  8
0
  6
Continuous
 62
     4
370
     9
390
83
100
AcDbLine
 10
13.73360891318441
 20
554.4244228616551
 30
0.0
 11
-26.26639108681559
 21
554.4244228616551
 31
0.0
  0
LINE
  5
30A
330
70
100
AcDbEntity
  8
0
  6
Continuous
 62
     4
370
    40
390
83
100
AcDbLine
 10
13.73360891318441
 20
9.42442286165496
 30
0.0
 11
13.73360891318441
 21
1099.424422861655
 31
0.0
  0
LINE
  5
30B
330
70
100
AcDbEntity
  8
0
  6
Continuous
 62
     4
370
    40
390
83
100
AcDbLine
 10
13.73360891318441
 20
9.42442286165496
 30
0.0
 11
1553.733608913184
 21
9.42442286165496
 31
0.0
  0
LINE
  5
30C
330
70
100
AcDbEntity
  8
0
  6
Continuous
 62
     4
370
    40
390
83
100
AcDbLine
 10
1553.733608913184
 20
9.42442286165496
 30
0.0
 11
1553.733608913184
 21
1099.424422861655
 31
0.0
  0
TEXT
  5
30D
330
70
100
AcDbEntity
  8
0
 62
     7
370
    30
390
83
100
AcDbText
 10
1164.819799676571
 20
-18.75441313834503
 30
0.0
 40
16.0
  1
中国工業株式会社
 41
1.258928571428571
 72
     5
 11
1352.819799676571
 21
-18.75441313834503
 31
0.0
100
AcDbText
1001
AcDbBlockRepETag
1070
     1
1071
       26
1005
30D
  0
TEXT
  5
30E
330
70
100
AcDbEntity
  8
0
 62
     7
370
    30
390
83
100
AcDbText
 10
1165.219799676572
 20
-18.75441313834503
 30
0.0
 40
16.0
  1
中国工業株式会社
 41
1.258928571428571
 72
     5
 11
1353.219799676572
 21
-18.75441313834503
 31
0.0
100
AcDbText
1001
AcDbBlockRepETag
1070
     1
1071
       27
1005
30E
  0
TEXT
  5
30F
330
70
100
AcDbEntity
  8
0
 62
     7
370
    30
390
83
100
AcDbText
 10
1165.619799676571
 20
-18.75441313834503
 30
0.0
 40
16.0
  1
中国工業株式会社
 41
1.258928571428574
 72
     5
 11
1353.619799676572
 21
-18.75441313834503
 31
0.0
100
AcDbText
1001
AcDbBlockRepETag
1070
     1
1071
       28
1005
30F
  0
LINE
  5
310
330
70
100
AcDbEntity
  8
0
 62
     7
390
83
100
AcDbLine
 10
1124.739015676571
 20
-5.775577138345042
 30
0.0
 11
1129.117755676571
 21
-5.775577138345042
 31
0.0
1001
AcDbBlockRepETag
1070
     1
1071
       29
1005
310
  0
LINE
  5
311
330
70
100
AcDbEntity
  8
0
 62
     7
390
83
100
AcDbLine
 10
1129.117755676571
 20
-15.37557713834504
 30
0.0
 11
1124.739015676571
 21
-15.37557713834504
 31
0.0
1001
AcDbBlockRepETag
1070
     1
1071
       30
1005
311
  0
LINE
  5
312
330
70
100
AcDbEntity
  8
0
 62
     7
390
83
100
AcDbLine
 10
1146.663123676571
 20
-15.37557713834504
 30
0.0
 11
1151.041867676571
 21
-15.37557713834504
 31
0.0
1001
AcDbBlockRepETag
1070
     1
1071
       31
1005
312
  0
LINE
  5
313
330
70
100
AcDbEntity
  8
0
 62
     7
390
83
100
AcDbLine
 10
1151.041867676571
 20
-5.775577138345042
 30
0.0
 11
1146.663123676571
 21
-5.775577138345042
 31
0.0
1001
AcDbBlockRepETag
1070
     1
1071
       32
1005
313
  0
ARC
  5
314
330
70
100
AcDbEntity
  8
0
 62
     7
390
83
100
AcDbCircle
 10
1137.890440565681
 20
-10.57557841103149
 30
0.0
 40
13.99999872843208
100
AcDbArc
 50
200.0510389212319
 51
339.9489606452732
1001
AcDbBlockRepETag
1070
     1
1071
       33
1005
314
  0
ARC
  5
315
330
70
100
AcDbEntity
  8
0
 62
     7
390
83
100
AcDbCircle
 10
1137.890439676571
 20
-10.57557713834504
 30
0.0
 40
10.0
100
AcDbArc
 50
208.6854020000005
 51
331.3145979999994
1001
AcDbBlockRepETag
1070
     1
1071
       36
1005
315
  0
TEXT
  5
316
330
70
100
AcDbEntity
  8
0
 62
     7
370
    30
390
83
100
AcDbText
 10
1121.624950366894
 20
-14.35441313834504
 30
0.0
 40
7.2
  1
ＣＫＫ
 41
1.475694444444444
 72
     5
 11
1155.624950366894
 21
-14.35441313834504
 31
0.0
100
AcDbText
1001
AcDbBlockRepETag
1070
     1
1071
       38
1005
316
  0
TEXT
  5
317
330
70
100
AcDbEntity
  8
0
 62
     7
370
    30
390
83
100
AcDbText
 10
1121.024950366894
 20
-14.35441313834504
 30
0.0
 40
7.2
  1
ＣＫＫ
 41
1.475694444444444
 72
     5
 11
1155.024950366894
 21
-14.35441313834504
 31
0.0
100
AcDbText
1001
AcDbBlockRepETag
1070
     1
1071
       39
1005
317
  0
TEXT
  5
318
330
70
100
AcDbEntity
  8
0
 62
     7
370
    30
390
83
100
AcDbText
 10
1120.424950366894
 20
-14.35441313834504
 30
0.0
 40
7.2
  1
ＣＫＫ
 41
1.475694444444444
 72
     5
 11
1154.424950366894
 21
-14.35441313834504
 31
0.0
100
AcDbText
1001
AcDbBlockRepETag
1070
     1
1071
       40
1005
318
  0
TEXT
  5
319
330
70
100
AcDbEntity
  8
0
 62
     7
370
    30
390
83
100
AcDbText
 10
1119.824950366894
 20
-14.35441313834504
 30
0.0
 40
7.2
  1
ＣＫＫ
 41
1.475694444444444
 72
     5
 11
1153.824950366894
 21
-14.35441313834504
 31
0.0
100
AcDbText
1001
AcDbBlockRepETag
1070
     1
1071
       41
1005
319
  0
ARC
  5
31A
330
70
100
AcDbEntity
  8
0
 62
     7
390
83
100
AcDbCircle
 10
1137.890439676571
 20
-10.57557713834504
 30
0.0
 40
14.0
100
AcDbArc
 50
20.05104300000031
 51
159.9489569999997
1001
AcDbBlockRepETag
1070
     1
1071
       42
1005
31A
  0
ARC
  5
31B
330
70
100
AcDbEntity
  8
0
 62
     7
390
83
100
AcDbCircle
 10
1137.890439676571
 20
-10.57557713834504
 30
0.0
 40
10.0
100
AcDbArc
 50
28.68540200000055
 51
151.3145979999994
1001
AcDbBlockRepETag
1070
     1
1071
       43
1005
31B
  0
TEXT
  5
31C
330
70
100
AcDbEntity
  8
0
 62
     7
370
    30
390
83
100
AcDbText
 10
1166.019799676571
 20
-18.75441313834503
 30
0.0
 40
16.0
  1
中国工業株式会社
 41
1.258928571428571
 72
     5
 11
1354.019799676571
 21
-18.75441313834503
 31
0.0
100
AcDbText
1001
AcDbBlockRepETag
1070
     1
1071
       45
1005
31C
  0
TEXT
  5
31D
330
70
100
AcDbEntity
  8
0
 62
     7
370
    30
390
83
100
AcDbText
 10
1166.419799676571
 20
-18.75441313834503
 30
0.0
 40
16.0
  1
中国工業株式会社
 41
1.258928571428571
 72
     5
 11
1354.419799676571
 21
-18.75441313834503
 31
0.0
100
AcDbText
1001
AcDbBlockRepETag
1070
     1
1071
       46
1005
31D
  0
TEXT
  5
31E
330
70
100
AcDbEntity
  8
0
 62
     7
370
    30
390
83
100
AcDbText
 10
1166.819799676571
 20
-18.75441313834503
 30
0.0
 40
16.0
  1
中国工業株式会社
 41
1.258928571428571
 72
     5
 11
1354.819799676572
 21
-18.75441313834503
 31
0.0
100
AcDbText
1001
AcDbBlockRepETag
1070
     1
1071
       47
1005
31E
  0
TEXT
  5
31F
330
70
100
AcDbEntity
  8
0
 62
     7
370
    30
390
83
100
AcDbText
 10
1167.219799676572
 20
-18.75441313834503
 30
0.0
 40
16.0
  1
中国工業株式会社
 41
1.258928571428571
 72
     5
 11
1355.219799676572
 21
-18.75441313834503
 31
0.0
100
AcDbText
1001
AcDbBlockRepETag
1070
     1
1071
       48
1005
31F
  0
TEXT
  5
320
330
70
100
AcDbEntity
  8
0
 62
     7
370
    30
390
83
100
AcDbText
 10
1167.619799676571
 20
-18.75441313834503
 30
0.0
 40
16.0
  1
中国工業株式会社
 41
1.258928571428574
 72
     5
 11
1355.619799676572
 21
-18.75441313834503
 31
0.0
100
AcDbText
1001
AcDbBlockRepETag
1070
     1
1071
       49
1005
320
  0
TEXT
  5
321
330
70
100
AcDbEntity
  8
0
 62
     7
370
    30
390
83
100
AcDbText
 10
1168.019799676571
 20
-18.75441313834503
 30
0.0
 40
16.0
  1
中国工業株式会社
 41
1.258928571428571
 72
     5
 11
1356.019799676571
 21
-18.75441313834503
 31
0.0
100
AcDbText
1001
AcDbBlockRepETag
1070
     1
1071
       50
1005
321
  0
TEXT
  5
322
330
70
100
AcDbEntity
  8
0
 62
     7
370
    30
390
83
100
AcDbText
 10
1164.419799676571
 20
-18.75441313834503
 30
0.0
 40
16.0
  1
中国工業株式会社
 41
1.258928571428571
 72
     5
 11
1352.419799676571
 21
-18.75441313834503
 31
0.0
100
AcDbText
1001
AcDbBlockRepETag
1070
     1
1071
       51
1005
322
  0
HATCH
  5
323
330
70
100
AcDbEntity
  8
0
 62
     7
390
83
100
AcDbHatch
 10
0.0
 20
0.0
 30
0.0
210
0.0
220
0.0
230
1.0
  2
SOLID
 70
     1
 71
     0
 91
        1
 92
        1
 93
        4
 72
     2
 10
1137.890439676571
 20
-10.57557713834504
 40
10.0
 50
28.68540200000055
 51
151.3145979999994
 73
     1
 72
     1
 10
1129.117755676571
 20
-5.775577138345042
 11
1124.739015676571
 21
-5.775577138345042
 72
     2
 10
1137.890439676571
 20
-10.57557713834504
 40
14.0
 50
200.0510430000003
 51
339.9489569999997
 73
     0
 72
     1
 10
1151.041867676571
 20
-5.775577138345042
 11
1146.663123676571
 21
-5.775577138345042
 97
        0
 75
     0
 76
     1
 98
        1
 10
820.7551196765713
 20
-44.57557713834503
450
        0
451
        0
460
0.0
461
0.0
452
        0
462
0.0
453
        0
470

1001
ACAD
1010
0.0
1020
0.0
1030
0.0
1001
AcDbBlockRepETag
1070
     1
1071
      139
1005
323
  0
HATCH
  5
324
330
70
100
AcDbEntity
  8
0
 62
     7
390
83
100
AcDbHatch
 10
0.0
 20
0.0
 30
0.0
210
0.0
220
0.0
230
1.0
  2
SOLID
 70
     1
 71
     0
 91
        1
 92
        1
 93
        4
 72
     2
 10
1137.890439676571
 20
-10.57557713834504
 40
10.0
 50
208.6854020000005
 51
331.3145979999994
 73
     1
 72
     1
 10
1146.663123676571
 20
-15.37557713834504
 11
1151.041867676571
 21
-15.37557713834504
 72
     2
 10
1137.890440565681
 20
-10.57557841103149
 40
13.99999872843208
 50
20.05103935472679
 51
159.948961078768
 73
     0
 72
     1
 10
1124.739015676571
 20
-15.37557713834504
 11
1129.117755676571
 21
-15.37557713834504
 97
        0
 75
     0
 76
     1
 98
        1
 10
820.7551196765713
 20
-44.57557713834503
450
        0
451
        0
460
0.0
461
0.0
452
        0
462
0.0
453
        0
470

1001
ACAD
1010
0.0
1020
0.0
1030
0.0
1001
AcDbBlockRepETag
1070
     1
1071
      140
1005
324
  0
LINE
  5
325
330
70
100
AcDbEntity
  8
0
  6
Continuous
 62
     4
370
    40
390
83
100
AcDbLine
 10
1137.733608913184
 20
73.42442286165496
 30
0.0
 11
1553.733608913184
 21
73.42442286165496
 31
0.0
  0
LINE
  5
326
330
70
100
AcDbEntity
  8
0
  6
Continuous
 62
     4
370
    40
390
83
100
AcDbLine
 10
1137.733608913184
 20
9.42442286165496
 30
0.0
 11
1137.733608913184
 21
73.42442286165496
 31
0.0
  0
TEXT
  5
327
330
70
100
AcDbEntity
  8
0
 62
     4
370
    30
390
83
100
AcDbText
 10
1143.333608913184
 20
51.02442286165495
 30
0.0
 40
12.8
  1
名
 41
1.08372288357531
 72
     5
 11
1155.355708101646
 21
51.02442286165495
 31
0.0
100
AcDbText
1001
AcDbBlockRepETag
1070
     1
1071
       22
1005
327
  0
TEXT
  5
328
330
70
100
AcDbEntity
  8
0
 62
     4
370
    30
390
83
100
AcDbText
 10
1143.333608913184
 20
19.02442286165495
 30
0.0
 40
12.8
  1
称
 41
1.071428571428586
 72
     5
 11
1156.133608913184
 21
19.02442286165495
 31
0.0
100
AcDbText
1001
AcDbBlockRepETag
1070
     1
1071
       23
1005
328
  0
LINE
  5
32A
330
70
100
AcDbEntity
  8
0
  6
Continuous
 62
     4
370
     9
390
83
100
AcDbLine
 10
1161.733608913184
 20
9.42442286165496
 30
0.0
 11
1161.733608913184
 21
73.42442286165496
 31
0.0
  0
TEXT
  5
32B
330
70
100
AcDbEntity
  8
Text
100
AcDbText
 10
1469.733608913184
 20
-14.57557713834503
 30
0.0
 40
16.0
  1
2024年1月
 72
     2
 11
1549.733608913184
 21
-14.57557713834503
 31
0.0
100
AcDbText
  0
TEXT
  5
6EA
330
70
100
AcDbEntity
  8
Text
 62
     7
100
AcDbText
 10
41.73360891318487
 20
65.4244228616549
 30
0.0
 40
16.0
  1
充填ガス
100
AcDbText
1001
ACAD
1000
ACAD_MTEXT_DEFINED_HEIGHT_BEGIN
1070
    46
1040
3.999999999999997
1000
ACAD_MTEXT_DEFINED_HEIGHT_END
  0
TEXT
  5
6EB
330
70
100
AcDbEntity
  8
Text
 62
     7
100
AcDbText
 10
38.73360891318487
 20
93.42442286165491
 30
0.0
 40
16.0
  1
計算刻印質量
100
AcDbText
1001
ACAD
1000
ACAD_MTEXT_DEFINED_HEIGHT_BEGIN
1070
    46
1040
0.0
1000
ACAD_MTEXT_DEFINED_HEIGHT_END
  0
TEXT
  5
6EC
330
70
100
AcDbEntity
  8
Text
 62
     7
100
AcDbText
 10
37.66694224651821
 20
121.4244228616549
 30
0.0
 40
16.0
  1
内容積
100
AcDbText
1001
ACAD
1000
ACAD_MTEXT_DEFINED_HEIGHT_BEGIN
1070
    46
1040
0.0
1000
ACAD_MTEXT_DEFINED_HEIGHT_END
  0
TEXT
  5
6ED
330
70
100
AcDbEntity
  8
Text
 62
     7
100
AcDbText
 10
38.73360891318533
 20
149.4244228616546
 30
0.0
 40
16.0
  1
耐圧試験圧力
100
AcDbText
1001
ACAD
1000
ACAD_MTEXT_DEFINED_HEIGHT_BEGIN
1070
    46
1040
3.644643982134057
1000
ACAD_MTEXT_DEFINED_HEIGHT_END
  0
TEXT
  5
6EE
330
70
100
AcDbEntity
  8
Text
 62
     7
100
AcDbText
 10
41.73360891318533
 20
177.424422861655
 30
0.0
 40
16.0
  1
最高充填圧力
100
AcDbText
1001
ACAD
1000
ACAD_MTEXT_DEFINED_HEIGHT_BEGIN
1070
    46
1040
0.0
1000
ACAD_MTEXT_DEFINED_HEIGHT_END
  0
TEXT
  5
6EF
330
70
100
AcDbEntity
  8
Text
 62
     7
100
AcDbText
 10
150.0549199131851
 20
211.6874518616544
 30
0.0
 40
16.0
  1
要　　　　目
100
AcDbText
1001
ACAD
1000
ACAD_MTEXT_DEFINED_HEIGHT_BEGIN
1070
    46
1040
0.0
1000
ACAD_MTEXT_DEFINED_HEIGHT_END
  0
TEXT
  5
6F0
330
70
100
AcDbEntity
  8
Text
 62
     7
100
AcDbText
 10
299.2544695082089
 20
149.4244228616544
 30
0.0
 40
16.0
  1
MPa
100
AcDbText
  0
TEXT
  5
6F1
330
70
100
AcDbEntity
  8
Text
 62
     7
100
AcDbText
 10
299.2544695082089
 20
177.4244228616548
 30
0.0
 40
16.0
  1
MPa
100
AcDbText
  0
TEXT
  5
6F2
330
70
100
AcDbEntity
  8
Text
 62
     7
100
AcDbText
 10
299.2544695082084
 20
93.42442286165479
 30
0.0
 40
16.0
  1
kg
100
AcDbText
1001
ACAD
1000
ACAD_MTEXT_DEFINED_HEIGHT_BEGIN
1070
    46
1040
0.0
1000
ACAD_MTEXT_DEFINED_HEIGHT_END
  0
TEXT
  5
6F3
330
70
100
AcDbEntity
  8
Text
 62
     7
100
AcDbText
 10
299.2544695082084
 20
121.4244228616549
 30
0.0
 40
16.0
  1

100
AcDbText
1001
ACAD
1000
ACAD_MTEXT_DEFINED_HEIGHT_BEGIN
1070
    46
1040
0.0
1000
ACAD_MTEXT_DEFINED_HEIGHT_END
  0
TEXT
  5
6F4
330
70
100
AcDbEntity
  8
Text
 62
     7
100
AcDbText
 10
196.591299815722
 20
177.4244228616548
 30
0.0
 40
16.0
  1
  1.74
100
AcDbText
1001
ACAD
1000
ACAD_MTEXT_DEFINED_HEIGHT_BEGIN
1070
    46
1040
0.0
1000
ACAD_MTEXT_DEFINED_HEIGHT_END
  0
TEXT
  5
6F5
330
70
100
AcDbEntity
  8
Text
 62
     7
100
AcDbText
 10
196.591299815722
 20
149.4244228616544
 30
0.0
 40
16.0
  1
  2.9
100
AcDbText
1001
ACAD
1000
ACAD_MTEXT_DEFINED_HEIGHT_BEGIN
1070
    46
1040
3.999999999999992
1000
ACAD_MTEXT_DEFINED_HEIGHT_END
  0
TEXT
  5
6F6
330
70
100
AcDbEntity
  8
Text
 62
     7
100
AcDbText
 10
196.5912998157215
 20
121.4244228616549
 30
0.0
 40
16.0
  1
 47
100
AcDbText
1001
ACAD
1000
ACAD_MTEXT_DEFINED_HEIGHT_BEGIN
1070
    46
1040
0.0
1000
ACAD_MTEXT_DEFINED_HEIGHT_END
  0
TEXT
  5
6F7
330
70
100
AcDbEntity
  8
Text
 62
     7
100
AcDbText
 10
177.1262550361629
 20
93.42442286165468
 30
0.0
 40
16.0
  1
約 19
100
AcDbText
1001
ACAD
1000
ACAD_MTEXT_DEFINED_HEIGHT_BEGIN
1070
    46
1040
0.0
1000
ACAD_MTEXT_DEFINED_HEIGHT_END
  0
TEXT
  5
6F8
330
70
100
AcDbEntity
  8
Text
 62
     7
100
AcDbText
 10
255.9551986382054
 20
130.8587824251524
 30
0.0
 40
12.0
  1
+1
100
AcDbText
1001
ACAD
1000
ACAD_MTEXT_DEFINED_HEIGHT_BEGIN
1070
    46
1040
0.0
1000
ACAD_MTEXT_DEFINED_HEIGHT_END
  0
TEXT
  5
6F9
330
70
100
AcDbEntity
  8
Text
 62
     7
100
AcDbText
 10
255.9551986382054
 20
117.3518029599357
 30
0.0
 40
12.0
  1
-0
100
AcDbText
1001
ACAD
1000
ACAD_MTEXT_DEFINED_HEIGHT_BEGIN
1070
    46
1040
0.0
1000
ACAD_MTEXT_DEFINED_HEIGHT_END
  0
TEXT
  5
6FA
330
70
100
AcDbEntity
  8
Text
 62
     7
100
AcDbText
 10
174.9892923106283
 20
65.73230854944998
 30
0.0
 40
16.0
  1
ＬＰガス
100
AcDbText
1001
ACAD
1000
ACAD_MTEXT_DEFINED_HEIGHT_BEGIN
1070
    46
1040
4.000000000000028
1000
ACAD_MTEXT_DEFINED_HEIGHT_END
  0
TEXT
  5
6FB
330
70
100
AcDbEntity
  8
Text
 62
     7
100
AcDbText
 10
38.73360891318487
 20
37.4244228616549
 30
0.0
 40
16.0
  1
総質量
100
AcDbText
1001
ACAD
1000
ACAD_MTEXT_DEFINED_HEIGHT_BEGIN
1070
    46
1040
0.0
1000
ACAD_MTEXT_DEFINED_HEIGHT_END
  0
TEXT
  5
6FC
330
70
100
AcDbEntity
  8
Text
 62
     7
100
AcDbText
 10
299.2544695082084
 20
37.42442286165479
 30
0.0
 40
16.0
  1
kg
100
AcDbText
1001
ACAD
1000
ACAD_MTEXT_DEFINED_HEIGHT_BEGIN
1070
    46
1040
0.0
1000
ACAD_MTEXT_DEFINED_HEIGHT_END
  0
TEXT
  5
6FD
330
70
100
AcDbEntity
  8
Text
 62
     7
100
AcDbText
 10
177.1262550361629
 20
37.42442286165468
 30
0.0
 40
16.0
  1
約 21.9
100
AcDbText
1001
ACAD
1000
ACAD_MTEXT_DEFINED_HEIGHT_BEGIN
1070
    46
1040
0.0
1000
ACAD_MTEXT_DEFINED_HEIGHT_END
  0
LINE
  5
6FE
330
70
100
AcDbEntity
  8
Size
370
     9
100
AcDbLine
 10
252.5324441477479
 20
551.0761488899238
 30
0.0
 11
252.5324441477479
 21
399.8725987860897
 31
0.0
  0
LINE
  5
6FF
330
70
100
AcDbEntity
  8
Size
370
     9
100
AcDbLine
 10
302.532443954219
 20
439.2879464049276
 30
0.0
 11
302.532443954219
 21
399.8725987860897
 31
0.0
  0
LINE
  5
700
330
70
100
AcDbEntity
  8
Size
370
     9
100
AcDbLine
 10
252.5364441477479
 20
404.8725987860897
 30
0.0
 11
302.528443954219
 21
404.8725987860897
 31
0.0
  0
INSERT
  5
701
330
70
100
AcDbEntity
  8
Size
370
     9
100
AcDbBlockReference
  2
30a
 10
252.5324441477479
 20
404.8725987860897
 30
0.0
 41
0.004
 42
0.004
 43
0.004
 50
180.0
  0
INSERT
  5
702
330
70
100
AcDbEntity
  8
Size
370
     9
100
AcDbBlockReference
  2
30a
 10
302.532443954219
 20
404.8725987860897
 30
0.0
 41
0.004
 42
0.004
 43
0.004
  0
MTEXT
  5
703
330
70
100
AcDbEntity
  8
Size
100
AcDbMText
 10
277.5324440509835
 20
415.3725987860897
 30
0.0
 40
16.0
 41
0.0
 71
     5
 72
     1
  1
50
 73
     1
 44
1.0
  0
LINE
  5
704
330
70
100
AcDbEntity
  8
Size
370
     9
100
AcDbLine
 10
302.532443954219
 20
439.2879464049277
 30
0.0
 11
302.532443954219
 21
399.8725987860898
 31
0.0
  0
LINE
  5
705
330
70
100
AcDbEntity
  8
Size
370
     9
100
AcDbLine
 10
344.9324437901065
 20
543.1549141235435
 30
0.0
 11
344.9324437901065
 21
399.8725987860898
 31
0.0
  0
LINE
  5
706
330
70
100
AcDbEntity
  8
Size
370
     9
100
AcDbLine
 10
302.5364439542191
 20
404.8725987860898
 30
0.0
 11
344.9284437901064
 21
404.8725987860898
 31
0.0
  0
INSERT
  5
707
330
70
100
AcDbEntity
  8
Size
370
     9
100
AcDbBlockReference
  2
30a
 10
302.532443954219
 20
404.8725987860898
 30
0.0
 41
0.004
 42
0.004
 43
0.004
 50
180.0
  0
INSERT
  5
708
330
70
100
AcDbEntity
  8
Size
370
     9
100
AcDbBlockReference
  2
30a
 10
344.9324437901065
 20
404.8725987860898
 30
0.0
 41
0.004
 42
0.004
 43
0.004
  0
MTEXT
  5
709
330
70
100
AcDbEntity
  8
Size
100
AcDbMText
 10
323.7324438721628
 20
415.3725987860898
 30
0.0
 40
16.0
 41
0.0
 71
     5
 72
     1
  1
42.4
 73
     1
 44
1.0
  0
LINE
  5
70A
330
70
100
AcDbEntity
  8
Size
370
     9
100
AcDbLine
 10
217.4094934544176
 20
582.2237667568813
 30
0.0
 11
97.60093879367016
 21
582.2237667568813
 31
0.0
  0
LINE
  5
70B
330
70
100
AcDbEntity
  8
Size
370
     9
100
AcDbLine
 10
111.179985668787
 20
624.6237665927687
 30
0.0
 11
97.60093879367014
 21
624.6237665927687
 31
0.0
  0
LINE
  5
70C
330
70
100
AcDbEntity
  8
Size
370
     9
100
AcDbLine
 10
102.6009387936701
 20
582.2277667568813
 30
0.0
 11
102.6009387936701
 21
624.6197665927686
 31
0.0
  0
INSERT
  5
70D
330
70
100
AcDbEntity
  8
Size
370
     9
100
AcDbBlockReference
  2
30a
 10
102.6009387936701
 20
582.2237667568813
 30
0.0
 41
0.004
 42
0.004
 43
0.004
 50
270.0
  0
INSERT
  5
70E
330
70
100
AcDbEntity
  8
Size
370
     9
100
AcDbBlockReference
  2
30a
 10
102.6009387936701
 20
624.6237665927687
 30
0.0
 41
0.004
 42
0.004
 43
0.004
 50
90.0
  0
MTEXT
  5
70F
330
70
100
AcDbEntity
  8
Size
100
AcDbMText
 10
92.10093879367029
 20
603.4237666748249
 30
0.0
 40
16.0
 41
0.0
 71
     5
 72
     1
  1
42.4
 11
0.0000000000000001
 21
1.0
 31
0.0
 73
     1
 44
1.0
  0
LINE
  5
710
330
70
100
AcDbEntity
  8
Size
370
     9
100
AcDbLine
 10
268.7297681095578
 20
574.3630600477286
 30
0.0
 11
268.7333667152065
 21
574.3613136121053
 31
0.0
  0
LINE
  5
711
330
70
100
AcDbEntity
  8
Size
370
     9
100
AcDbLine
 10
236.3351201859374
 20
590.084473466054
 30
0.0
 11
199.2011507707745
 21
608.1059221453451
 31
0.0
  0
LINE
  5
712
330
70
100
AcDbEntity
  8
Size
370
     9
100
AcDbLine
 10
268.7261695039092
 20
574.3648064833516
 30
0.0
 11
236.338718791586
 21
590.082727030431
 31
0.0
  0
INSERT
  5
713
330
70
100
AcDbEntity
  8
Size
370
     9
100
AcDbBlockReference
  2
30a
 10
268.7261695039092
 20
574.3648064833516
 30
0.0
 41
0.004
 42
0.004
 43
0.004
 50
154.1122846842813
  0
INSERT
  5
714
330
70
100
AcDbEntity
  8
Size
370
     9
100
AcDbBlockReference
  2
30a
 10
236.338718791586
 20
590.082727030431
 30
0.0
 41
0.004
 42
0.004
 43
0.004
 50
334.1122846842813
  0
MTEXT
  5
715
330
70
100
AcDbEntity
  8
Size
100
AcDbMText
 10
218.0300249739157
 20
610.6392876315576
 30
0.0
 40
16.0
 41
0.0
 71
     5
 72
     1
  1
φ36
 11
0.8996514121578153
 21
-0.436608905775465
 31
0.0
 73
     1
 44
1.0
  0
LINE
  5
716
330
70
100
AcDbEntity
  8
Size
370
     9
100
AcDbLine
 10
323.6090297005188
 20
573.5926588634409
 30
0.0
 11
323.6053219254933
 21
573.5911580622016
 31
0.0
  0
LINE
  5
717
330
70
100
AcDbEntity
  8
Size
370
     9
100
AcDbLine
 10
366.2558578796935
 20
590.8548746503212
 30
0.0
 11
404.5114446686134
 21
606.3396415696705
 31
0.0
  0
LINE
  5
718
330
70
100
AcDbEntity
  8
Size
370
     9
100
AcDbLine
 10
323.6127374755445
 20
573.5941596646802
 30
0.0
 11
366.2521501046679
 21
590.8533738490819
 31
0.0
  0
INSERT
  5
719
330
70
100
AcDbEntity
  8
Size
370
     9
100
AcDbBlockReference
  2
30a
 10
323.6127374755445
 20
573.5941596646802
 30
0.0
 41
0.004
 42
0.004
 43
0.004
 50
22.03669374446139
  0
INSERT
  5
71A
330
70
100
AcDbEntity
  8
Size
370
     9
100
AcDbBlockReference
  2
30a
 10
366.2521501046679
 20
590.8533738490819
 30
0.0
 41
0.004
 42
0.004
 43
0.004
 50
202.0366937444613
  0
MTEXT
  5
71B
330
70
100
AcDbEntity
  8
Size
100
AcDbMText
 10
385.8952319393693
 20
610.1318794398438
 30
0.0
 40
16.0
 41
0.0
 71
     5
 72
     1
  1
φ46
 11
0.9269437563948409
 21
0.3752003098088029
 31
0.0
 73
     1
 44
1.0
  0
LINE
  5
71C
330
70
100
AcDbEntity
  8
Size
370
     9
100
AcDbLine
 10
738.7970165019934
 20
653.1237664824573
 30
0.0
 11
608.0521963565753
 21
653.1237664824573
 31
0.0
  0
LINE
  5
71D
330
70
100
AcDbEntity
  8
Size
370
     9
100
AcDbLine
 10
613.0521963565753
 20
624.6277665927688
 30
0.0
 11
613.0521963565753
 21
653.1197664824572
 31
0.0
  0
INSERT
  5
71E
330
70
100
AcDbEntity
  8
Size
370
     9
100
AcDbBlockReference
  2
30a
 10
613.0521963565753
 20
624.6237665927687
 30
0.0
 41
0.004
 42
0.004
 43
0.004
 50
90.0
  0
LINE
  5
71F
330
70
100
AcDbEntity
  8
Size
370
     9
100
AcDbLine
 10
613.0521963565753
 20
624.6197665927687
 30
0.0
 11
613.0521963565753
 21
624.6157665927687
 31
0.0
  0
LINE
  5
720
330
70
100
AcDbEntity
  8
Size
370
     9
100
AcDbLine
 10
613.0521963565753
 20
624.6237665927687
 30
0.0
 11
613.0521963565753
 21
624.6277665927688
 31
0.0
  0
INSERT
  5
721
330
70
100
AcDbEntity
  8
Size
370
     9
100
AcDbBlockReference
  2
30a
 10
613.0521963565753
 20
653.1237664824573
 30
0.0
 41
0.004
 42
0.004
 43
0.004
 50
270.0
  0
LINE
  5
722
330
70
100
AcDbEntity
  8
Size
370
     9
100
AcDbLine
 10
613.0521963565753
 20
653.1277664824573
 30
0.0
 11
613.0521963565753
 21
653.1317664824573
 31
0.0
  0
LINE
  5
723
330
70
100
AcDbEntity
  8
Size
370
     9
100
AcDbLine
 10
613.0521963565753
 20
653.1237664824573
 30
0.0
 11
613.0521963565753
 21
653.1197664824572
 31
0.0
  0
MTEXT
  5
724
330
70
100
AcDbEntity
  8
Size
100
AcDbMText
 10
602.5521963565753
 20
646.2552625593474
 30
0.0
 40
16.0
 41
0.0
 71
     5
 72
     1
  1
28.5
 11
0.0000000000000001
 21
1.0
 31
0.0
 73
     1
 44
1.0
  0
LINE
  5
725
330
70
100
AcDbEntity
  8
Size
370
     9
100
AcDbLine
 10
706.7454898264858
 20
619.9354969199104
 30
0.0
 11
662.8883941791546
 21
631.6869702810081
 31
0.0
  0
LINE
  5
726
330
70
100
AcDbEntity
  8
Size
370
     9
100
AcDbLine
 10
727.9686514427797
 20
699.1414143690239
 30
0.0
 11
684.1115557954485
 21
710.8928877301216
 31
0.0
  0
LINE
  5
727
330
70
100
AcDbEntity
  8
Size
370
     9
100
AcDbLine
 10
667.7190585867798
 20
630.3967387587984
 30
0.0
 11
688.9401496507129
 21
709.5949288013017
 31
0.0
  0
INSERT
  5
728
330
70
100
AcDbEntity
  8
Size
370
     9
100
AcDbBlockReference
  2
30a
 10
667.7180233105993
 20
630.3928750554933
 30
0.0
 41
0.004
 42
0.004
 43
0.004
 50
254.9999999999746
  0
INSERT
  5
729
330
70
100
AcDbEntity
  8
Size
370
     9
100
AcDbBlockReference
  2
30a
 10
688.9411849268933
 20
709.5987925046069
 30
0.0
 41
0.004
 42
0.004
 43
0.004
 50
74.99999999997455
  0
MTEXT
  5
72A
330
70
100
AcDbEntity
  8
Size
100
AcDbMText
 10
672.2265338937298
 20
687.7877503222423
 30
0.0
 40
16.0
 41
0.0
 71
     5
 72
     1
  1
φ82
 11
0.2588190451029499
 21
0.9659258262889533
 31
0.0
 73
     1
 44
1.0
  0
LINE
  5
72B
330
70
100
AcDbEntity
  8
Size
370
     9
100
AcDbLine
 10
1436.50872799742
 20
479.4076950250898
 30
0.0
 11
1501.27743835363
 21
479.4076950250898
 31
0.0
  0
LINE
  5
72C
330
70
100
AcDbEntity
  8
Size
370
     9
100
AcDbLine
 10
1436.50872799742
 20
769.4076939026226
 30
0.0
 11
1501.27743835363
 21
769.4076939026226
 31
0.0
  0
LINE
  5
72D
330
70
100
AcDbEntity
  8
Size
370
     9
100
AcDbLine
 10
1496.27743835363
 20
479.4116950250899
 30
0.0
 11
1496.27743835363
 21
769.4036939026227
 31
0.0
  0
INSERT
  5
72E
330
70
100
AcDbEntity
  8
Size
370
     9
100
AcDbBlockReference
  2
30a
 10
1496.27743835363
 20
479.4076950250898
 30
0.0
 41
0.004
 42
0.004
 43
0.004
 50
270.0
  0
INSERT
  5
72F
330
70
100
AcDbEntity
  8
Size
370
     9
100
AcDbBlockReference
  2
30a
 10
1496.27743835363
 20
769.4076939026226
 30
0.0
 41
0.004
 42
0.004
 43
0.004
 50
90.0
  0
MTEXT
  5
730
330
70
100
AcDbEntity
  8
Size
100
AcDbMText
 10
1485.77743835363
 20
624.4076944638556
 30
0.0
 40
16.0
 41
0.0
 71
     5
 72
     1
  1
φ290
 11
0.0000000000000001
 21
1.0
 31
0.0
 73
     1
 44
1.0
  0
LINE
  5
731
330
70
100
AcDbEntity
  8
Size
370
     9
100
AcDbLine
 10
1167.235894626148
 20
464.6277672120607
 30
0.0
 11
1167.235894626148
 21
784.6197659734765
 31
0.0
  0
INSERT
  5
732
330
70
100
AcDbEntity
  8
Size
370
     9
100
AcDbBlockReference
  2
30a
 10
1167.235894626148
 20
464.6237672120607
 30
0.0
 41
0.004
 42
0.004
 43
0.004
 50
270.0
  0
INSERT
  5
733
330
70
100
AcDbEntity
  8
Size
370
     9
100
AcDbBlockReference
  2
30a
 10
1167.235894626148
 20
784.6237659734765
 30
0.0
 41
0.004
 42
0.004
 43
0.004
 50
90.0
  0
MTEXT
  5
734
330
70
100
AcDbEntity
  8
Size
100
AcDbMText
 10
1156.735894626148
 20
568.3595436160041
 30
0.0
 40
16.0
 41
0.0
 71
     5
 72
     1
  1
φ320
 11
0.0000000000000001
 21
1.0
 31
0.0
 73
     1
 44
1.0
  0
LINE
  5
735
330
70
100
AcDbEntity
  8
Size
370
     9
100
AcDbLine
 10
739.8799105187918
 20
627.1237665927685
 30
0.0
 11
739.8799105187918
 21
836.1811426566646
 31
0.0
  0
LINE
  5
736
330
70
100
AcDbEntity
  8
Size
370
     9
100
AcDbLine
 10
1445.008727954843
 20
760.9076939451983
 30
0.0
 11
1445.008727954843
 21
836.1811426566646
 31
0.0
  0
LINE
  5
737
330
70
100
AcDbEntity
  8
Size
370
     9
100
AcDbLine
 10
739.8839105187918
 20
831.1811426566645
 30
0.0
 11
1445.004727954843
 21
831.1811426566645
 31
0.0
  0
INSERT
  5
738
330
70
100
AcDbEntity
  8
Size
370
     9
100
AcDbBlockReference
  2
30a
 10
739.8799105187918
 20
831.1811426566645
 30
0.0
 41
0.004
 42
0.004
 43
0.004
 50
180.0
  0
INSERT
  5
739
330
70
100
AcDbEntity
  8
Size
370
     9
100
AcDbBlockReference
  2
30a
 10
1445.008727954843
 20
831.1811426566645
 30
0.0
 41
0.004
 42
0.004
 43
0.004
  0
MTEXT
  5
73A
330
70
100
AcDbEntity
  8
Size
100
AcDbMText
 10
1092.444319236817
 20
841.6811426566646
 30
0.0
 40
16.0
 41
0.0
 71
     5
 72
     1
  1
705
 73
     1
 44
1.0
  0
LINE
  5
73B
330
70
100
AcDbEntity
  8
Size
370
     9
100
AcDbLine
 10
639.4475156026961
 20
743.4737661424269
 30
0.0
 11
639.4475156026961
 21
860.1811425637706
 31
0.0
  0
LINE
  5
73C
330
70
100
AcDbEntity
  8
Size
370
     9
100
AcDbLine
 10
1445.008727954844
 20
760.9076939451983
 30
0.0
 11
1445.008727954844
 21
860.1811425637706
 31
0.0
  0
LINE
  5
73D
330
70
100
AcDbEntity
  8
Size
370
     9
100
AcDbLine
 10
639.4515156026962
 20
855.1811425637705
 30
0.0
 11
1445.004727954844
 21
855.1811425637705
 31
0.0
  0
INSERT
  5
73E
330
70
100
AcDbEntity
  8
Size
370
     9
100
AcDbBlockReference
  2
30a
 10
639.4475156026961
 20
855.1811425637705
 30
0.0
 41
0.004
 42
0.004
 43
0.004
 50
180.0
  0
INSERT
  5
73F
330
70
100
AcDbEntity
  8
Size
370
     9
100
AcDbBlockReference
  2
30a
 10
1445.008727954844
 20
855.1811425637705
 30
0.0
 41
0.004
 42
0.004
 43
0.004
  0
MTEXT
  5
740
330
70
100
AcDbEntity
  8
Size
100
AcDbMText
 10
1042.22812177877
 20
865.6811425637705
 30
0.0
 40
16.0
 41
0.0
 71
     5
 72
     1
  1
約806
 73
     1
 44
1.0
  0
TEXT
  5
741
330
70
100
AcDbEntity
  8
Text
 62
     2
100
AcDbText
 10
1248.400275579851
 20
49.42442286165496
 30
0.0
 40
16.0
  1
２０ｋｇ型 ＬＰガス容器
100
AcDbText
1001
ACAD
1000
ACAD_MTEXT_DEFINED_HEIGHT_BEGIN
1070
    46
1040
8.0
1000
ACAD_MTEXT_DEFINED_HEIGHT_END
  0
LINE
  5
742
330
70
100
AcDbEntity
  8
Size
370
     9
100
AcDbLine
 10
645.5975155692158
 20
499.6237670765908
 30
0.0
 11
582.8202024323617
 21
499.6237670765908
 31
0.0
  0
LINE
  5
743
330
70
100
AcDbEntity
  8
Size
370
     9
100
AcDbLine
 10
645.5975155692162
 20
749.6237661089467
 30
0.0
 11
582.8202024323617
 21
749.6237661089467
 31
0.0
  0
LINE
  5
744
330
70
100
AcDbEntity
  8
Size
370
     9
100
AcDbLine
 10
587.8202024323617
 20
499.6277670765908
 30
0.0
 11
587.8202024323617
 21
749.6197661089467
 31
0.0
  0
INSERT
  5
745
330
70
100
AcDbEntity
  8
Size
370
     9
100
AcDbBlockReference
  2
30a
 10
587.8202024323617
 20
499.6237670765908
 30
0.0
 41
0.004
 42
0.004
 43
0.004
 50
270.0
  0
INSERT
  5
746
330
70
100
AcDbEntity
  8
Size
370
     9
100
AcDbBlockReference
  2
30a
 10
587.8202024323617
 20
749.6237661089467
 30
0.0
 41
0.004
 42
0.004
 43
0.004
 50
90.0
  0
MTEXT
  5
747
330
70
100
AcDbEntity
  8
Size
100
AcDbMText
 10
577.3202024323617
 20
621.796240748014
 30
0.0
 40
16.0
 41
0.0
 71
     5
 72
     1
  1
φ250
 11
0.0000000000000001
 21
1.0
 31
0.0
 73
     1
 44
1.0
  0
TEXT
  5
748
330
70
100
AcDbEntity
  8
Text
 62
     2
100
AcDbText
 10
1253.200275579851
 20
17.42442286165496
 30
0.0
 40
16.0
  1
(構内フォークリフト用)
100
AcDbText
1001
ACAD
1000
ACAD_MTEXT_DEFINED_HEIGHT_BEGIN
1070
    46
1040
8.0
1000
ACAD_MTEXT_DEFINED_HEIGHT_END
  0
INSERT
  5
749
330
70
100
AcDbEntity
  8
Size
100
AcDbBlockReference
  2
30a
 10
361.195899694448
 20
565.9603108525394
 30
0.0
 41
0.000969230687411
 42
0.000969230687411
 43
0.000969230687411
 50
120.7625133347364
1001
ACAD
1000
DSTYLE
1002
{
1070
    40
1040
0.9692306874110137
1070
   147
1040
0.625
1070
    77
1070
     1
1070
   345
1005
5C
1070
   346
1005
5C
1070
   347
1005
5C
1002
}
  0
LWPOLYLINE
  5
74A
330
70
100
AcDbEntity
  8
Size
100
AcDbPolyline
 90
        3
 70
     0
 43
0.0
 10
361.1963954373036
 20
565.9594779977222
 10
430.2891843730383
 20
449.8826421199589
 10
522.6806996862446
 20
449.8826421199589
1001
ACAD
1000
DSTYLE
1002
{
1070
    40
1040
0.9692306874110137
1070
   147
1040
0.625
1070
    77
1070
     1
1070
   345
1005
5C
1070
   346
1005
5C
1070
   347
1005
5C
1002
}
  0
TEXT
  5
74B
330
70
100
AcDbEntity
  8
Size
100
AcDbText
 10
430.8959227833575
 20
450.4884112995908
 30
0.0
 40
16.0
  1
充填バルブ
100
AcDbText
  0
INSERT
  5
74C
330
70
100
AcDbEntity
  8
Size
100
AcDbBlockReference
  2
30a
 10
241.448577107023
 20
568.0411051972472
 30
0.0
 41
0.000969230687411
 42
0.000969230687411
 43
0.000969230687411
 50
60.73579538372815
1001
ACAD
1000
DSTYLE
1002
{
1070
    40
1040
0.9692306874110137
1070
   147
1040
0.625
1070
    77
1070
     1
1070
   345
1005
5C
1070
   346
1005
5C
1070
   347
1005
5C
1002
}
  0
LWPOLYLINE
  5
74D
330
70
100
AcDbEntity
  8
Size
100
AcDbPolyline
 90
        3
 70
     0
 43
0.0
 10
241.4481033106845
 20
568.0402596647788
 10
174.5201220483064
 20
448.6012167619002
 10
62.92860673509998
 20
448.6012167619002
1001
ACAD
1000
DSTYLE
1002
{
1070
    40
1040
0.9692306874110137
1070
   147
1040
0.625
1070
    77
1070
     1
1070
   345
1005
5C
1070
   346
1005
5C
1070
   347
1005
5C
1002
}
  0
TEXT
  5
74E
330
70
100
AcDbEntity
  8
Size
100
AcDbText
 10
62.92860673509996
 20
449.2069859415321
 30
0.0
 40
16.0
  1
液取出バルブ
100
AcDbText
  0
INSERT
  5
74F
330
70
100
AcDbEntity
  8
Size
100
AcDbBlockReference
  2
30a
 10
275.6177500021653
 20
689.8203465271381
 30
0.0
 41
0.000969230687411
 42
0.000969230687411
 43
0.000969230687411
 50
296.7302473800479
1001
ACAD
1000
DSTYLE
1002
{
1070
    40
1040
0.9692306874110137
1070
   147
1040
0.625
1070
    77
1070
     1
1070
   345
1005
5C
1070
   346
1005
5C
1070
   347
1005
5C
1002
}
  0
LWPOLYLINE
  5
750
330
70
100
AcDbEntity
  8
Size
100
AcDbPolyline
 90
        3
 70
     0
 43
0.0
 10
275.6173140513503
 20
689.821212180078
 10
217.5979502074929
 20
805.0283207706826
 10
67.65787846384032
 20
805.0283207706826
1001
ACAD
1000
DSTYLE
1002
{
1070
    40
1040
0.9692306874110137
1070
   147
1040
0.625
1070
    77
1070
     1
1070
   345
1005
5C
1070
   346
1005
5C
1070
   347
1005
5C
1002
}
  0
TEXT
  5
751
330
70
100
AcDbEntity
  8
Size
100
AcDbText
 10
67.65787846384032
 20
805.6340899503146
 30
0.0
 40
16.0
  1
フロート式液面計
100
AcDbText
  0
TEXT
  5
752
330
70
100
AcDbEntity
  8
Text
 62
     2
100
AcDbText
 10
1248.400275579851
 20
49.42442286165496
 30
0.0
 40
16.0
  1
２０ｋｇ型 ＬＰガス容器
100
AcDbText
1001
ACAD
1000
ACAD_MTEXT_DEFINED_HEIGHT_BEGIN
1070
    46
1040
8.0
1000
ACAD_MTEXT_DEFINED_HEIGHT_END
  0
TEXT
  5
753
330
70
100
AcDbEntity
  8
Text
 62
     2
100
AcDbText
 10
1253.200275579851
 20
17.42442286165496
 30
0.0
 40
16.0
  1
(構内フォークリフト用)
100
AcDbText
1001
ACAD
1000
ACAD_MTEXT_DEFINED_HEIGHT_BEGIN
1070
    46
1040
8.0
1000
ACAD_MTEXT_DEFINED_HEIGHT_END
  0
VIEWPORT
  5
6DC
102
{ACAD_XDICTIONARY
360
6DD
102
}
330
6C
100
AcDbEntity
 67
     1
  8
0
100
AcDbViewport
 10
148.5
 20
105.0
 30
0.0
 40
361.8936435868331
 41
222.18
 68
     1
 69
     1
 12
148.5
 22
105.0
 13
0.0
 23
0.0
 14
10.0
 24
10.0
 15
10.0
 25
10.0
 16
0.0
 26
0.0
 36
1.0
 17
0.0
 27
0.0
 37
0.0
 42
50.0
 43
0.0
 44
0.0
 45
222.18
 50
0.0
 51
0.0
 72
  1000
 90
   819232
  1

281
     0
 71
     1
 74
     0
110
0.0
120
0.0
130
0.0
111
1.0
121
0.0
131
0.0
112
0.0
122
1.0
132
0.0
 79
     0
146
0.0
170
     0
  0
ENDSEC
  0
SECTION
  2
OBJECTS
  0
DICTIONARY
  5
C
330
0
100
AcDbDictionary
281
     1
  3
ACAD_2007HEADERVARS_RT
350
75C
  3
ACAD_CIP_PREVIOUS_PRODUCT_INFO
350
581
  3
ACAD_COLOR
350
63
  3
ACAD_DETAILVIEWSTYLE
350
6A
  3
ACAD_GROUP
350
D
  3
ACAD_LAST_SAVED_VERSION_INFO
350
56D
  3
ACAD_LAYOUT
350
62
  3
ACAD_MATERIAL
350
10
  3
ACAD_MLEADERSTYLE
350
66
  3
ACAD_MLINESTYLE
350
5F
  3
ACAD_PLOTSETTINGS
350
61
  3
ACAD_PLOTSTYLENAME
350
E
  3
ACAD_SCALELIST
350
42
  3
ACAD_SECTIONVIEWSTYLE
350
68
  3
ACAD_TABLESTYLE
350
64
  3
ACAD_VISUALSTYLE
350
29
  3
ACDB_RECOMPOSE_DATA
350
75B
  3
AcDbVariableDictionary
350
56E
  3
AcDsDecomposeData
350
768
  0
DICTIONARY
  5
6C9
330
2
100
AcDbDictionary
280
     1
281
     1
  3
ACAD_LAYERSTATES
360
6CA
  0
DICTIONARY
  5
757
330
54
100
AcDbDictionary
280
     1
281
     1
  3
ADSK_XREC_LAYER_RECONCILED
360
758
  0
DICTIONARY
  5
96
330
95
100
AcDbDictionary
280
     1
281
     1
  3
ADSK_XREC_LAYER_RECONCILED
360
97
  0
DICTIONARY
  5
9D
330
9C
100
AcDbDictionary
280
     1
281
     1
  3
ADSK_XREC_LAYER_RECONCILED
360
9E
  0
DICTIONARY
  5
CC
330
CB
100
AcDbDictionary
280
     1
281
     1
  3
ADSK_XREC_LAYER_RECONCILED
360
CD
  0
DICTIONARY
  5
DB
330
DA
100
AcDbDictionary
280
     1
281
     1
  3
ADSK_XREC_LAYER_RECONCILED
360
DC
  0
DICTIONARY
  5
23E
330
23D
100
AcDbDictionary
280
     1
281
     1
  3
ADSK_XREC_LAYER_RECONCILED
360
23F
  0
DICTIONARY
  5
256
330
255
100
AcDbDictionary
280
     1
281
     1
  3
ADSK_XREC_LAYER_RECONCILED
360
257
  0
DICTIONARY
  5
213
330
70
100
AcDbDictionary
280
     1
281
     1
  3
ACAD_SORTENTS
360
501
  0
DICTIONARY
  5
80
330
7F
100
AcDbDictionary
280
     1
281
     1
  3
ACAD_SORTENTS
360
500
  0
DICTIONARY
  5
7B2
330
6C3
100
AcDbDictionary
280
     1
281
     1
  3
ACAD_MTEXT_2008_RT
360
7B3
  0
DICTIONARY
  5
7B0
330
6BB
100
AcDbDictionary
280
     1
281
     1
  3
ACAD_MTEXT_2008_RT
360
7B1
  0
DICTIONARY
  5
6DD
330
6DC
100
AcDbDictionary
280
     1
281
     1
  3
ASDK_XREC_ANNOTATION_SCALE_INFO
360
6DE
  0
DICTIONARY
  5
75C
102
{ACAD_REACTORS
330
C
102
}
330
C
100
AcDbDictionary
281
     1
  3
DIMARCSYM
350
75E
  3
DIMFXL
350
75D
  3
DIMJOGANG
350
75F
  3
DIMLTEX1
350
761
  3
DIMLTEX2
350
762
  3
DIMLTYPE
350
760
  0
XRECORD
  5
581
102
{ACAD_REACTORS
330
C
102
}
330
C
100
AcDbXrecord
280
     1
300
ACD
300
2026
300

  0
DICTIONARY
  5
63
102
{ACAD_REACTORS
330
C
102
}
330
C
100
AcDbDictionary
281
     1
  0
DICTIONARY
  5
6A
102
{ACAD_REACTORS
330
C
102
}
330
C
100
AcDbDictionary
281
     1
  3
Imperial24
350
6B
  3
Metric50
350
57B
  0
DICTIONARY
  5
D
102
{ACAD_REACTORS
330
C
102
}
330
C
100
AcDbDictionary
281
     1
  0
XRECORD
  5
56D
102
{ACAD_REACTORS
330
C
102
}
330
C
100
AcDbXrecord
280
     1
300
{79E9DC38-FAC3-5545-8E93-732938E896F0}
301
{42A4A2DE-818C-3649-9F08-09CC6C03EC4C}
302
{79E9DC38-FAC3-5545-8E93-732938E896F0}
303
C:\Users\CKK004820\Desktop\LP-47-5100-HP用_HP用.dxf
  0
DICTIONARY
  5
62
102
{ACAD_REACTORS
330
C
102
}
330
C
100
AcDbDictionary
281
     1
  3
Model
350
73
  3
レイアウト1
350
6F
  0
DICTIONARY
  5
10
102
{ACAD_REACTORS
330
C
102
}
330
C
100
AcDbDictionary
281
     1
  3
ByBlock
350
19
  3
ByLayer
350
11
  3
Global
350
21
  0
DICTIONARY
  5
66
102
{ACAD_REACTORS
330
C
102
}
330
C
100
AcDbDictionary
281
     1
  3
Standard
350
67
  0
DICTIONARY
  5
5F
102
{ACAD_REACTORS
330
C
102
}
330
C
100
AcDbDictionary
281
     1
  3
Standard
350
60
  0
DICTIONARY
  5
61
102
{ACAD_REACTORS
330
C
102
}
330
C
100
AcDbDictionary
281
     1
  0
ACDBDICTIONARYWDFLT
  5
E
102
{ACAD_REACTORS
330
C
102
}
330
C
100
AcDbDictionary
281
     1
  3
Normal
350
F
  3
Style_1
350
83
100
AcDbDictionaryWithDefault
340
F
  0
DICTIONARY
  5
42
102
{ACAD_REACTORS
330
C
102
}
330
C
100
AcDbDictionary
281
     1
  3
A0
350
43
  3
A1
350
44
  3
A2
350
45
  3
A3
350
46
  3
A4
350
47
  3
A5
350
48
  3
A6
350
49
  3
A7
350
4A
  3
A8
350
4B
  3
A9
350
4C
  3
B0
350
4D
  3
B1
350
4E
  3
B2
350
4F
  3
B3
350
50
  3
B4
350
51
  3
B5
350
52
  3
B6
350
53
  0
DICTIONARY
  5
68
102
{ACAD_REACTORS
330
C
102
}
330
C
100
AcDbDictionary
281
     1
  3
Imperial24
350
69
  3
Metric50
350
57A
  0
DICTIONARY
  5
64
102
{ACAD_REACTORS
330
C
102
}
330
C
100
AcDbDictionary
281
     1
  3
Standard
350
65
  0
DICTIONARY
  5
29
102
{ACAD_REACTORS
330
C
102
}
330
C
100
AcDbDictionary
281
     1
  3
2dWireframe
350
2F
  3
Basic
350
2E
  3
Brighten
350
35
  3
ColorChange
350
39
  3
Conceptual
350
32
  3
Dim
350
34
  3
EdgeColorOff
350
41
  3
Facepattern
350
38
  3
Flat
350
2A
  3
FlatWithEdges
350
2B
  3
Gouraud
350
2C
  3
GouraudWithEdges
350
2D
  3
Hidden
350
31
  3
JitterOff
350
3F
  3
Linepattern
350
37
  3
OverhangOff
350
40
  3
Realistic
350
33
  3
Shaded
350
3E
  3
Shaded with edges
350
3D
  3
Shades of Gray
350
3A
  3
Sketchy
350
3B
  3
Thicken
350
36
  3
Wireframe
350
30
  3
X-Ray
350
3C
  0
XRECORD
  5
75B
102
{ACAD_REACTORS
330
C
102
}
330
C
100
AcDbXrecord
280
     1
 90
        1
330
65
  0
DICTIONARY
  5
56E
102
{ACAD_REACTORS
330
C
102
}
330
C
100
AcDbDictionary
281
     1
  3
ANNOALLVISIBLE
350
574
  3
CANNOSCALE
350
575
  3
CMLEADERSTYLE
350
570
  3
CTABLESTYLE
350
56F
  3
CVIEWDETAILSTYLE
350
571
  3
CVIEWSECTIONSTYLE
350
572
  3
LAYEREVAL
350
577
  3
LAYERNOTIFY
350
578
  3
LIGHTINGUNITS
350
576
  3
MSLTSCALE
350
573
  0
DICTIONARY
  5
768
102
{ACAD_REACTORS
330
C
102
}
330
C
100
AcDbDictionary
281
     1
  3
AcDsRecords
350
76A
  3
AcDsSchemas
350
769
1001
ACAD
1070
     2
  0
DICTIONARY
  5
6CA
102
{ACAD_REACTORS
330
6C9
102
}
330
6C9
100
AcDbDictionary
281
     1
  0
XRECORD
  5
758
102
{ACAD_REACTORS
330
757
102
}
330
757
100
AcDbXrecord
280
     1
290
     1
  0
XRECORD
  5
97
102
{ACAD_REACTORS
330
96
102
}
330
96
100
AcDbXrecord
280
     1
290
     1
  0
XRECORD
  5
9E
102
{ACAD_REACTORS
330
9D
102
}
330
9D
100
AcDbXrecord
280
     1
290
     1
  0
XRECORD
  5
CD
102
{ACAD_REACTORS
330
CC
102
}
330
CC
100
AcDbXrecord
280
     1
290
     1
  0
XRECORD
  5
DC
102
{ACAD_REACTORS
330
DB
102
}
330
DB
100
AcDbXrecord
280
     1
290
     1
  0
XRECORD
  5
23F
102
{ACAD_REACTORS
330
23E
102
}
330
23E
100
AcDbXrecord
280
     1
290
     1
  0
XRECORD
  5
257
102
{ACAD_REACTORS
330
256
102
}
330
256
100
AcDbXrecord
280
     1
290
     1
  0
SORTENTSTABLE
  5
501
102
{ACAD_REACTORS
330
213
102
}
330
213
100
AcDbSortentsTable
330
70
331
AB
  5
AC
331
AC
  5
AD
331
AD
  5
AE
331
AE
  5
AF
331
AF
  5
B0
331
B0
  5
B1
331
B1
  5
B2
331
B2
  5
B3
331
B3
  5
B4
331
B4
  5
B5
331
B5
  5
B6
331
B6
  5
B7
331
B7
  5
B8
331
B8
  5
B9
331
B9
  5
BA
331
BA
  5
BB
331
BB
  5
BC
331
BC
  5
BD
331
BD
  5
BE
331
BE
  5
BF
331
BF
  5
C0
331
C0
  5
C1
331
C1
  5
C2
331
C2
  5
C3
331
C3
  5
C4
331
C4
  5
C5
331
C5
  5
C6
331
C6
  5
C7
331
C7
  5
C8
331
C8
  5
C9
331
C9
  5
CA
331
CA
  5
CE
331
CE
  5
CF
331
CF
  5
D0
331
D0
  5
D1
331
D1
  5
D2
331
D2
  5
D3
331
D3
  5
D4
331
D4
  5
D5
331
D5
  5
D6
331
D8
  5
D9
331
D9
  5
DD
331
DD
  5
DE
331
DE
  5
DF
331
DF
  5
E0
331
E0
  5
E1
331
E1
  5
E2
331
E2
  5
E3
331
E3
  5
E4
331
E4
  5
E5
331
E5
  5
E6
331
E6
  5
E7
331
E7
  5
E8
331
E8
  5
E9
331
E9
  5
EA
331
EA
  5
EB
331
EB
  5
EC
331
EC
  5
ED
331
ED
  5
EE
331
EE
  5
EF
331
EF
  5
F0
331
F0
  5
F1
331
F1
  5
F2
331
F2
  5
F3
331
F3
  5
F4
331
F8
  5
F9
331
F9
  5
FA
331
FA
  5
FB
331
FB
  5
FC
331
FC
  5
FD
331
FD
  5
FE
331
FE
  5
FF
331
FF
  5
100
331
100
  5
101
331
101
  5
102
331
102
  5
103
331
103
  5
104
331
104
  5
105
331
105
  5
106
331
106
  5
107
331
107
  5
108
331
108
  5
109
331
109
  5
10A
331
10A
  5
10B
331
10B
  5
10C
331
10C
  5
10D
331
10D
  5
10E
331
10E
  5
10F
331
10F
  5
110
331
110
  5
111
331
111
  5
112
331
112
  5
113
331
113
  5
116
331
114
  5
117
331
115
  5
118
331
116
  5
119
331
117
  5
11A
331
118
  5
11B
331
119
  5
11C
331
11A
  5
11D
331
11B
  5
11E
331
11C
  5
11F
331
11D
  5
120
331
11E
  5
121
331
11F
  5
122
331
120
  5
123
331
121
  5
124
331
122
  5
125
331
123
  5
126
331
124
  5
127
331
125
  5
128
331
126
  5
129
331
127
  5
12A
331
128
  5
12B
331
129
  5
12C
331
12A
  5
12D
331
12B
  5
12E
331
12C
  5
12F
331
12D
  5
130
331
12E
  5
131
331
12F
  5
132
331
130
  5
133
331
131
  5
134
331
132
  5
135
331
133
  5
136
331
134
  5
137
331
135
  5
138
331
136
  5
139
331
137
  5
13A
331
138
  5
13B
331
139
  5
13C
331
13A
  5
13D
331
13B
  5
13E
331
13C
  5
13F
331
13D
  5
140
331
13E
  5
141
331
13F
  5
142
331
140
  5
143
331
141
  5
144
331
142
  5
145
331
143
  5
146
331
144
  5
147
331
145
  5
148
331
146
  5
149
331
147
  5
14A
331
148
  5
14B
331
149
  5
14C
331
14A
  5
14D
331
14B
  5
14E
331
14C
  5
14F
331
14D
  5
150
331
14E
  5
151
331
14F
  5
152
331
150
  5
153
331
151
  5
154
331
152
  5
155
331
153
  5
156
331
154
  5
157
331
155
  5
158
331
156
  5
159
331
157
  5
15A
331
158
  5
15B
331
159
  5
15C
331
15A
  5
15D
331
15B
  5
15E
331
15C
  5
15F
331
15D
  5
160
331
15E
  5
161
331
15F
  5
162
331
160
  5
163
331
161
  5
164
331
162
  5
165
331
163
  5
166
331
164
  5
167
331
165
  5
168
331
166
  5
169
331
167
  5
16A
331
168
  5
16B
331
169
  5
16C
331
16A
  5
16D
331
16B
  5
16E
331
16C
  5
16F
331
16D
  5
171
331
16E
  5
172
331
16F
  5
173
331
170
  5
174
331
171
  5
175
331
172
  5
176
331
173
  5
177
331
174
  5
178
331
175
  5
179
331
176
  5
17A
331
177
  5
17B
331
178
  5
17C
331
179
  5
17D
331
17A
  5
17E
331
17B
  5
17F
331
17C
  5
180
331
17D
  5
181
331
17E
  5
182
331
17F
  5
183
331
180
  5
184
331
181
  5
185
331
182
  5
186
331
183
  5
187
331
184
  5
188
331
185
  5
189
331
186
  5
18A
331
187
  5
18B
331
188
  5
18C
331
189
  5
18D
331
18A
  5
18E
331
18B
  5
18F
331
18C
  5
190
331
18D
  5
191
331
18E
  5
192
331
18F
  5
193
331
190
  5
194
331
191
  5
195
331
192
  5
196
331
193
  5
197
331
194
  5
198
331
195
  5
199
331
196
  5
19A
331
197
  5
19B
331
198
  5
19C
331
199
  5
19D
331
19A
  5
19E
331
19B
  5
19F
331
19C
  5
1A0
331
19D
  5
1A1
331
19E
  5
1A2
331
19F
  5
1A3
331
1A0
  5
1A4
331
1A1
  5
1A5
331
1A2
  5
1A6
331
1A3
  5
1A7
331
1A4
  5
1A8
331
1A5
  5
1A9
331
1A6
  5
1AA
331
1A7
  5
1AB
331
1A8
  5
1AC
331
1A9
  5
1AD
331
1AA
  5
1AE
331
1AB
  5
1AF
331
1AC
  5
1B0
331
1AD
  5
1B1
331
1AE
  5
1B2
331
1AF
  5
1B3
331
1B0
  5
1B4
331
1B1
  5
1B5
331
1B2
  5
1B6
331
1B3
  5
1B7
331
1B4
  5
1B8
331
1B5
  5
1B9
331
1B6
  5
1BA
331
1B7
  5
1BB
331
1B8
  5
1BC
331
1B9
  5
1BD
331
1BA
  5
1BE
331
1BB
  5
1BF
331
1BC
  5
1C0
331
1BD
  5
1C1
331
1BE
  5
1C2
331
1BF
  5
1C3
331
1C0
  5
1C4
331
1C1
  5
1C5
331
1C2
  5
1C6
331
1C3
  5
1C7
331
1C4
  5
1C8
331
1C5
  5
1C9
331
1C6
  5
1CA
331
1C7
  5
1CB
331
1C8
  5
1CC
331
1C9
  5
1CD
331
1CA
  5
1CE
331
1CB
  5
1CF
331
1CC
  5
1D0
331
1CD
  5
1D1
331
1CE
  5
1D2
331
1CF
  5
1D3
331
1D0
  5
1D4
331
1D1
  5
1D5
331
1D2
  5
1D6
331
1D3
  5
1D7
331
1D4
  5
1D8
331
1D5
  5
1D9
331
1D6
  5
1DA
331
1D7
  5
1DB
331
1D8
  5
1DC
331
1D9
  5
1DD
331
1DA
  5
1DE
331
1DB
  5
1DF
331
1DC
  5
1E0
331
1DD
  5
1E1
331
1DE
  5
1E2
331
1DF
  5
1E3
331
1E0
  5
1E4
331
1E1
  5
1E5
331
1E2
  5
1E6
331
1E3
  5
1E7
331
1E4
  5
1E8
331
1E5
  5
1E9
331
1E6
  5
1EA
331
1E7
  5
1EB
331
1E8
  5
1EC
331
1E9
  5
1ED
331
1EA
  5
1EE
331
1EB
  5
1EF
331
1EC
  5
1F0
331
1ED
  5
1F1
331
1EE
  5
1F2
331
1EF
  5
1F3
331
1F0
  5
1F4
331
1F1
  5
1F5
331
1F2
  5
1F6
331
1F3
  5
1F7
331
1F4
  5
1F8
331
1F5
  5
1F9
331
1F6
  5
1FA
331
1F7
  5
1FB
331
1F8
  5
1FC
331
1F9
  5
1FD
331
1FA
  5
1FE
331
1FB
  5
1FF
331
1FC
  5
200
331
1FD
  5
201
331
1FE
  5
202
331
1FF
  5
203
331
200
  5
204
331
201
  5
205
331
202
  5
206
331
203
  5
207
331
204
  5
208
331
205
  5
209
331
206
  5
20A
331
207
  5
20B
331
208
  5
20C
331
209
  5
20D
331
20A
  5
AB
331
20B
  5
20E
331
20C
  5
170
331
20D
  5
20F
331
20E
  5
210
331
20F
  5
114
331
210
  5
115
331
250
  5
310
331
2EA
  5
718
331
2EB
  5
719
331
2EC
  5
71A
331
2EE
  5
71C
331
2FE
  5
724
331
305
  5
72E
331
306
  5
72F
331
307
  5
730
331
308
  5
731
331
309
  5
732
331
30A
  5
733
331
30B
  5
734
331
30C
  5
735
331
30D
  5
736
331
30E
  5
737
331
30F
  5
738
331
310
  5
739
331
311
  5
73A
331
312
  5
73B
331
313
  5
73C
331
314
  5
73D
331
315
  5
73E
331
316
  5
73F
331
317
  5
740
331
318
  5
741
331
319
  5
742
331
31A
  5
743
331
31B
  5
744
331
31C
  5
745
331
31D
  5
746
331
31E
  5
747
331
31F
  5
748
331
320
  5
749
331
321
  5
74A
331
322
  5
74B
331
325
  5
74C
331
326
  5
74D
331
327
  5
74E
331
328
  5
74F
331
32A
  5
751
331
32B
  5
752
331
6EA
  5
250
331
6EB
  5
2EA
331
6EC
  5
2EB
331
6ED
  5
2EC
331
6EE
  5
2EE
331
6EF
  5
2FE
331
6F0
  5
305
331
6F1
  5
306
331
6F2
  5
307
331
6F3
  5
308
331
6F4
  5
309
331
6F5
  5
30A
331
6F6
  5
30B
331
6F7
  5
30C
331
6F8
  5
30D
331
6F9
  5
30E
331
6FA
  5
30F
331
6FB
  5
311
331
6FC
  5
312
331
6FD
  5
313
331
6FE
  5
314
331
6FF
  5
315
331
700
  5
316
331
701
  5
317
331
702
  5
318
331
703
  5
319
331
704
  5
31A
331
705
  5
31B
331
706
  5
31C
331
707
  5
31D
331
708
  5
31E
331
709
  5
31F
331
70A
  5
320
331
70B
  5
321
331
70C
  5
322
331
70D
  5
325
331
70E
  5
326
331
70F
  5
327
331
710
  5
328
331
711
  5
32A
331
712
  5
32B
331
713
  5
6EA
331
714
  5
6EB
331
715
  5
6EC
331
716
  5
6ED
331
717
  5
6EE
331
718
  5
6EF
331
719
  5
6F0
331
71A
  5
6F1
331
71B
  5
6F2
331
71C
  5
6F3
331
71D
  5
6F4
331
71E
  5
6F5
331
71F
  5
6F6
331
720
  5
6F7
331
721
  5
6F8
331
722
  5
6F9
331
723
  5
6FA
331
724
  5
6FB
331
725
  5
6FC
331
726
  5
6FD
331
727
  5
6FE
331
728
  5
6FF
331
729
  5
700
331
72A
  5
701
331
72B
  5
702
331
72C
  5
703
331
72D
  5
704
331
72E
  5
705
331
72F
  5
706
331
730
  5
707
331
731
  5
708
331
732
  5
709
331
733
  5
70A
331
734
  5
70B
331
735
  5
70C
331
736
  5
70D
331
737
  5
70E
331
738
  5
70F
331
739
  5
710
331
73A
  5
711
331
73B
  5
712
331
73C
  5
713
331
73D
  5
714
331
73E
  5
715
331
73F
  5
716
331
740
  5
717
331
741
  5
71B
331
742
  5
71D
331
743
  5
71E
331
744
  5
71F
331
745
  5
720
331
746
  5
721
331
747
  5
722
331
748
  5
723
331
749
  5
725
331
74A
  5
726
331
74B
  5
727
331
74C
  5
728
331
74D
  5
729
331
74E
  5
72A
331
74F
  5
72B
331
750
  5
72C
331
751
  5
72D
331
752
  5
750
  0
SORTENTSTABLE
  5
500
102
{ACAD_REACTORS
330
80
102
}
330
80
100
AcDbSortentsTable
330
7F
  0
XRECORD
  5
7B3
102
{ACAD_REACTORS
330
7B2
102
}
330
7B2
100
AcDbXrecord
280
     1
 40
2394.0
  1
\U+220536
  0
XRECORD
  5
7B1
102
{ACAD_REACTORS
330
7B0
102
}
330
7B0
100
AcDbXrecord
280
     1
 40
2402.0
  1
\U+220546
  0
XRECORD
  5
6DE
102
{ACAD_REACTORS
330
6DD
102
}
330
6DD
100
AcDbXrecord
280
     1
 90
        1
340
43
  0
XRECORD
  5
75E
102
{ACAD_REACTORS
330
75C
102
}
330
75C
100
AcDbXrecord
280
     1
 70
     1
  0
XRECORD
  5
75D
102
{ACAD_REACTORS
330
75C
102
}
330
75C
100
AcDbXrecord
280
     1
 40
1.25
  0
XRECORD
  5
75F
102
{ACAD_REACTORS
330
75C
102
}
330
75C
100
AcDbXrecord
280
     1
 40
1.570796326794896
  0
XRECORD
  5
761
102
{ACAD_REACTORS
330
75C
102
}
330
75C
100
AcDbXrecord
280
     1
340
5C
  0
XRECORD
  5
762
102
{ACAD_REACTORS
330
75C
102
}
330
75C
100
AcDbXrecord
280
     1
340
5C
  0
XRECORD
  5
760
102
{ACAD_REACTORS
330
75C
102
}
330
75C
100
AcDbXrecord
280
     1
340
5C
  0
ACDBDETAILVIEWSTYLE
  5
6B
102
{ACAD_XDICTIONARY
360
7A4
102
}
102
{ACAD_REACTORS
330
6A
102
}
330
6A
100
AcDbModelDocViewStyle
 70
     0
  3
Imperial24
290
     0
100
AcDbDetailViewStyle
 70
     0
 71
     0
 90
        3
 71
     1
340
55
 62
   256
 40
0.24
340
0
 62
   256
 40
0.24
300

 40
0.36
280
     3
 71
     2
340
5D
 90
       25
 62
   256
 71
     3
340
55
 62
   256
 40
0.24
 90
        1
 40
0.75
 90
        1
300
%<\AcVar ViewType \f "%tc1">% %<\AcVar ViewDetailId>%\PSCALE %<\AcVar ViewScale \f "%sn">%
 71
     4
340
5D
 90
       25
 62
   256
340
5D
 90
       25
 62
   256
280
     0
  0
ACDBDETAILVIEWSTYLE
  5
57B
102
{ACAD_XDICTIONARY
360
7AE
102
}
102
{ACAD_REACTORS
330
6A
102
}
330
6A
100
AcDbModelDocViewStyle
 70
     0
  3
Metric50
290
     0
100
AcDbDetailViewStyle
 70
     0
 71
     0
 90
        3
 71
     1
340
55
 62
   256
 40
5.0
340
0
 62
   256
 40
5.0
300

 40
0.0
280
     1
 71
     2
340
5D
 90
       25
 62
   256
 71
     3
340
55
 62
   256
 40
5.0
 90
        0
 40
15.0
 90
        1
300
%<\AcVar ViewDetailId>% (%<\AcVar ViewScale \f "%sn">%)
 71
     4
340
5D
 90
       25
 62
   256
340
5D
 90
       25
 62
   256
280
     0
  0
LAYOUT
  5
73
102
{ACAD_REACTORS
330
62
102
}
330
62
100
AcDbPlotSettings
  1

  2
FF W001 for DocuWide 3037
  4
psk:ISOA4
  6

 40
0.0
 41
0.0
 42
0.0
 43
0.0
 44
210.0
 45
297.0
 46
0.0
 47
0.0
 48
0.0
 49
0.0
140
0.0
141
0.0
142
1.0
143
1.666345633765207
 70
 11952
 72
     1
 73
     1
 74
     0
  7
印刷_1.stb
 75
     0
147
0.600115594110233
 76
     0
 77
     2
 78
   300
148
41.20958894998927
149
1.564170658031656
100
AcDbLayout
  1
Model
 70
     1
 71
     0
 10
0.0
 20
0.0
 11
12.0
 21
9.0
 12
0.0
 22
0.0
 32
0.0
 14
0.0
 24
0.0
 34
0.0
 15
0.0
 25
0.0
 35
0.0
146
0.0
 13
0.0
 23
0.0
 33
0.0
 16
1.0
 26
0.0
 36
0.0
 17
0.0
 27
1.0
 37
0.0
 76
     0
330
70
331
57
1001
ACAD_PSEXT
1000
FF W001 for DocuWide 3037
1000
FF W001 for DocuWide 3037
1000
192.168.5.100:plt00t
1000

1070
     0
  0
LAYOUT
  5
6F
102
{ACAD_REACTORS
330
62
102
}
330
62
100
AcDbPlotSettings
  1

  2
FF W001 for DocuWide 3037
  4
psk:ISOA4
  6

 40
0.0
 41
0.0
 42
0.0
 43
0.0
 44
210.0
 45
297.0
 46
0.0
 47
0.0
 48
0.0
 49
0.0
140
0.0
141
0.0
142
1.0
143
1.0
 70
   688
 72
     1
 73
     1
 74
     5
  7

 75
    16
147
1.0
 76
     0
 77
     2
 78
   300
148
0.0
149
0.0
100
AcDbLayout
  1
レイアウト1
 70
     1
 71
     1
 10
0.0
 20
0.0
 11
297.0
 21
210.0
 12
0.0
 22
0.0
 32
0.0
 14
29.69999999999999
 24
21.0
 34
0.0
 15
267.3
 25
189.0
 35
0.0
146
0.0
 13
0.0
 23
0.0
 33
0.0
 16
1.0
 26
0.0
 36
0.0
 17
0.0
 27
1.0
 37
0.0
 76
     0
330
6C
331
6DC
1001
ACAD_PSEXT
1000
FF W001 for DocuWide 3037
1000
FF W001 for DocuWide 3037
1000
192.168.5.100:plt00t
1000

1070
     0
  0
MATERIAL
  5
19
102
{ACAD_XDICTIONARY
360
1A
102
}
102
{ACAD_REACTORS
330
10
102
}
330
10
100
AcDbMaterial
  1
ByBlock
 72
     0
 43
0.0208333333333333
 43
0.0
 43
0.0
 43
0.0
 43
0.0
 43
0.0208333333333333
 43
0.0
 43
0.0
 43
0.0
 43
0.0
 43
1.0
 43
0.0
 43
0.0
 43
0.0
 43
0.0
 43
1.0
 77
     0
 47
0.0208333333333333
 47
0.0
 47
0.0
 47
0.0
 47
0.0
 47
0.0208333333333333
 47
0.0
 47
0.0
 47
0.0
 47
0.0
 47
1.0
 47
0.0
 47
0.0
 47
0.0
 47
0.0
 47
1.0
171
     0
 49
0.0208333333333333
 49
0.0
 49
0.0
 49
0.0
 49
0.0
 49
0.0208333333333333
 49
0.0
 49
0.0
 49
0.0
 49
0.0
 49
1.0
 49
0.0
 49
0.0
 49
0.0
 49
0.0
 49
1.0
175
     0
142
0.0208333333333333
142
0.0
142
0.0
142
0.0
142
0.0
142
0.0208333333333333
142
0.0
142
0.0
142
0.0
142
0.0
142
1.0
142
0.0
142
0.0
142
0.0
142
0.0
142
1.0
179
     0
144
0.0208333333333333
144
0.0
144
0.0
144
0.0
144
0.0
144
0.0208333333333333
144
0.0
144
0.0
144
0.0
144
0.0
144
1.0
144
0.0
144
0.0
144
0.0
144
0.0
144
1.0
147
0.0208333333333333
147
0.0
147
0.0
147
0.0
147
0.0
147
0.0208333333333333
147
0.0
147
0.0
147
0.0
147
0.0
147
1.0
147
0.0
147
0.0
147
0.0
147
0.0
147
1.0
  0
MATERIAL
  5
11
102
{ACAD_XDICTIONARY
360
12
102
}
102
{ACAD_REACTORS
330
10
102
}
330
10
100
AcDbMaterial
  1
ByLayer
 72
     0
 43
0.0208333333333333
 43
0.0
 43
0.0
 43
0.0
 43
0.0
 43
0.0208333333333333
 43
0.0
 43
0.0
 43
0.0
 43
0.0
 43
1.0
 43
0.0
 43
0.0
 43
0.0
 43
0.0
 43
1.0
 77
     0
 47
0.0208333333333333
 47
0.0
 47
0.0
 47
0.0
 47
0.0
 47
0.0208333333333333
 47
0.0
 47
0.0
 47
0.0
 47
0.0
 47
1.0
 47
0.0
 47
0.0
 47
0.0
 47
0.0
 47
1.0
171
     0
 49
0.0208333333333333
 49
0.0
 49
0.0
 49
0.0
 49
0.0
 49
0.0208333333333333
 49
0.0
 49
0.0
 49
0.0
 49
0.0
 49
1.0
 49
0.0
 49
0.0
 49
0.0
 49
0.0
 49
1.0
175
     0
142
0.0208333333333333
142
0.0
142
0.0
142
0.0
142
0.0
142
0.0208333333333333
142
0.0
142
0.0
142
0.0
142
0.0
142
1.0
142
0.0
142
0.0
142
0.0
142
0.0
142
1.0
179
     0
144
0.0208333333333333
144
0.0
144
0.0
144
0.0
144
0.0
144
0.0208333333333333
144
0.0
144
0.0
144
0.0
144
0.0
144
1.0
144
0.0
144
0.0
144
0.0
144
0.0
144
1.0
147
0.0208333333333333
147
0.0
147
0.0
147
0.0
147
0.0
147
0.0208333333333333
147
0.0
147
0.0
147
0.0
147
0.0
147
1.0
147
0.0
147
0.0
147
0.0
147
0.0
147
1.0
  0
MATERIAL
  5
21
102
{ACAD_XDICTIONARY
360
22
102
}
102
{ACAD_REACTORS
330
10
102
}
330
10
100
AcDbMaterial
  1
Global
 72
     0
 43
0.0208333333333333
 43
0.0
 43
0.0
 43
0.0
 43
0.0
 43
0.0208333333333333
 43
0.0
 43
0.0
 43
0.0
 43
0.0
 43
1.0
 43
0.0
 43
0.0
 43
0.0
 43
0.0
 43
1.0
 77
     0
 47
0.0208333333333333
 47
0.0
 47
0.0
 47
0.0
 47
0.0
 47
0.0208333333333333
 47
0.0
 47
0.0
 47
0.0
 47
0.0
 47
1.0
 47
0.0
 47
0.0
 47
0.0
 47
0.0
 47
1.0
171
     0
 49
0.0208333333333333
 49
0.0
 49
0.0
 49
0.0
 49
0.0
 49
0.0208333333333333
 49
0.0
 49
0.0
 49
0.0
 49
0.0
 49
1.0
 49
0.0
 49
0.0
 49
0.0
 49
0.0
 49
1.0
175
     0
142
0.0208333333333333
142
0.0
142
0.0
142
0.0
142
0.0
142
0.0208333333333333
142
0.0
142
0.0
142
0.0
142
0.0
142
1.0
142
0.0
142
0.0
142
0.0
142
0.0
142
1.0
179
     0
144
0.0208333333333333
144
0.0
144
0.0
144
0.0
144
0.0
144
0.0208333333333333
144
0.0
144
0.0
144
0.0
144
0.0
144
1.0
144
0.0
144
0.0
144
0.0
144
0.0
144
1.0
147
0.0208333333333333
147
0.0
147
0.0
147
0.0
147
0.0
147
0.0208333333333333
147
0.0
147
0.0
147
0.0
147
0.0
147
1.0
147
0.0
147
0.0
147
0.0
147
0.0
147
1.0
  0
MLEADERSTYLE
  5
67
102
{ACAD_XDICTIONARY
360
7A0
102
}
102
{ACAD_REACTORS
330
66
102
}
330
66
100
AcDbMLeaderStyle
170
     2
171
     1
172
     0
 90
        2
 40
0.0
 41
0.0
173
     1
 91
-1056964608
340
5B
 92
       -2
290
     1
 42
0.09
291
     1
 43
0.36
  3
Standard
 44
0.18
300

342
55
174
     1
178
     6
175
     1
176
     0
 93
-1056964608
 45
0.18
292
     0
297
     0
 46
0.18
 94
-1056964608
 47
1.0
 49
1.0
140
1.0
293
     1
141
0.0
294
     1
177
     0
142
1.0
295
     0
296
     0
143
0.125
1001
ACAD_MLEADERVER
1070
     2
  0
MLINESTYLE
  5
60
102
{ACAD_REACTORS
330
5F
102
}
330
5F
100
AcDbMlineStyle
  2
STANDARD
 70
     0
  3

 62
   256
 51
90.0
 52
90.0
 71
     2
 49
0.5
 62
   256
  6
BYLAYER
 49
-0.5
 62
   256
  6
BYLAYER
  0
ACDBPLACEHOLDER
  5
F
102
{ACAD_REACTORS
330
E
102
}
330
E
  0
ACDBPLACEHOLDER
  5
83
102
{ACAD_REACTORS
330
E
102
}
330
E
  0
SCALE
  5
43
102
{ACAD_REACTORS
330
42
102
}
330
42
100
AcDbScale
 70
     0
300
1:1
140
1.0
141
1.0
290
     1
  0
SCALE
  5
44
102
{ACAD_REACTORS
330
42
102
}
330
42
100
AcDbScale
 70
     0
300
1:2
140
1.0
141
2.0
290
     0
  0
SCALE
  5
45
102
{ACAD_REACTORS
330
42
102
}
330
42
100
AcDbScale
 70
     0
300
1:4
140
1.0
141
4.0
290
     0
  0
SCALE
  5
46
102
{ACAD_REACTORS
330
42
102
}
330
42
100
AcDbScale
 70
     0
300
1:5
140
1.0
141
5.0
290
     0
  0
SCALE
  5
47
102
{ACAD_REACTORS
330
42
102
}
330
42
100
AcDbScale
 70
     0
300
1:8
140
1.0
141
8.0
290
     0
  0
SCALE
  5
48
102
{ACAD_REACTORS
330
42
102
}
330
42
100
AcDbScale
 70
     0
300
1:10
140
1.0
141
10.0
290
     0
  0
SCALE
  5
49
102
{ACAD_REACTORS
330
42
102
}
330
42
100
AcDbScale
 70
     0
300
1:16
140
1.0
141
16.0
290
     0
  0
SCALE
  5
4A
102
{ACAD_REACTORS
330
42
102
}
330
42
100
AcDbScale
 70
     0
300
1:20
140
1.0
141
20.0
290
     0
  0
SCALE
  5
4B
102
{ACAD_REACTORS
330
42
102
}
330
42
100
AcDbScale
 70
     0
300
1:30
140
1.0
141
30.0
290
     0
  0
SCALE
  5
4C
102
{ACAD_REACTORS
330
42
102
}
330
42
100
AcDbScale
 70
     0
300
1:40
140
1.0
141
40.0
290
     0
  0
SCALE
  5
4D
102
{ACAD_REACTORS
330
42
102
}
330
42
100
AcDbScale
 70
     0
300
1:50
140
1.0
141
50.0
290
     0
  0
SCALE
  5
4E
102
{ACAD_REACTORS
330
42
102
}
330
42
100
AcDbScale
 70
     0
300
1:100
140
1.0
141
100.0
290
     0
  0
SCALE
  5
4F
102
{ACAD_REACTORS
330
42
102
}
330
42
100
AcDbScale
 70
     0
300
2:1
140
2.0
141
1.0
290
     0
  0
SCALE
  5
50
102
{ACAD_REACTORS
330
42
102
}
330
42
100
AcDbScale
 70
     0
300
4:1
140
4.0
141
1.0
290
     0
  0
SCALE
  5
51
102
{ACAD_REACTORS
330
42
102
}
330
42
100
AcDbScale
 70
     0
300
8:1
140
8.0
141
1.0
290
     0
  0
SCALE
  5
52
102
{ACAD_REACTORS
330
42
102
}
330
42
100
AcDbScale
 70
     0
300
10:1
140
10.0
141
1.0
290
     0
  0
SCALE
  5
53
102
{ACAD_REACTORS
330
42
102
}
330
42
100
AcDbScale
 70
     0
300
100:1
140
100.0
141
1.0
290
     0
  0
ACDBSECTIONVIEWSTYLE
  5
69
102
{ACAD_XDICTIONARY
360
7A2
102
}
102
{ACAD_REACTORS
330
68
102
}
330
68
100
AcDbModelDocViewStyle
 70
     0
  3
Imperial24
290
     0
100
AcDbSectionViewStyle
 70
     0
 71
     0
 90
       78
 71
     1
340
55
 62
   256
 40
0.24
340
0
340
0
 62
   256
 40
0.24
300
I, O, Q, S, X, Z
 40
0.48
 90
        3
 40
0.18
 90
        1
 71
     2
340
5D
 90
       25
 62
   256
340
5D
 90
       50
 62
   256
 40
0.24
 40
0.0
 40
0.24
 71
     3
340
55
 62
   256
 40
0.24
 90
        1
 40
0.75
 90
        1
300
%<\AcVar ViewType \f "%tc1">% %<\AcVar ViewSectionStartId>%-%<\AcVar ViewSectionEndId>%\PSCALE %<\AcVar ViewScale \f "%sn">%
 71
     4
 62
   256
 62
   257
300
ANSI31
 40
1.0
 90
        0
290
     0
290
     0
 90
        6
 40
0.0
 40
1.570796326794896
 40
0.2617993877991494
 40
1.308996938995747
 40
-0.2617993877991494
 40
1.832595714594046
  0
ACDBSECTIONVIEWSTYLE
  5
57A
102
{ACAD_XDICTIONARY
360
7AC
102
}
102
{ACAD_REACTORS
330
68
102
}
330
68
100
AcDbModelDocViewStyle
 70
     0
  3
Metric50
290
     0
100
AcDbSectionViewStyle
 70
     0
 71
     0
 90
      102
 71
     1
340
55
 62
   256
 40
5.0
340
0
340
0
 62
   256
 40
5.0
300
I, O, Q, S, X, Z
 40
10.0
 90
        0
 40
2.5
 90
        0
 71
     2
340
5D
 90
       25
 62
   256
340
5D
 90
       50
 62
   256
 40
5.0
 40
2.5
 40
5.0
 71
     3
340
55
 62
   256
 40
5.0
 90
        0
 40
15.0
 90
        1
300
%<\AcVar ViewSectionStartId>%-%<\AcVar ViewSectionEndId>% (%<\AcVar ViewScale \f "%sn">%)
 71
     4
 62
   256
 62
   257
300
ANSI31
 40
1.0
 90
        0
290
     0
290
     0
 90
        6
 40
0.0
 40
1.570796326794896
 40
0.2617993877991494
 40
1.308996938995747
 40
-0.2617993877991494
 40
1.832595714594046
  0
TABLESTYLE
  5
65
102
{ACAD_XDICTIONARY
360
759
102
}
102
{ACAD_REACTORS
330
64
102
}
330
64
100
AcDbTableStyle
  3
Standard
 70
     0
 71
     3
 40
1.5
 41
1.5
280
     0
281
     0
  7
Standard
140
4.5
170
     2
 62
     0
 63
     7
283
     0
274
    -2
284
     1
 64
     0
275
    -2
285
     1
 65
     0
276
    -2
286
     1
 66
     0
277
    -2
287
     1
 67
     0
278
    -2
288
     1
 68
     0
279
    -2
289
     1
 69
     0
  7
Standard
140
6.0
170
     5
 62
     0
 63
     7
283
     0
274
    -2
284
     1
 64
     0
275
    -2
285
     1
 65
     0
276
    -2
286
     1
 66
     0
277
    -2
287
     1
 67
     0
278
    -2
288
     1
 68
     0
279
    -2
289
     1
 69
     0
  7
Standard
140
4.5
170
     5
 62
     0
 63
     7
283
     0
274
    -2
284
     1
 64
     0
275
    -2
285
     1
 65
     0
276
    -2
286
     1
 66
     0
277
    -2
287
     1
 67
     0
278
    -2
288
     1
 68
     0
279
    -2
289
     1
 69
     0
  0
VISUALSTYLE
  5
2F
102
{ACAD_XDICTIONARY
360
778
102
}
102
{ACAD_REACTORS
330
29
102
}
330
29
100
AcDbVisualStyle
  2
2dWireframe
 70
     4
 71
     0
 72
     2
 73
     0
 90
        0
 40
-0.6
 41
-30.0
 62
     5
 63
     7
421
 16777215
 74
     1
 91
        4
 64
     7
 65
   257
 75
     1
175
     1
 42
1.0
 92
        0
 66
   257
 43
1.0
 76
     1
 77
     6
 78
     2
 67
     7
 79
     5
170
     0
171
     0
290
     0
174
     0
 93
        1
 44
0.0
173
     0
291
     0
 45
0.0
1001
ACAD
1000
AcDbSavedByObjectVersion
1070
     0
  0
VISUALSTYLE
  5
2E
102
{ACAD_XDICTIONARY
360
776
102
}
102
{ACAD_REACTORS
330
29
102
}
330
29
100
AcDbVisualStyle
  2
Basic
 70
     7
 71
     1
 72
     0
 73
     1
 90
        0
 40
-0.6
 41
-30.0
 62
     5
 63
     7
421
 16777215
 74
     0
 91
        4
 64
     7
 65
   257
 75
     1
175
     1
 42
1.0
 92
        8
 66
     7
 43
1.0
 76
     1
 77
     6
 78
     2
 67
     7
 79
     5
170
     0
171
     0
290
     0
174
     0
 93
        1
 44
0.0
173
     0
291
     1
 45
0.0
1001
ACAD
1000
AcDbSavedByObjectVersion
1070
     0
  0
VISUALSTYLE
  5
35
102
{ACAD_XDICTIONARY
360
784
102
}
102
{ACAD_REACTORS
330
29
102
}
330
29
100
AcDbVisualStyle
  2
Brighten
 70
    12
 71
     2
 72
     2
 73
     0
 90
        0
 40
-0.6
 41
-30.0
 62
     5
 63
     7
421
 16777215
 74
     1
 91
        4
 64
     7
 65
   257
 75
     1
175
     1
 42
1.0
 92
        8
 66
     7
 43
1.0
 76
     1
 77
     6
 78
     2
 67
     7
 79
     5
170
     0
171
     0
290
     0
174
     0
 93
        1
 44
50.0
173
     0
291
     1
 45
0.0
1001
ACAD
1000
AcDbSavedByObjectVersion
1070
     0
  0
VISUALSTYLE
  5
39
102
{ACAD_XDICTIONARY
360
78C
102
}
102
{ACAD_REACTORS
330
29
102
}
330
29
100
AcDbVisualStyle
  2
ColorChange
 70
    16
 71
     2
 72
     2
 73
     3
 90
        0
 40
-0.6
 41
-30.0
 62
     5
 63
     8
421
  8421504
 74
     1
 91
        4
 64
     7
 65
   257
 75
     1
175
     1
 42
1.0
 92
        8
 66
     8
424
  8421504
 43
1.0
 76
     1
 77
     6
 78
     2
 67
     7
 79
     5
170
     0
171
     0
290
     0
174
     0
 93
        1
 44
0.0
173
     0
291
     1
 45
0.0
1001
ACAD
1000
AcDbSavedByObjectVersion
1070
     0
  0
VISUALSTYLE
  5
32
102
{ACAD_XDICTIONARY
360
77E
102
}
102
{ACAD_REACTORS
330
29
102
}
330
29
100
AcDbVisualStyle
  2
Conceptual
 70
     9
 71
     3
 72
     2
 73
     0
 90
        0
 40
-0.6
 41
-30.0
 62
     5
 63
     7
421
 16777215
 74
     2
 91
        2
 64
     7
 65
   257
 75
     1
175
     1
 42
179.0
 92
        8
 66
     7
 43
1.0
 76
     1
 77
     6
 78
     2
 67
     7
 79
     3
170
     0
171
     0
290
     0
174
     0
 93
        1
 44
0.0
173
     0
291
     0
 45
0.0
1001
ACAD
1000
AcDbSavedByObjectVersion
1070
     0
  0
VISUALSTYLE
  5
34
102
{ACAD_XDICTIONARY
360
782
102
}
102
{ACAD_REACTORS
330
29
102
}
330
29
100
AcDbVisualStyle
  2
Dim
 70
    11
 71
     2
 72
     2
 73
     0
 90
        0
 40
-0.6
 41
-30.0
 62
     5
 63
     7
421
 16777215
 74
     1
 91
        4
 64
     7
 65
   257
 75
     1
175
     1
 42
1.0
 92
        8
 66
     7
 43
1.0
 76
     1
 77
     6
 78
     2
 67
     7
 79
     5
170
     0
171
     0
290
     0
174
     0
 93
        1
 44
-50.0
173
     0
291
     1
 45
0.0
1001
ACAD
1000
AcDbSavedByObjectVersion
1070
     0
  0
VISUALSTYLE
  5
41
102
{ACAD_XDICTIONARY
360
79C
102
}
102
{ACAD_REACTORS
330
29
102
}
330
29
100
AcDbVisualStyle
  2
EdgeColorOff
 70
    22
 71
     2
 72
     2
 73
     0
 90
        0
 40
-0.6
 41
-30.0
 62
     5
 63
     7
421
 16777215
 74
     1
 91
        4
 64
     7
 65
   257
 75
     1
175
     1
 42
1.0
 92
        8
 66
     7
 43
1.0
 76
     1
 77
     6
 78
     2
 67
     7
 79
     5
170
     0
171
     0
290
     0
174
     0
 93
        1
 44
0.0
173
     0
291
     1
 45
0.0
1001
ACAD
1000
AcDbSavedByObjectVersion
1070
     0
  0
VISUALSTYLE
  5
38
102
{ACAD_XDICTIONARY
360
78A
102
}
102
{ACAD_REACTORS
330
29
102
}
330
29
100
AcDbVisualStyle
  2
Facepattern
 70
    15
 71
     2
 72
     2
 73
     0
 90
        0
 40
-0.6
 41
-30.0
 62
     5
 63
     7
421
 16777215
 74
     1
 91
        4
 64
     7
 65
   257
 75
     1
175
     1
 42
1.0
 92
        8
 66
     7
 43
1.0
 76
     1
 77
     6
 78
     2
 67
     7
 79
     5
170
     0
171
     0
290
     0
174
     0
 93
        1
 44
0.0
173
     0
291
     1
 45
0.0
1001
ACAD
1000
AcDbSavedByObjectVersion
1070
     0
  0
VISUALSTYLE
  5
2A
102
{ACAD_XDICTIONARY
360
76E
102
}
102
{ACAD_REACTORS
330
29
102
}
330
29
100
AcDbVisualStyle
  2
Flat
 70
     0
 71
     2
 72
     1
 73
     1
 90
        2
 40
-0.6
 41
30.0
 62
     5
 63
     7
421
 16777215
 74
     0
 91
        0
 64
     7
 65
   257
 75
     1
175
     1
 42
1.0
 92
        8
 66
     7
 43
1.0
 76
     1
 77
     6
 78
     2
 67
     7
 79
     5
170
     0
171
     0
290
     0
174
     0
 93
       13
 44
0.0
173
     0
291
     1
 45
0.0
1001
ACAD
1000
AcDbSavedByObjectVersion
1070
     0
  0
VISUALSTYLE
  5
2B
102
{ACAD_XDICTIONARY
360
770
102
}
102
{ACAD_REACTORS
330
29
102
}
330
29
100
AcDbVisualStyle
  2
FlatWithEdges
 70
     1
 71
     2
 72
     1
 73
     1
 90
        2
 40
-0.6
 41
30.0
 62
     5
 63
     7
421
 16777215
 74
     1
 91
        0
 64
     7
 65
   257
 75
     1
175
     1
 42
1.0
 92
        0
 66
   257
 43
1.0
 76
     1
 77
     6
 78
     2
 67
     7
 79
     5
170
     0
171
     0
290
     0
174
     0
 93
       13
 44
0.0
173
     0
291
     1
 45
0.0
1001
ACAD
1000
AcDbSavedByObjectVersion
1070
     0
  0
VISUALSTYLE
  5
2C
102
{ACAD_XDICTIONARY
360
772
102
}
102
{ACAD_REACTORS
330
29
102
}
330
29
100
AcDbVisualStyle
  2
Gouraud
 70
     2
 71
     2
 72
     2
 73
     1
 90
        2
 40
-0.6
 41
30.0
 62
     5
 63
     7
421
 16777215
 74
     0
 91
        0
 64
     7
 65
   257
 75
     1
175
     1
 42
1.0
 92
        0
 66
     7
 43
1.0
 76
     1
 77
     6
 78
     2
 67
     7
 79
     5
170
     0
171
     0
290
     0
174
     0
 93
       13
 44
0.0
173
     0
291
     1
 45
0.0
1001
ACAD
1000
AcDbSavedByObjectVersion
1070
     0
  0
VISUALSTYLE
  5
2D
102
{ACAD_XDICTIONARY
360
774
102
}
102
{ACAD_REACTORS
330
29
102
}
330
29
100
AcDbVisualStyle
  2
GouraudWithEdges
 70
     3
 71
     2
 72
     2
 73
     1
 90
        2
 40
-0.6
 41
30.0
 62
     5
 63
     7
421
 16777215
 74
     1
 91
        0
 64
     7
 65
   257
 75
     1
175
     1
 42
1.0
 92
        0
 66
   257
 43
1.0
 76
     1
 77
     6
 78
     2
 67
     7
 79
     5
170
     0
171
     0
290
     0
174
     0
 93
       13
 44
0.0
173
     0
291
     1
 45
0.0
1001
ACAD
1000
AcDbSavedByObjectVersion
1070
     0
  0
VISUALSTYLE
  5
31
102
{ACAD_XDICTIONARY
360
77C
102
}
102
{ACAD_REACTORS
330
29
102
}
330
29
100
AcDbVisualStyle
  2
Hidden
 70
     6
 71
     1
 72
     2
 73
     2
 90
        0
 40
-0.6
 41
-30.0
 62
     5
 63
     7
421
 16777215
 74
     2
 91
        2
 64
     7
 65
   257
 75
     2
175
     1
 42
40.0
 92
        0
 66
   257
 43
1.0
 76
     1
 77
     6
 78
     2
 67
     7
 79
     3
170
     0
171
     0
290
     0
174
     0
 93
        1
 44
0.0
173
     0
291
     0
 45
0.0
1001
ACAD
1000
AcDbSavedByObjectVersion
1070
     0
  0
VISUALSTYLE
  5
3F
102
{ACAD_XDICTIONARY
360
798
102
}
102
{ACAD_REACTORS
330
29
102
}
330
29
100
AcDbVisualStyle
  2
JitterOff
 70
    20
 71
     2
 72
     2
 73
     0
 90
        0
 40
-0.6
 41
-30.0
 62
     5
 63
     7
421
 16777215
 74
     1
 91
        4
 64
     7
 65
   257
 75
     1
175
     1
 42
1.0
 92
       10
 66
     7
 43
1.0
 76
     1
 77
     6
 78
     2
 67
     7
 79
     5
170
     0
171
     0
290
     0
174
     0
 93
        1
 44
0.0
173
     0
291
     1
 45
0.0
1001
ACAD
1000
AcDbSavedByObjectVersion
1070
     0
  0
VISUALSTYLE
  5
37
102
{ACAD_XDICTIONARY
360
788
102
}
102
{ACAD_REACTORS
330
29
102
}
330
29
100
AcDbVisualStyle
  2
Linepattern
 70
    14
 71
     2
 72
     2
 73
     0
 90
        0
 40
-0.6
 41
-30.0
 62
     5
 63
     7
421
 16777215
 74
     1
 91
        4
 64
     7
 65
   257
 75
     7
175
     7
 42
1.0
 92
        8
 66
     7
 43
1.0
 76
     1
 77
     6
 78
     2
 67
     7
 79
     5
170
     0
171
     0
290
     0
174
     0
 93
        1
 44
0.0
173
     0
291
     1
 45
0.0
1001
ACAD
1000
AcDbSavedByObjectVersion
1070
     0
  0
VISUALSTYLE
  5
40
102
{ACAD_XDICTIONARY
360
79A
102
}
102
{ACAD_REACTORS
330
29
102
}
330
29
100
AcDbVisualStyle
  2
OverhangOff
 70
    21
 71
     2
 72
     2
 73
     0
 90
        0
 40
-0.6
 41
-30.0
 62
     5
 63
     7
421
 16777215
 74
     1
 91
        4
 64
     7
 65
   257
 75
     1
175
     1
 42
1.0
 92
        9
 66
     7
 43
1.0
 76
     1
 77
     6
 78
     2
 67
     7
 79
     5
170
     0
171
     0
290
     0
174
     0
 93
        1
 44
0.0
173
     0
291
     1
 45
0.0
1001
ACAD
1000
AcDbSavedByObjectVersion
1070
     0
  0
VISUALSTYLE
  5
33
102
{ACAD_XDICTIONARY
360
780
102
}
102
{ACAD_REACTORS
330
29
102
}
330
29
100
AcDbVisualStyle
  2
Realistic
 70
     8
 71
     2
 72
     3
 73
     0
 90
        2
 40
-0.6
 41
30.0
 62
     5
 63
     7
421
 16777215
 74
     0
 91
        0
 64
     7
 65
   257
 75
     1
175
     1
 42
1.0
 92
        8
 66
   257
 43
1.0
 76
     1
 77
     6
 78
     2
 67
     7
 79
     3
170
     0
171
     0
290
     0
174
     0
 93
       13
 44
0.0
173
     0
291
     0
 45
0.0
1001
ACAD
1000
AcDbSavedByObjectVersion
1070
     0
  0
VISUALSTYLE
  5
3E
102
{ACAD_XDICTIONARY
360
796
102
}
102
{ACAD_REACTORS
330
29
102
}
330
29
100
AcDbVisualStyle
  2
Shaded
 70
    27
 71
     2
 72
     2
 73
     1
 90
        2
 40
-0.6
 41
30.0
 62
     5
 63
     7
421
 16777215
 74
     0
 91
        4
 64
     7
 65
   257
 75
     1
175
     1
 42
1.0
 92
        8
 66
   257
 43
1.0
 76
     1
 77
     6
 78
     2
 67
     8
425
  7895160
 79
     3
170
     0
171
     0
290
     0
174
     0
 93
        5
 44
0.0
173
     0
291
     0
 45
0.0
1001
ACAD
1000
AcDbSavedByObjectVersion
1070
     0
  0
VISUALSTYLE
  5
3D
102
{ACAD_XDICTIONARY
360
794
102
}
102
{ACAD_REACTORS
330
29
102
}
330
29
100
AcDbVisualStyle
  2
Shaded with edges
 70
    26
 71
     2
 72
     2
 73
     1
 90
        2
 40
-0.6
 41
30.0
 62
     5
 63
     7
421
 16777215
 74
     1
 91
        2
 64
     7
 65
   257
 75
     2
175
     1
 42
1.0
 92
        8
 66
   257
 43
1.0
 76
     1
 77
     6
 78
     2
 67
     7
 79
     3
170
     0
171
     0
290
     0
174
     0
 93
        5
 44
0.0
173
     0
291
     0
 45
0.0
1001
ACAD
1000
AcDbSavedByObjectVersion
1070
     0
  0
VISUALSTYLE
  5
3A
102
{ACAD_XDICTIONARY
360
78E
102
}
102
{ACAD_REACTORS
330
29
102
}
330
29
100
AcDbVisualStyle
  2
Shades of Gray
 70
    23
 71
     2
 72
     2
 73
     3
 90
        0
 40
-0.6
 41
-30.0
 62
     5
 63
     7
421
 16777215
 74
     2
 91
        2
 64
     7
 65
     7
 75
     1
175
     1
 42
40.0
 92
        8
 66
     7
 43
1.0
 76
     1
 77
     6
 78
     2
 67
     7
 79
     3
170
     0
171
     0
290
     0
174
     0
 93
        1
 44
0.0
173
     0
291
     0
 45
0.0
1001
ACAD
1000
AcDbSavedByObjectVersion
1070
     0
  0
VISUALSTYLE
  5
3B
102
{ACAD_XDICTIONARY
360
790
102
}
102
{ACAD_REACTORS
330
29
102
}
330
29
100
AcDbVisualStyle
  2
Sketchy
 70
    24
 71
     1
 72
     2
 73
     2
 90
        0
 40
-0.6
 41
-30.0
 62
     5
 63
     7
421
 16777215
 74
     2
 91
        2
 64
     7
 65
     7
 75
     1
175
     1
 42
40.0
 92
       11
 66
     7
 43
1.0
 76
     1
 77
     6
 78
     2
 67
     7
 79
     6
170
     0
171
     0
290
     0
174
     0
 93
        1
 44
0.0
173
     0
291
     0
 45
0.0
1001
ACAD
1000
AcDbSavedByObjectVersion
1070
     0
  0
VISUALSTYLE
  5
36
102
{ACAD_XDICTIONARY
360
786
102
}
102
{ACAD_REACTORS
330
29
102
}
330
29
100
AcDbVisualStyle
  2
Thicken
 70
    13
 71
     2
 72
     2
 73
     0
 90
        0
 40
-0.6
 41
-30.0
 62
     5
 63
     7
421
 16777215
 74
     1
 91
        4
 64
     7
 65
   257
 75
     1
175
     1
 42
1.0
 92
       12
 66
     7
 43
1.0
 76
     1
 77
     6
 78
     2
 67
     7
 79
     5
170
     0
171
     0
290
     0
174
     0
 93
        1
 44
0.0
173
     0
291
     1
 45
0.0
1001
ACAD
1000
AcDbSavedByObjectVersion
1070
     0
  0
VISUALSTYLE
  5
30
102
{ACAD_XDICTIONARY
360
77A
102
}
102
{ACAD_REACTORS
330
29
102
}
330
29
100
AcDbVisualStyle
  2
Wireframe
 70
     5
 71
     0
 72
     2
 73
     0
 90
        0
 40
-0.6
 41
-30.0
 62
     5
 63
     7
421
 16777215
 74
     1
 91
        4
 64
     7
 65
   257
 75
     1
175
     1
 42
1.0
 92
        0
 66
   257
 43
1.0
 76
     1
 77
     6
 78
     2
 67
     7
 79
     3
170
     0
171
     0
290
     0
174
     0
 93
        1
 44
0.0
173
     0
291
     0
 45
0.0
1001
ACAD
1000
AcDbSavedByObjectVersion
1070
     0
  0
VISUALSTYLE
  5
3C
102
{ACAD_XDICTIONARY
360
792
102
}
102
{ACAD_REACTORS
330
29
102
}
330
29
100
AcDbVisualStyle
  2
X-Ray
 70
    25
 71
     2
 72
     2
 73
     1
 90
        1
 40
0.5
 41
-30.0
 62
     5
 63
     7
421
 16777215
 74
     1
 91
        0
 64
     7
 65
   257
 75
     1
175
     1
 42
1.0
 92
        8
 66
     7
 43
1.0
 76
     1
 77
     6
 78
     2
 67
     7
 79
     3
170
     0
171
     0
290
     0
174
     0
 93
       13
 44
0.0
173
     0
291
     0
 45
0.0
1001
ACAD
1000
AcDbSavedByObjectVersion
1070
     0
  0
DICTIONARYVAR
  5
574
102
{ACAD_REACTORS
330
56E
102
}
330
56E
100
DictionaryVariables
280
     0
  1
0
  0
DICTIONARYVAR
  5
575
102
{ACAD_REACTORS
330
56E
102
}
330
56E
100
DictionaryVariables
280
     0
  1
1:1
  0
DICTIONARYVAR
  5
570
102
{ACAD_REACTORS
330
56E
102
}
330
56E
100
DictionaryVariables
280
     0
  1
STANDARD
  0
DICTIONARYVAR
  5
56F
102
{ACAD_REACTORS
330
56E
102
}
330
56E
100
DictionaryVariables
280
     0
  1
STANDARD
  0
DICTIONARYVAR
  5
571
102
{ACAD_REACTORS
330
56E
102
}
330
56E
100
DictionaryVariables
280
     0
  1
Imperial24
  0
DICTIONARYVAR
  5
572
102
{ACAD_REACTORS
330
56E
102
}
330
56E
100
DictionaryVariables
280
     0
  1
Imperial24
  0
DICTIONARYVAR
  5
577
102
{ACAD_REACTORS
330
56E
102
}
330
56E
100
DictionaryVariables
280
     0
  1
1
  0
DICTIONARYVAR
  5
578
102
{ACAD_REACTORS
330
56E
102
}
330
56E
100
DictionaryVariables
280
     0
  1
15
  0
DICTIONARYVAR
  5
576
102
{ACAD_REACTORS
330
56E
102
}
330
56E
100
DictionaryVariables
280
     0
  1
0
  0
DICTIONARYVAR
  5
573
102
{ACAD_REACTORS
330
56E
102
}
330
56E
100
DictionaryVariables
280
     0
  1
0
  0
DICTIONARY
  5
76A
102
{ACAD_REACTORS
330
768
102
}
330
768
100
AcDbDictionary
281
     1
  0
DICTIONARY
  5
769
102
{ACAD_REACTORS
330
768
102
}
330
768
100
AcDbDictionary
281
     1
  3
3392029107760
350
763
  3
3392029107776
350
764
  3
3392029107792
350
765
  3
3392029107808
350
766
  3
3392029107824
350
767
  0
DICTIONARY
  5
7A4
330
6B
100
AcDbDictionary
280
     1
281
     1
  3
ACAD_XREC_ROUNDTRIP
360
7A5
  0
DICTIONARY
  5
7AE
330
57B
100
AcDbDictionary
280
     1
281
     1
  3
ACAD_XREC_ROUNDTRIP
360
7AF
  0
DICTIONARY
  5
1A
330
19
100
AcDbDictionary
280
     1
281
     1
  3
ACAD_XREC_ROUNDTRIP
360
76C
  3
BUMPTILE
360
1C
  3
DIFFUSETILE
360
1B
  3
OPACITYTILE
360
1F
  3
REFLECTIONTILE
360
1E
  3
REFRACTIONTILE
360
20
  3
SPECULARTILE
360
1D
  0
DICTIONARY
  5
12
330
11
100
AcDbDictionary
280
     1
281
     1
  3
ACAD_XREC_ROUNDTRIP
360
76B
  3
BUMPTILE
360
14
  3
DIFFUSETILE
360
13
  3
OPACITYTILE
360
17
  3
REFLECTIONTILE
360
16
  3
REFRACTIONTILE
360
18
  3
SPECULARTILE
360
15
  0
DICTIONARY
  5
22
330
21
100
AcDbDictionary
280
     1
281
     1
  3
ACAD_XREC_ROUNDTRIP
360
76D
  3
BUMPTILE
360
24
  3
DIFFUSETILE
360
23
  3
OPACITYTILE
360
27
  3
REFLECTIONTILE
360
26
  3
REFRACTIONTILE
360
28
  3
SPECULARTILE
360
25
  0
DICTIONARY
  5
7A0
330
67
100
AcDbDictionary
280
     1
281
     1
  3
ACAD_XREC_ROUNDTRIP
360
7A1
  0
DICTIONARY
  5
7A2
330
69
100
AcDbDictionary
280
     1
281
     1
  3
ACAD_XREC_ROUNDTRIP
360
7A3
  0
DICTIONARY
  5
7AC
330
57A
100
AcDbDictionary
280
     1
281
     1
  3
ACAD_XREC_ROUNDTRIP
360
7AD
  0
DICTIONARY
  5
759
330
65
100
AcDbDictionary
280
     1
281
     1
  3
ACAD_ROUNDTRIP_2008_TABLESTYLE_CELLSTYLEMAP
360
75A
  3
ACAD_XREC_ROUNDTRIP
360
79E
  0
DICTIONARY
  5
778
330
2F
100
AcDbDictionary
280
     1
281
     1
  3
ACAD_XREC_ROUNDTRIP
360
779
  0
DICTIONARY
  5
776
330
2E
100
AcDbDictionary
280
     1
281
     1
  3
ACAD_XREC_ROUNDTRIP
360
777
  0
DICTIONARY
  5
784
330
35
100
AcDbDictionary
280
     1
281
     1
  3
ACAD_XREC_ROUNDTRIP
360
785
  0
DICTIONARY
  5
78C
330
39
100
AcDbDictionary
280
     1
281
     1
  3
ACAD_XREC_ROUNDTRIP
360
78D
  0
DICTIONARY
  5
77E
330
32
100
AcDbDictionary
280
     1
281
     1
  3
ACAD_XREC_ROUNDTRIP
360
77F
  0
DICTIONARY
  5
782
330
34
100
AcDbDictionary
280
     1
281
     1
  3
ACAD_XREC_ROUNDTRIP
360
783
  0
DICTIONARY
  5
79C
330
41
100
AcDbDictionary
280
     1
281
     1
  3
ACAD_XREC_ROUNDTRIP
360
79D
  0
DICTIONARY
  5
78A
330
38
100
AcDbDictionary
280
     1
281
     1
  3
ACAD_XREC_ROUNDTRIP
360
78B
  0
DICTIONARY
  5
76E
330
2A
100
AcDbDictionary
280
     1
281
     1
  3
ACAD_XREC_ROUNDTRIP
360
76F
  0
DICTIONARY
  5
770
330
2B
100
AcDbDictionary
280
     1
281
     1
  3
ACAD_XREC_ROUNDTRIP
360
771
  0
DICTIONARY
  5
772
330
2C
100
AcDbDictionary
280
     1
281
     1
  3
ACAD_XREC_ROUNDTRIP
360
773
  0
DICTIONARY
  5
774
330
2D
100
AcDbDictionary
280
     1
281
     1
  3
ACAD_XREC_ROUNDTRIP
360
775
  0
DICTIONARY
  5
77C
330
31
100
AcDbDictionary
280
     1
281
     1
  3
ACAD_XREC_ROUNDTRIP
360
77D
  0
DICTIONARY
  5
798
330
3F
100
AcDbDictionary
280
     1
281
     1
  3
ACAD_XREC_ROUNDTRIP
360
799
  0
DICTIONARY
  5
788
330
37
100
AcDbDictionary
280
     1
281
     1
  3
ACAD_XREC_ROUNDTRIP
360
789
  0
DICTIONARY
  5
79A
330
40
100
AcDbDictionary
280
     1
281
     1
  3
ACAD_XREC_ROUNDTRIP
360
79B
  0
DICTIONARY
  5
780
330
33
100
AcDbDictionary
280
     1
281
     1
  3
ACAD_XREC_ROUNDTRIP
360
781
  0
DICTIONARY
  5
796
330
3E
100
AcDbDictionary
280
     1
281
     1
  3
ACAD_XREC_ROUNDTRIP
360
797
  0
DICTIONARY
  5
794
330
3D
100
AcDbDictionary
280
     1
281
     1
  3
ACAD_XREC_ROUNDTRIP
360
795
  0
DICTIONARY
  5
78E
330
3A
100
AcDbDictionary
280
     1
281
     1
  3
ACAD_XREC_ROUNDTRIP
360
78F
  0
DICTIONARY
  5
790
330
3B
100
AcDbDictionary
280
     1
281
     1
  3
ACAD_XREC_ROUNDTRIP
360
791
  0
DICTIONARY
  5
786
330
36
100
AcDbDictionary
280
     1
281
     1
  3
ACAD_XREC_ROUNDTRIP
360
787
  0
DICTIONARY
  5
77A
330
30
100
AcDbDictionary
280
     1
281
     1
  3
ACAD_XREC_ROUNDTRIP
360
77B
  0
DICTIONARY
  5
792
330
3C
100
AcDbDictionary
280
     1
281
     1
  3
ACAD_XREC_ROUNDTRIP
360
793
  0
XRECORD
  5
763
102
{ACAD_REACTORS
330
769
102
}
330
769
100
AcDbXrecord
280
     1
  1
AcDb_Thumbnail_Schema
102
{ATTRRECORD
341
764
  2
AcDbDs::TreatedAsObjectData
280
     1
291
     1
102
ATTRRECORD}
102
{ATTRRECORD
341
765
  2
AcDbDs::Legacy
280
     1
291
     1
102
ATTRRECORD}
  2
AcDbDs::ID
280
    10
 91
        8
102
{ATTRRECORD
341
766
  2
AcDs:Indexable
280
     1
291
     1
102
ATTRRECORD}
102
{ATTRRECORD
341
767
  2
AcDbDs::HandleAttribute
280
     7
282
     1
102
ATTRRECORD}
  2
Thumbnail_Data
280
    15
 91
        0
  0
XRECORD
  5
764
102
{ACAD_REACTORS
330
769
102
}
330
769
100
AcDbXrecord
280
     1
  1
AcDbDs::TreatedAsObjectDataSchema
  2
AcDbDs::TreatedAsObjectData
280
     1
 91
        0
  0
XRECORD
  5
765
102
{ACAD_REACTORS
330
769
102
}
330
769
100
AcDbXrecord
280
     1
  1
AcDbDs::LegacySchema
  2
AcDbDs::Legacy
280
     1
 91
        0
  0
XRECORD
  5
766
102
{ACAD_REACTORS
330
769
102
}
330
769
100
AcDbXrecord
280
     1
  1
AcDbDs::IndexedPropertySchema
  2
AcDs:Indexable
280
     1
 91
        0
  0
XRECORD
  5
767
102
{ACAD_REACTORS
330
769
102
}
330
769
100
AcDbXrecord
280
     1
  1
AcDbDs::HandleAttributeSchema
  2
AcDbDs::HandleAttribute
280
     7
 91
        1
284
     1
  0
XRECORD
  5
7A5
102
{ACAD_REACTORS
330
7A4
102
}
330
7A4
100
AcDbXrecord
280
     1
102
DISPLAYNAME
  1
Imperial24
102
FLAGS
 90
        0
  0
XRECORD
  5
7AF
102
{ACAD_REACTORS
330
7AE
102
}
330
7AE
100
AcDbXrecord
280
     1
102
DISPLAYNAME
  1
Metric50
102
FLAGS
 90
        0
  0
XRECORD
  5
76C
102
{ACAD_REACTORS
330
1A
102
}
330
1A
100
AcDbXrecord
280
     1
102
MATERIAL
148
0.0
149
0.0
149
0.0
 93
        0
 94
      127
282
     0
 72
     0
 77
     0
171
     0
175
     0
179
     0
273
     0
  0
XRECORD
  5
1C
102
{ACAD_REACTORS
330
1A
102
}
330
1A
100
AcDbXrecord
280
     1
270
     1
271
     1
  0
XRECORD
  5
1B
102
{ACAD_REACTORS
330
1A
102
}
330
1A
100
AcDbXrecord
280
     1
270
     1
271
     1
  0
XRECORD
  5
1F
102
{ACAD_REACTORS
330
1A
102
}
330
1A
100
AcDbXrecord
280
     1
270
     1
271
     1
  0
XRECORD
  5
1E
102
{ACAD_REACTORS
330
1A
102
}
330
1A
100
AcDbXrecord
280
     1
270
     1
271
     1
  0
XRECORD
  5
20
102
{ACAD_REACTORS
330
1A
102
}
330
1A
100
AcDbXrecord
280
     1
270
     1
271
     1
  0
XRECORD
  5
1D
102
{ACAD_REACTORS
330
1A
102
}
330
1A
100
AcDbXrecord
280
     1
270
     1
271
     1
  0
XRECORD
  5
76B
102
{ACAD_REACTORS
330
12
102
}
330
12
100
AcDbXrecord
280
     1
102
MATERIAL
148
0.0
149
0.0
149
0.0
 93
        0
 94
      127
282
     0
 72
     0
 77
     0
171
     0
175
     0
179
     0
273
     0
  0
XRECORD
  5
14
102
{ACAD_REACTORS
330
12
102
}
330
12
100
AcDbXrecord
280
     1
270
     1
271
     1
  0
XRECORD
  5
13
102
{ACAD_REACTORS
330
12
102
}
330
12
100
AcDbXrecord
280
     1
270
     1
271
     1
  0
XRECORD
  5
17
102
{ACAD_REACTORS
330
12
102
}
330
12
100
AcDbXrecord
280
     1
270
     1
271
     1
  0
XRECORD
  5
16
102
{ACAD_REACTORS
330
12
102
}
330
12
100
AcDbXrecord
280
     1
270
     1
271
     1
  0
XRECORD
  5
18
102
{ACAD_REACTORS
330
12
102
}
330
12
100
AcDbXrecord
280
     1
270
     1
271
     1
  0
XRECORD
  5
15
102
{ACAD_REACTORS
330
12
102
}
330
12
100
AcDbXrecord
280
     1
270
     1
271
     1
  0
XRECORD
  5
76D
102
{ACAD_REACTORS
330
22
102
}
330
22
100
AcDbXrecord
280
     1
102
MATERIAL
148
0.0
149
0.0
149
0.0
 93
        0
 94
      127
282
     0
 72
     0
 77
     0
171
     0
175
     0
179
     0
273
     0
  0
XRECORD
  5
24
102
{ACAD_REACTORS
330
22
102
}
330
22
100
AcDbXrecord
280
     1
270
     1
271
     1
  0
XRECORD
  5
23
102
{ACAD_REACTORS
330
22
102
}
330
22
100
AcDbXrecord
280
     1
270
     1
271
     1
  0
XRECORD
  5
27
102
{ACAD_REACTORS
330
22
102
}
330
22
100
AcDbXrecord
280
     1
270
     1
271
     1
  0
XRECORD
  5
26
102
{ACAD_REACTORS
330
22
102
}
330
22
100
AcDbXrecord
280
     1
270
     1
271
     1
  0
XRECORD
  5
28
102
{ACAD_REACTORS
330
22
102
}
330
22
100
AcDbXrecord
280
     1
270
     1
271
     1
  0
XRECORD
  5
25
102
{ACAD_REACTORS
330
22
102
}
330
22
100
AcDbXrecord
280
     1
270
     1
271
     1
  0
XRECORD
  5
7A1
102
{ACAD_REACTORS
330
7A0
102
}
330
7A0
100
AcDbXrecord
280
     1
102
ACAD_ROUNDTRIP_2012_MLEADER_STYLE
298
     1
  0
XRECORD
  5
7A3
102
{ACAD_REACTORS
330
7A2
102
}
330
7A2
100
AcDbXrecord
280
     1
102
DISPLAYNAME
  1
Imperial24
102
FLAGS
 90
        0
  0
XRECORD
  5
7AD
102
{ACAD_REACTORS
330
7AC
102
}
330
7AC
100
AcDbXrecord
280
     1
102
DISPLAYNAME
  1
Metric50
102
FLAGS
 90
        0
  0
CELLSTYLEMAP
  5
75A
102
{ACAD_REACTORS
330
759
102
}
330
759
100
AcDbCellStyleMap
 90
        3
300
CELLSTYLE
  1
TABLEFORMAT_BEGIN
 90
        5
170
     1
 91
        0
 92
    32768
 62
   257
 93
        1
300
CONTENTFORMAT
  1
CONTENTFORMAT_BEGIN
 90
        0
 91
        0
 92
        4
 93
        0
300

 40
0.0
140
1.0
 94
        5
 62
     0
340
55
144
6.0
309
CONTENTFORMAT_END
171
     1
301
MARGIN
  1
CELLMARGIN_BEGIN
 40
1.5
 40
1.5
 40
1.5
 40
1.5
 40
0.18
 40
0.18
309
CELLMARGIN_END
 94
        6
 95
        1
302
GRIDFORMAT
  1
GRIDFORMAT_BEGIN
 90
        0
 91
        1
 62
     0
 92
       -2
340
0
 93
        0
 40
0.045
309
GRIDFORMAT_END
 95
        2
302
GRIDFORMAT
  1
GRIDFORMAT_BEGIN
 90
        0
 91
        1
 62
     0
 92
       -2
340
0
 93
        0
 40
0.045
309
GRIDFORMAT_END
 95
        4
302
GRIDFORMAT
  1
GRIDFORMAT_BEGIN
 90
        0
 91
        1
 62
     0
 92
       -2
340
0
 93
        0
 40
0.045
309
GRIDFORMAT_END
 95
        8
302
GRIDFORMAT
  1
GRIDFORMAT_BEGIN
 90
        0
 91
        1
 62
     0
 92
       -2
340
0
 93
        0
 40
0.045
309
GRIDFORMAT_END
 95
       16
302
GRIDFORMAT
  1
GRIDFORMAT_BEGIN
 90
        0
 91
        1
 62
     0
 92
       -2
340
0
 93
        0
 40
0.045
309
GRIDFORMAT_END
 95
       32
302
GRIDFORMAT
  1
GRIDFORMAT_BEGIN
 90
        0
 91
        1
 62
     0
 92
       -2
340
0
 93
        0
 40
0.045
309
GRIDFORMAT_END
309
TABLEFORMAT_END
  1
CELLSTYLE_BEGIN
 90
        1
 91
        1
300
_TITLE
309
CELLSTYLE_END
300
CELLSTYLE
  1
TABLEFORMAT_BEGIN
 90
        5
170
     1
 91
        0
 92
        0
 62
   257
 93
        1
300
CONTENTFORMAT
  1
CONTENTFORMAT_BEGIN
 90
        0
 91
        0
 92
        4
 93
        0
300

 40
0.0
140
1.0
 94
        5
 62
     0
340
55
144
4.5
309
CONTENTFORMAT_END
171
     1
301
MARGIN
  1
CELLMARGIN_BEGIN
 40
1.5
 40
1.5
 40
1.5
 40
1.5
 40
0.18
 40
0.18
309
CELLMARGIN_END
 94
        6
 95
        1
302
GRIDFORMAT
  1
GRIDFORMAT_BEGIN
 90
        0
 91
        1
 62
     0
 92
       -2
340
0
 93
        0
 40
0.045
309
GRIDFORMAT_END
 95
        2
302
GRIDFORMAT
  1
GRIDFORMAT_BEGIN
 90
        0
 91
        1
 62
     0
 92
       -2
340
0
 93
        0
 40
0.045
309
GRIDFORMAT_END
 95
        4
302
GRIDFORMAT
  1
GRIDFORMAT_BEGIN
 90
        0
 91
        1
 62
     0
 92
       -2
340
0
 93
        0
 40
0.045
309
GRIDFORMAT_END
 95
        8
302
GRIDFORMAT
  1
GRIDFORMAT_BEGIN
 90
        0
 91
        1
 62
     0
 92
       -2
340
0
 93
        0
 40
0.045
309
GRIDFORMAT_END
 95
       16
302
GRIDFORMAT
  1
GRIDFORMAT_BEGIN
 90
        0
 91
        1
 62
     0
 92
       -2
340
0
 93
        0
 40
0.045
309
GRIDFORMAT_END
 95
       32
302
GRIDFORMAT
  1
GRIDFORMAT_BEGIN
 90
        0
 91
        1
 62
     0
 92
       -2
340
0
 93
        0
 40
0.045
309
GRIDFORMAT_END
309
TABLEFORMAT_END
  1
CELLSTYLE_BEGIN
 90
        2
 91
        1
300
_HEADER
309
CELLSTYLE_END
300
CELLSTYLE
  1
TABLEFORMAT_BEGIN
 90
        5
170
     1
 91
        0
 92
        0
 62
   257
 93
        1
300
CONTENTFORMAT
  1
CONTENTFORMAT_BEGIN
 90
        0
 91
        0
 92
        4
 93
        0
300

 40
0.0
140
1.0
 94
        2
 62
     0
340
55
144
4.5
309
CONTENTFORMAT_END
171
     1
301
MARGIN
  1
CELLMARGIN_BEGIN
 40
1.5
 40
1.5
 40
1.5
 40
1.5
 40
0.18
 40
0.18
309
CELLMARGIN_END
 94
        6
 95
        1
302
GRIDFORMAT
  1
GRIDFORMAT_BEGIN
 90
        0
 91
        1
 62
     0
 92
       -2
340
0
 93
        0
 40
0.045
309
GRIDFORMAT_END
 95
        2
302
GRIDFORMAT
  1
GRIDFORMAT_BEGIN
 90
        0
 91
        1
 62
     0
 92
       -2
340
0
 93
        0
 40
0.045
309
GRIDFORMAT_END
 95
        4
302
GRIDFORMAT
  1
GRIDFORMAT_BEGIN
 90
        0
 91
        1
 62
     0
 92
       -2
340
0
 93
        0
 40
0.045
309
GRIDFORMAT_END
 95
        8
302
GRIDFORMAT
  1
GRIDFORMAT_BEGIN
 90
        0
 91
        1
 62
     0
 92
       -2
340
0
 93
        0
 40
0.045
309
GRIDFORMAT_END
 95
       16
302
GRIDFORMAT
  1
GRIDFORMAT_BEGIN
 90
        0
 91
        1
 62
     0
 92
       -2
340
0
 93
        0
 40
0.045
309
GRIDFORMAT_END
 95
       32
302
GRIDFORMAT
  1
GRIDFORMAT_BEGIN
 90
        0
 91
        1
 62
     0
 92
       -2
340
0
 93
        0
 40
0.045
309
GRIDFORMAT_END
309
TABLEFORMAT_END
  1
CELLSTYLE_BEGIN
 90
        3
 91
        2
300
_DATA
309
CELLSTYLE_END
  0
XRECORD
  5
79E
102
{ACAD_REACTORS
330
759
102
}
330
759
100
AcDbXrecord
280
     1
102
ACAD_ROUNDTRIP_PRE2007_TABLESTYLE
 90
        4
 91
        0
  1

 92
        4
 93
        0
  2

 94
        4
 95
        0
  3

  0
XRECORD
  5
779
102
{ACAD_REACTORS
330
778
102
}
330
778
100
AcDbXrecord
280
     1
102
RTVSPost2010Prop28
280
     1
102
RTVSPost2010PropOp28
 70
     1
102
RTVSPost2010Prop29
280
     1
102
RTVSPost2010PropOp29
 70
     1
102
RTVSPost2010Prop30
280
     0
102
RTVSPost2010PropOp30
 70
     1
102
RTVSPost2010Prop31
280
     0
102
RTVSPost2010PropOp31
 70
     1
102
RTVSPost2010Prop32
280
     0
102
RTVSPost2010PropOp32
 70
     1
102
RTVSPost2010Prop33
280
     0
102
RTVSPost2010PropOp33
 70
     1
102
RTVSPost2010Prop34
280
     0
102
RTVSPost2010PropOp34
 70
     1
102
RTVSPost2010Prop35
280
     0
102
RTVSPost2010PropOp35
 70
     1
102
RTVSPost2010Prop36
280
     0
102
RTVSPost2010PropOp36
 70
     1
102
RTVSPost2010Prop37
 90
       50
102
RTVSPost2010PropOp37
 70
     1
102
RTVSPost2010Prop38
140
0.0
102
RTVSPost2010PropOp38
 70
     1
102
RTVSPost2010Prop39
140
1.0
102
RTVSPost2010PropOp39
 70
     1
102
RTVSPost2010Prop40
 90
        0
102
RTVSPost2010PropOp40
 70
     1
102
RTVSPost2010Prop41ColorIndex
 90
       18
102
RTVSPost2010Prop41ColorRGB
 90
        0
102
RTVSPost2010PropOp41
 70
     1
102
RTVSPost2010Prop42
 90
       50
102
RTVSPost2010PropOp42
 70
     1
102
RTVSPost2010Prop43
 90
        3
102
RTVSPost2010PropOp43
 70
     1
102
RTVSPost2010Prop44ColorIndex
 90
        5
102
RTVSPost2010Prop44ColorRGB
 90
      255
102
RTVSPost2010PropOp44
 70
     1
102
RTVSPost2010Prop45
280
     0
102
RTVSPost2010PropOp45
 70
     1
102
RTVSPost2010Prop46
 90
       50
102
RTVSPost2010PropOp46
 70
     1
102
RTVSPost2010Prop47
 90
       50
102
RTVSPost2010PropOp47
 70
     1
102
RTVSPost2010Prop48
 90
       50
102
RTVSPost2010PropOp48
 70
     1
102
RTVSPost2010Prop49
280
     0
102
RTVSPost2010PropOp49
 70
     1
102
RTVSPost2010Prop50
 90
       50
102
RTVSPost2010PropOp50
 70
     1
102
RTVSPost2010Prop51ColorIndex
 90
      256
102
RTVSPost2010Prop51ColorRGB
 90
-16777216
102
RTVSPost2010PropOp51
 70
     0
102
RTVSPost2010Prop52
140
1.0
102
RTVSPost2010PropOp52
 70
     0
102
RTVSPost2010Prop53
 90
        2
102
RTVSPost2010PropOp53
 70
     1
102
RTVSPost2010Prop54
  1
strokes_ogs.tif
102
RTVSPost2010PropOp54
 70
     1
102
RTVSPost2010Prop55
280
     0
102
RTVSPost2010PropOp55
 70
     1
102
RTVSPost2010Prop56
140
1.0
102
RTVSPost2010PropOp56
 70
     1
102
RTVSPost2010Prop57
140
1.0
102
RTVSPost2010PropOp57
 70
     1
102
RTVSPropertyOp0
 70
     1
102
RTVSPropertyOp1
 70
     1
102
RTVSPropertyOp2
 70
     1
102
RTVSPropertyOp3
 70
     1
102
RTVSPropertyOp4
 70
     1
102
RTVSPropertyOp5
 70
     1
102
RTVSPropertyOp6
 70
     1
102
RTVSPropertyOp7
 70
     1
102
RTVSPropertyOp8
 70
     1
102
RTVSPropertyOp9
 70
     1
102
RTVSPropertyOp10
 70
     1
102
RTVSPropertyOp11
 70
     1
102
RTVSPropertyOp12
 70
     1
102
RTVSPropertyOp13
 70
     1
102
RTVSPropertyOp14
 70
     1
102
RTVSPropertyOp15
 70
     1
102
RTVSPropertyOp16
 70
     1
102
RTVSPropertyOp17
 70
     1
102
RTVSPropertyOp18
 70
     1
102
RTVSPropertyOp19
 70
     1
102
RTVSPropertyOp20
 70
     1
102
RTVSPropertyOp21
 70
     1
102
RTVSPropertyOp22
 70
     1
102
RTVSPropertyOp23
 70
     1
102
RTVSPropertyOp24
 70
     1
102
RTVSPropertyOp25
 70
     1
102
RTVSPropertyOp26
 70
     1
102
RTVSPropertyOp27
 70
     1
102
RTVSPropertyOp28
 70
     1
102
RTVSPropertyOp29
 70
     1
102
RTVSPropertyOp30
 70
     1
102
RTVSPropertyOp31
 70
     1
102
RTVSPropertyOp32
 70
     1
102
RTVSPropertyOp33
 70
     1
102
RTVSPropertyOp34
 70
     1
102
RTVSPropertyOp35
 70
     1
102
RTVSPropertyOp36
 70
     1
102
RTVSPropertyOp37
 70
     1
102
RTVSPropertyOp38
 70
     1
102
RTVSPropertyOp39
 70
     1
102
RTVSPropertyOp40
 70
     1
102
RTVSPropertyOp41
 70
     1
102
RTVSPropertyOp42
 70
     1
102
RTVSPropertyOp43
 70
     1
102
RTVSPropertyOp44
 70
     1
102
RTVSPropertyOp45
 70
     1
102
RTVSPropertyOp46
 70
     1
102
RTVSPropertyOp47
 70
     1
102
RTVSPropertyOp48
 70
     1
102
RTVSPropertyOp49
 70
     1
102
RTVSPropertyOp50
 70
     1
102
RTVSPropertyOp51
 70
     0
102
RTVSPropertyOp52
 70
     0
102
RTVSPropertyOp53
 70
     1
102
RTVSPropertyOp54
 70
     1
102
RTVSPropertyOp55
 70
     1
102
RTVSPropertyOp56
 70
     1
102
RTVSPropertyOp57
 70
     1
102
RTVSPropertyOp58
 70
     1
102
RTVSPropertyOp59
 70
     1
102
RTVSPropertyOp60
 70
     1
102
RTVSPropertyOp61
 70
     1
102
RTVSPropertyOp62
 70
     1
  0
XRECORD
  5
777
102
{ACAD_REACTORS
330
776
102
}
330
776
100
AcDbXrecord
280
     1
102
RTVSPost2010Prop28
280
     0
102
RTVSPost2010PropOp28
 70
     1
102
RTVSPost2010Prop29
280
     1
102
RTVSPost2010PropOp29
 70
     1
102
RTVSPost2010Prop30
280
     1
102
RTVSPost2010PropOp30
 70
     1
102
RTVSPost2010Prop31
280
     0
102
RTVSPost2010PropOp31
 70
     1
102
RTVSPost2010Prop32
280
     0
102
RTVSPost2010PropOp32
 70
     1
102
RTVSPost2010Prop33
280
     0
102
RTVSPost2010PropOp33
 70
     1
102
RTVSPost2010Prop34
280
     0
102
RTVSPost2010PropOp34
 70
     1
102
RTVSPost2010Prop35
280
     0
102
RTVSPost2010PropOp35
 70
     1
102
RTVSPost2010Prop36
280
     0
102
RTVSPost2010PropOp36
 70
     1
102
RTVSPost2010Prop37
 90
       50
102
RTVSPost2010PropOp37
 70
     1
102
RTVSPost2010Prop38
140
0.0
102
RTVSPost2010PropOp38
 70
     1
102
RTVSPost2010Prop39
140
1.0
102
RTVSPost2010PropOp39
 70
     1
102
RTVSPost2010Prop40
 90
        0
102
RTVSPost2010PropOp40
 70
     1
102
RTVSPost2010Prop41ColorIndex
 90
       18
102
RTVSPost2010Prop41ColorRGB
 90
        0
102
RTVSPost2010PropOp41
 70
     1
102
RTVSPost2010Prop42
 90
       50
102
RTVSPost2010PropOp42
 70
     1
102
RTVSPost2010Prop43
 90
        3
102
RTVSPost2010PropOp43
 70
     1
102
RTVSPost2010Prop44ColorIndex
 90
        5
102
RTVSPost2010Prop44ColorRGB
 90
      255
102
RTVSPost2010PropOp44
 70
     1
102
RTVSPost2010Prop45
280
     0
102
RTVSPost2010PropOp45
 70
     1
102
RTVSPost2010Prop46
 90
       50
102
RTVSPost2010PropOp46
 70
     1
102
RTVSPost2010Prop47
 90
       50
102
RTVSPost2010PropOp47
 70
     1
102
RTVSPost2010Prop48
 90
       50
102
RTVSPost2010PropOp48
 70
     1
102
RTVSPost2010Prop49
280
     0
102
RTVSPost2010PropOp49
 70
     1
102
RTVSPost2010Prop50
 90
       50
102
RTVSPost2010PropOp50
 70
     1
102
RTVSPost2010Prop51ColorIndex
 90
      256
102
RTVSPost2010Prop51ColorRGB
 90
-16777216
102
RTVSPost2010PropOp51
 70
     0
102
RTVSPost2010Prop52
140
1.0
102
RTVSPost2010PropOp52
 70
     0
102
RTVSPost2010Prop53
 90
        2
102
RTVSPost2010PropOp53
 70
     1
102
RTVSPost2010Prop54
  1
strokes_ogs.tif
102
RTVSPost2010PropOp54
 70
     1
102
RTVSPost2010Prop55
280
     0
102
RTVSPost2010PropOp55
 70
     1
102
RTVSPost2010Prop56
140
1.0
102
RTVSPost2010PropOp56
 70
     1
102
RTVSPost2010Prop57
140
1.0
102
RTVSPost2010PropOp57
 70
     1
102
RTVSPropertyOp0
 70
     1
102
RTVSPropertyOp1
 70
     1
102
RTVSPropertyOp2
 70
     1
102
RTVSPropertyOp3
 70
     1
102
RTVSPropertyOp4
 70
     1
102
RTVSPropertyOp5
 70
     1
102
RTVSPropertyOp6
 70
     1
102
RTVSPropertyOp7
 70
     1
102
RTVSPropertyOp8
 70
     1
102
RTVSPropertyOp9
 70
     1
102
RTVSPropertyOp10
 70
     1
102
RTVSPropertyOp11
 70
     1
102
RTVSPropertyOp12
 70
     1
102
RTVSPropertyOp13
 70
     1
102
RTVSPropertyOp14
 70
     1
102
RTVSPropertyOp15
 70
     1
102
RTVSPropertyOp16
 70
     1
102
RTVSPropertyOp17
 70
     1
102
RTVSPropertyOp18
 70
     1
102
RTVSPropertyOp19
 70
     1
102
RTVSPropertyOp20
 70
     1
102
RTVSPropertyOp21
 70
     1
102
RTVSPropertyOp22
 70
     1
102
RTVSPropertyOp23
 70
     1
102
RTVSPropertyOp24
 70
     1
102
RTVSPropertyOp25
 70
     1
102
RTVSPropertyOp26
 70
     1
102
RTVSPropertyOp27
 70
     1
102
RTVSPropertyOp28
 70
     1
102
RTVSPropertyOp29
 70
     1
102
RTVSPropertyOp30
 70
     1
102
RTVSPropertyOp31
 70
     1
102
RTVSPropertyOp32
 70
     1
102
RTVSPropertyOp33
 70
     1
102
RTVSPropertyOp34
 70
     1
102
RTVSPropertyOp35
 70
     1
102
RTVSPropertyOp36
 70
     1
102
RTVSPropertyOp37
 70
     1
102
RTVSPropertyOp38
 70
     1
102
RTVSPropertyOp39
 70
     1
102
RTVSPropertyOp40
 70
     1
102
RTVSPropertyOp41
 70
     1
102
RTVSPropertyOp42
 70
     1
102
RTVSPropertyOp43
 70
     1
102
RTVSPropertyOp44
 70
     1
102
RTVSPropertyOp45
 70
     1
102
RTVSPropertyOp46
 70
     1
102
RTVSPropertyOp47
 70
     1
102
RTVSPropertyOp48
 70
     1
102
RTVSPropertyOp49
 70
     1
102
RTVSPropertyOp50
 70
     1
102
RTVSPropertyOp51
 70
     0
102
RTVSPropertyOp52
 70
     0
102
RTVSPropertyOp53
 70
     1
102
RTVSPropertyOp54
 70
     1
102
RTVSPropertyOp55
 70
     1
102
RTVSPropertyOp56
 70
     1
102
RTVSPropertyOp57
 70
     1
102
RTVSPropertyOp58
 70
     1
102
RTVSPropertyOp59
 70
     1
102
RTVSPropertyOp60
 70
     1
102
RTVSPropertyOp61
 70
     1
102
RTVSPropertyOp62
 70
     1
  0
XRECORD
  5
785
102
{ACAD_REACTORS
330
784
102
}
330
784
100
AcDbXrecord
280
     1
102
RTVSPost2010Prop28
280
     0
102
RTVSPost2010PropOp28
 70
     1
102
RTVSPost2010Prop29
280
     1
102
RTVSPost2010PropOp29
 70
     1
102
RTVSPost2010Prop30
280
     1
102
RTVSPost2010PropOp30
 70
     1
102
RTVSPost2010Prop31
280
     0
102
RTVSPost2010PropOp31
 70
     1
102
RTVSPost2010Prop32
280
     0
102
RTVSPost2010PropOp32
 70
     1
102
RTVSPost2010Prop33
280
     0
102
RTVSPost2010PropOp33
 70
     1
102
RTVSPost2010Prop34
280
     0
102
RTVSPost2010PropOp34
 70
     1
102
RTVSPost2010Prop35
280
     0
102
RTVSPost2010PropOp35
 70
     1
102
RTVSPost2010Prop36
280
     0
102
RTVSPost2010PropOp36
 70
     1
102
RTVSPost2010Prop37
 90
       50
102
RTVSPost2010PropOp37
 70
     1
102
RTVSPost2010Prop38
140
0.0
102
RTVSPost2010PropOp38
 70
     1
102
RTVSPost2010Prop39
140
1.0
102
RTVSPost2010PropOp39
 70
     1
102
RTVSPost2010Prop40
 90
        0
102
RTVSPost2010PropOp40
 70
     1
102
RTVSPost2010Prop41ColorIndex
 90
       18
102
RTVSPost2010Prop41ColorRGB
 90
        0
102
RTVSPost2010PropOp41
 70
     1
102
RTVSPost2010Prop42
 90
       50
102
RTVSPost2010PropOp42
 70
     1
102
RTVSPost2010Prop43
 90
        3
102
RTVSPost2010PropOp43
 70
     1
102
RTVSPost2010Prop44ColorIndex
 90
        5
102
RTVSPost2010Prop44ColorRGB
 90
      255
102
RTVSPost2010PropOp44
 70
     1
102
RTVSPost2010Prop45
280
     0
102
RTVSPost2010PropOp45
 70
     1
102
RTVSPost2010Prop46
 90
       50
102
RTVSPost2010PropOp46
 70
     1
102
RTVSPost2010Prop47
 90
       50
102
RTVSPost2010PropOp47
 70
     1
102
RTVSPost2010Prop48
 90
       50
102
RTVSPost2010PropOp48
 70
     1
102
RTVSPost2010Prop49
280
     0
102
RTVSPost2010PropOp49
 70
     1
102
RTVSPost2010Prop50
 90
       50
102
RTVSPost2010PropOp50
 70
     1
102
RTVSPost2010Prop51ColorIndex
 90
      256
102
RTVSPost2010Prop51ColorRGB
 90
-16777216
102
RTVSPost2010PropOp51
 70
     0
102
RTVSPost2010Prop52
140
1.0
102
RTVSPost2010PropOp52
 70
     0
102
RTVSPost2010Prop53
 90
        2
102
RTVSPost2010PropOp53
 70
     1
102
RTVSPost2010Prop54
  1
strokes_ogs.tif
102
RTVSPost2010PropOp54
 70
     1
102
RTVSPost2010Prop55
280
     0
102
RTVSPost2010PropOp55
 70
     1
102
RTVSPost2010Prop56
140
1.0
102
RTVSPost2010PropOp56
 70
     1
102
RTVSPost2010Prop57
140
1.0
102
RTVSPost2010PropOp57
 70
     1
102
RTVSPropertyOp0
 70
     1
102
RTVSPropertyOp1
 70
     1
102
RTVSPropertyOp2
 70
     1
102
RTVSPropertyOp3
 70
     1
102
RTVSPropertyOp4
 70
     1
102
RTVSPropertyOp5
 70
     1
102
RTVSPropertyOp6
 70
     1
102
RTVSPropertyOp7
 70
     1
102
RTVSPropertyOp8
 70
     1
102
RTVSPropertyOp9
 70
     1
102
RTVSPropertyOp10
 70
     1
102
RTVSPropertyOp11
 70
     1
102
RTVSPropertyOp12
 70
     1
102
RTVSPropertyOp13
 70
     1
102
RTVSPropertyOp14
 70
     1
102
RTVSPropertyOp15
 70
     1
102
RTVSPropertyOp16
 70
     1
102
RTVSPropertyOp17
 70
     1
102
RTVSPropertyOp18
 70
     1
102
RTVSPropertyOp19
 70
     1
102
RTVSPropertyOp20
 70
     1
102
RTVSPropertyOp21
 70
     1
102
RTVSPropertyOp22
 70
     1
102
RTVSPropertyOp23
 70
     1
102
RTVSPropertyOp24
 70
     1
102
RTVSPropertyOp25
 70
     1
102
RTVSPropertyOp26
 70
     1
102
RTVSPropertyOp27
 70
     1
102
RTVSPropertyOp28
 70
     1
102
RTVSPropertyOp29
 70
     1
102
RTVSPropertyOp30
 70
     1
102
RTVSPropertyOp31
 70
     1
102
RTVSPropertyOp32
 70
     1
102
RTVSPropertyOp33
 70
     1
102
RTVSPropertyOp34
 70
     1
102
RTVSPropertyOp35
 70
     1
102
RTVSPropertyOp36
 70
     1
102
RTVSPropertyOp37
 70
     1
102
RTVSPropertyOp38
 70
     1
102
RTVSPropertyOp39
 70
     1
102
RTVSPropertyOp40
 70
     1
102
RTVSPropertyOp41
 70
     1
102
RTVSPropertyOp42
 70
     1
102
RTVSPropertyOp43
 70
     1
102
RTVSPropertyOp44
 70
     1
102
RTVSPropertyOp45
 70
     1
102
RTVSPropertyOp46
 70
     1
102
RTVSPropertyOp47
 70
     1
102
RTVSPropertyOp48
 70
     1
102
RTVSPropertyOp49
 70
     1
102
RTVSPropertyOp50
 70
     1
102
RTVSPropertyOp51
 70
     0
102
RTVSPropertyOp52
 70
     0
102
RTVSPropertyOp53
 70
     1
102
RTVSPropertyOp54
 70
     1
102
RTVSPropertyOp55
 70
     1
102
RTVSPropertyOp56
 70
     1
102
RTVSPropertyOp57
 70
     1
102
RTVSPropertyOp58
 70
     1
102
RTVSPropertyOp59
 70
     1
102
RTVSPropertyOp60
 70
     1
102
RTVSPropertyOp61
 70
     1
102
RTVSPropertyOp62
 70
     1
  0
XRECORD
  5
78D
102
{ACAD_REACTORS
330
78C
102
}
330
78C
100
AcDbXrecord
280
     1
102
RTVSPost2010Prop28
280
     0
102
RTVSPost2010PropOp28
 70
     1
102
RTVSPost2010Prop29
280
     1
102
RTVSPost2010PropOp29
 70
     1
102
RTVSPost2010Prop30
280
     1
102
RTVSPost2010PropOp30
 70
     1
102
RTVSPost2010Prop31
280
     0
102
RTVSPost2010PropOp31
 70
     1
102
RTVSPost2010Prop32
280
     0
102
RTVSPost2010PropOp32
 70
     1
102
RTVSPost2010Prop33
280
     0
102
RTVSPost2010PropOp33
 70
     1
102
RTVSPost2010Prop34
280
     0
102
RTVSPost2010PropOp34
 70
     1
102
RTVSPost2010Prop35
280
     0
102
RTVSPost2010PropOp35
 70
     1
102
RTVSPost2010Prop36
280
     0
102
RTVSPost2010PropOp36
 70
     1
102
RTVSPost2010Prop37
 90
       50
102
RTVSPost2010PropOp37
 70
     1
102
RTVSPost2010Prop38
140
0.0
102
RTVSPost2010PropOp38
 70
     1
102
RTVSPost2010Prop39
140
1.0
102
RTVSPost2010PropOp39
 70
     1
102
RTVSPost2010Prop40
 90
        0
102
RTVSPost2010PropOp40
 70
     1
102
RTVSPost2010Prop41ColorIndex
 90
       18
102
RTVSPost2010Prop41ColorRGB
 90
        0
102
RTVSPost2010PropOp41
 70
     1
102
RTVSPost2010Prop42
 90
       50
102
RTVSPost2010PropOp42
 70
     1
102
RTVSPost2010Prop43
 90
        3
102
RTVSPost2010PropOp43
 70
     1
102
RTVSPost2010Prop44ColorIndex
 90
        5
102
RTVSPost2010Prop44ColorRGB
 90
      255
102
RTVSPost2010PropOp44
 70
     1
102
RTVSPost2010Prop45
280
     0
102
RTVSPost2010PropOp45
 70
     1
102
RTVSPost2010Prop46
 90
       50
102
RTVSPost2010PropOp46
 70
     1
102
RTVSPost2010Prop47
 90
       50
102
RTVSPost2010PropOp47
 70
     1
102
RTVSPost2010Prop48
 90
       50
102
RTVSPost2010PropOp48
 70
     1
102
RTVSPost2010Prop49
280
     0
102
RTVSPost2010PropOp49
 70
     1
102
RTVSPost2010Prop50
 90
       50
102
RTVSPost2010PropOp50
 70
     1
102
RTVSPost2010Prop51ColorIndex
 90
      256
102
RTVSPost2010Prop51ColorRGB
 90
-16777216
102
RTVSPost2010PropOp51
 70
     0
102
RTVSPost2010Prop52
140
1.0
102
RTVSPost2010PropOp52
 70
     0
102
RTVSPost2010Prop53
 90
        2
102
RTVSPost2010PropOp53
 70
     1
102
RTVSPost2010Prop54
  1
strokes_ogs.tif
102
RTVSPost2010PropOp54
 70
     1
102
RTVSPost2010Prop55
280
     0
102
RTVSPost2010PropOp55
 70
     1
102
RTVSPost2010Prop56
140
1.0
102
RTVSPost2010PropOp56
 70
     1
102
RTVSPost2010Prop57
140
1.0
102
RTVSPost2010PropOp57
 70
     1
102
RTVSPropertyOp0
 70
     1
102
RTVSPropertyOp1
 70
     1
102
RTVSPropertyOp2
 70
     1
102
RTVSPropertyOp3
 70
     1
102
RTVSPropertyOp4
 70
     1
102
RTVSPropertyOp5
 70
     1
102
RTVSPropertyOp6
 70
     1
102
RTVSPropertyOp7
 70
     1
102
RTVSPropertyOp8
 70
     1
102
RTVSPropertyOp9
 70
     1
102
RTVSPropertyOp10
 70
     1
102
RTVSPropertyOp11
 70
     1
102
RTVSPropertyOp12
 70
     1
102
RTVSPropertyOp13
 70
     1
102
RTVSPropertyOp14
 70
     1
102
RTVSPropertyOp15
 70
     1
102
RTVSPropertyOp16
 70
     1
102
RTVSPropertyOp17
 70
     1
102
RTVSPropertyOp18
 70
     1
102
RTVSPropertyOp19
 70
     1
102
RTVSPropertyOp20
 70
     1
102
RTVSPropertyOp21
 70
     1
102
RTVSPropertyOp22
 70
     1
102
RTVSPropertyOp23
 70
     1
102
RTVSPropertyOp24
 70
     1
102
RTVSPropertyOp25
 70
     1
102
RTVSPropertyOp26
 70
     1
102
RTVSPropertyOp27
 70
     1
102
RTVSPropertyOp28
 70
     1
102
RTVSPropertyOp29
 70
     1
102
RTVSPropertyOp30
 70
     1
102
RTVSPropertyOp31
 70
     1
102
RTVSPropertyOp32
 70
     1
102
RTVSPropertyOp33
 70
     1
102
RTVSPropertyOp34
 70
     1
102
RTVSPropertyOp35
 70
     1
102
RTVSPropertyOp36
 70
     1
102
RTVSPropertyOp37
 70
     1
102
RTVSPropertyOp38
 70
     1
102
RTVSPropertyOp39
 70
     1
102
RTVSPropertyOp40
 70
     1
102
RTVSPropertyOp41
 70
     1
102
RTVSPropertyOp42
 70
     1
102
RTVSPropertyOp43
 70
     1
102
RTVSPropertyOp44
 70
     1
102
RTVSPropertyOp45
 70
     1
102
RTVSPropertyOp46
 70
     1
102
RTVSPropertyOp47
 70
     1
102
RTVSPropertyOp48
 70
     1
102
RTVSPropertyOp49
 70
     1
102
RTVSPropertyOp50
 70
     1
102
RTVSPropertyOp51
 70
     0
102
RTVSPropertyOp52
 70
     0
102
RTVSPropertyOp53
 70
     1
102
RTVSPropertyOp54
 70
     1
102
RTVSPropertyOp55
 70
     1
102
RTVSPropertyOp56
 70
     1
102
RTVSPropertyOp57
 70
     1
102
RTVSPropertyOp58
 70
     1
102
RTVSPropertyOp59
 70
     1
102
RTVSPropertyOp60
 70
     1
102
RTVSPropertyOp61
 70
     1
102
RTVSPropertyOp62
 70
     1
  0
XRECORD
  5
77F
102
{ACAD_REACTORS
330
77E
102
}
330
77E
100
AcDbXrecord
280
     1
102
RTVSPost2010Prop28
280
     0
102
RTVSPost2010PropOp28
 70
     1
102
RTVSPost2010Prop29
280
     1
102
RTVSPost2010PropOp29
 70
     1
102
RTVSPost2010Prop30
280
     1
102
RTVSPost2010PropOp30
 70
     1
102
RTVSPost2010Prop31
280
     0
102
RTVSPost2010PropOp31
 70
     1
102
RTVSPost2010Prop32
280
     0
102
RTVSPost2010PropOp32
 70
     1
102
RTVSPost2010Prop33
280
     0
102
RTVSPost2010PropOp33
 70
     1
102
RTVSPost2010Prop34
280
     0
102
RTVSPost2010PropOp34
 70
     1
102
RTVSPost2010Prop35
280
     0
102
RTVSPost2010PropOp35
 70
     1
102
RTVSPost2010Prop36
280
     0
102
RTVSPost2010PropOp36
 70
     1
102
RTVSPost2010Prop37
 90
       50
102
RTVSPost2010PropOp37
 70
     1
102
RTVSPost2010Prop38
140
0.0
102
RTVSPost2010PropOp38
 70
     1
102
RTVSPost2010Prop39
140
1.0
102
RTVSPost2010PropOp39
 70
     1
102
RTVSPost2010Prop40
 90
        0
102
RTVSPost2010PropOp40
 70
     1
102
RTVSPost2010Prop41ColorIndex
 90
       18
102
RTVSPost2010Prop41ColorRGB
 90
        0
102
RTVSPost2010PropOp41
 70
     1
102
RTVSPost2010Prop42
 90
       50
102
RTVSPost2010PropOp42
 70
     1
102
RTVSPost2010Prop43
 90
        3
102
RTVSPost2010PropOp43
 70
     1
102
RTVSPost2010Prop44ColorIndex
 90
        5
102
RTVSPost2010Prop44ColorRGB
 90
      255
102
RTVSPost2010PropOp44
 70
     1
102
RTVSPost2010Prop45
280
     0
102
RTVSPost2010PropOp45
 70
     1
102
RTVSPost2010Prop46
 90
       50
102
RTVSPost2010PropOp46
 70
     1
102
RTVSPost2010Prop47
 90
       50
102
RTVSPost2010PropOp47
 70
     1
102
RTVSPost2010Prop48
 90
       50
102
RTVSPost2010PropOp48
 70
     1
102
RTVSPost2010Prop49
280
     0
102
RTVSPost2010PropOp49
 70
     1
102
RTVSPost2010Prop50
 90
       50
102
RTVSPost2010PropOp50
 70
     1
102
RTVSPost2010Prop51ColorIndex
 90
      256
102
RTVSPost2010Prop51ColorRGB
 90
-16777216
102
RTVSPost2010PropOp51
 70
     0
102
RTVSPost2010Prop52
140
1.0
102
RTVSPost2010PropOp52
 70
     0
102
RTVSPost2010Prop53
 90
        2
102
RTVSPost2010PropOp53
 70
     1
102
RTVSPost2010Prop54
  1
strokes_ogs.tif
102
RTVSPost2010PropOp54
 70
     1
102
RTVSPost2010Prop55
280
     0
102
RTVSPost2010PropOp55
 70
     1
102
RTVSPost2010Prop56
140
1.0
102
RTVSPost2010PropOp56
 70
     1
102
RTVSPost2010Prop57
140
1.0
102
RTVSPost2010PropOp57
 70
     1
102
RTVSPropertyOp0
 70
     1
102
RTVSPropertyOp1
 70
     1
102
RTVSPropertyOp2
 70
     1
102
RTVSPropertyOp3
 70
     1
102
RTVSPropertyOp4
 70
     1
102
RTVSPropertyOp5
 70
     1
102
RTVSPropertyOp6
 70
     1
102
RTVSPropertyOp7
 70
     1
102
RTVSPropertyOp8
 70
     1
102
RTVSPropertyOp9
 70
     1
102
RTVSPropertyOp10
 70
     1
102
RTVSPropertyOp11
 70
     1
102
RTVSPropertyOp12
 70
     1
102
RTVSPropertyOp13
 70
     1
102
RTVSPropertyOp14
 70
     1
102
RTVSPropertyOp15
 70
     1
102
RTVSPropertyOp16
 70
     1
102
RTVSPropertyOp17
 70
     1
102
RTVSPropertyOp18
 70
     1
102
RTVSPropertyOp19
 70
     1
102
RTVSPropertyOp20
 70
     1
102
RTVSPropertyOp21
 70
     1
102
RTVSPropertyOp22
 70
     1
102
RTVSPropertyOp23
 70
     1
102
RTVSPropertyOp24
 70
     1
102
RTVSPropertyOp25
 70
     1
102
RTVSPropertyOp26
 70
     1
102
RTVSPropertyOp27
 70
     1
102
RTVSPropertyOp28
 70
     1
102
RTVSPropertyOp29
 70
     1
102
RTVSPropertyOp30
 70
     1
102
RTVSPropertyOp31
 70
     1
102
RTVSPropertyOp32
 70
     1
102
RTVSPropertyOp33
 70
     1
102
RTVSPropertyOp34
 70
     1
102
RTVSPropertyOp35
 70
     1
102
RTVSPropertyOp36
 70
     1
102
RTVSPropertyOp37
 70
     1
102
RTVSPropertyOp38
 70
     1
102
RTVSPropertyOp39
 70
     1
102
RTVSPropertyOp40
 70
     1
102
RTVSPropertyOp41
 70
     1
102
RTVSPropertyOp42
 70
     1
102
RTVSPropertyOp43
 70
     1
102
RTVSPropertyOp44
 70
     1
102
RTVSPropertyOp45
 70
     1
102
RTVSPropertyOp46
 70
     1
102
RTVSPropertyOp47
 70
     1
102
RTVSPropertyOp48
 70
     1
102
RTVSPropertyOp49
 70
     1
102
RTVSPropertyOp50
 70
     1
102
RTVSPropertyOp51
 70
     0
102
RTVSPropertyOp52
 70
     0
102
RTVSPropertyOp53
 70
     1
102
RTVSPropertyOp54
 70
     1
102
RTVSPropertyOp55
 70
     1
102
RTVSPropertyOp56
 70
     1
102
RTVSPropertyOp57
 70
     1
102
RTVSPropertyOp58
 70
     1
102
RTVSPropertyOp59
 70
     1
102
RTVSPropertyOp60
 70
     1
102
RTVSPropertyOp61
 70
     1
102
RTVSPropertyOp62
 70
     1
  0
XRECORD
  5
783
102
{ACAD_REACTORS
330
782
102
}
330
782
100
AcDbXrecord
280
     1
102
RTVSPost2010Prop28
280
     0
102
RTVSPost2010PropOp28
 70
     1
102
RTVSPost2010Prop29
280
     1
102
RTVSPost2010PropOp29
 70
     1
102
RTVSPost2010Prop30
280
     1
102
RTVSPost2010PropOp30
 70
     1
102
RTVSPost2010Prop31
280
     0
102
RTVSPost2010PropOp31
 70
     1
102
RTVSPost2010Prop32
280
     0
102
RTVSPost2010PropOp32
 70
     1
102
RTVSPost2010Prop33
280
     0
102
RTVSPost2010PropOp33
 70
     1
102
RTVSPost2010Prop34
280
     0
102
RTVSPost2010PropOp34
 70
     1
102
RTVSPost2010Prop35
280
     0
102
RTVSPost2010PropOp35
 70
     1
102
RTVSPost2010Prop36
280
     0
102
RTVSPost2010PropOp36
 70
     1
102
RTVSPost2010Prop37
 90
       50
102
RTVSPost2010PropOp37
 70
     1
102
RTVSPost2010Prop38
140
0.0
102
RTVSPost2010PropOp38
 70
     1
102
RTVSPost2010Prop39
140
1.0
102
RTVSPost2010PropOp39
 70
     1
102
RTVSPost2010Prop40
 90
        0
102
RTVSPost2010PropOp40
 70
     1
102
RTVSPost2010Prop41ColorIndex
 90
       18
102
RTVSPost2010Prop41ColorRGB
 90
        0
102
RTVSPost2010PropOp41
 70
     1
102
RTVSPost2010Prop42
 90
       50
102
RTVSPost2010PropOp42
 70
     1
102
RTVSPost2010Prop43
 90
        3
102
RTVSPost2010PropOp43
 70
     1
102
RTVSPost2010Prop44ColorIndex
 90
        5
102
RTVSPost2010Prop44ColorRGB
 90
      255
102
RTVSPost2010PropOp44
 70
     1
102
RTVSPost2010Prop45
280
     0
102
RTVSPost2010PropOp45
 70
     1
102
RTVSPost2010Prop46
 90
       50
102
RTVSPost2010PropOp46
 70
     1
102
RTVSPost2010Prop47
 90
       50
102
RTVSPost2010PropOp47
 70
     1
102
RTVSPost2010Prop48
 90
       50
102
RTVSPost2010PropOp48
 70
     1
102
RTVSPost2010Prop49
280
     0
102
RTVSPost2010PropOp49
 70
     1
102
RTVSPost2010Prop50
 90
       50
102
RTVSPost2010PropOp50
 70
     1
102
RTVSPost2010Prop51ColorIndex
 90
      256
102
RTVSPost2010Prop51ColorRGB
 90
-16777216
102
RTVSPost2010PropOp51
 70
     0
102
RTVSPost2010Prop52
140
1.0
102
RTVSPost2010PropOp52
 70
     0
102
RTVSPost2010Prop53
 90
        2
102
RTVSPost2010PropOp53
 70
     1
102
RTVSPost2010Prop54
  1
strokes_ogs.tif
102
RTVSPost2010PropOp54
 70
     1
102
RTVSPost2010Prop55
280
     0
102
RTVSPost2010PropOp55
 70
     1
102
RTVSPost2010Prop56
140
1.0
102
RTVSPost2010PropOp56
 70
     1
102
RTVSPost2010Prop57
140
1.0
102
RTVSPost2010PropOp57
 70
     1
102
RTVSPropertyOp0
 70
     1
102
RTVSPropertyOp1
 70
     1
102
RTVSPropertyOp2
 70
     1
102
RTVSPropertyOp3
 70
     1
102
RTVSPropertyOp4
 70
     1
102
RTVSPropertyOp5
 70
     1
102
RTVSPropertyOp6
 70
     1
102
RTVSPropertyOp7
 70
     1
102
RTVSPropertyOp8
 70
     1
102
RTVSPropertyOp9
 70
     1
102
RTVSPropertyOp10
 70
     1
102
RTVSPropertyOp11
 70
     1
102
RTVSPropertyOp12
 70
     1
102
RTVSPropertyOp13
 70
     1
102
RTVSPropertyOp14
 70
     1
102
RTVSPropertyOp15
 70
     1
102
RTVSPropertyOp16
 70
     1
102
RTVSPropertyOp17
 70
     1
102
RTVSPropertyOp18
 70
     1
102
RTVSPropertyOp19
 70
     1
102
RTVSPropertyOp20
 70
     1
102
RTVSPropertyOp21
 70
     1
102
RTVSPropertyOp22
 70
     1
102
RTVSPropertyOp23
 70
     1
102
RTVSPropertyOp24
 70
     1
102
RTVSPropertyOp25
 70
     1
102
RTVSPropertyOp26
 70
     1
102
RTVSPropertyOp27
 70
     1
102
RTVSPropertyOp28
 70
     1
102
RTVSPropertyOp29
 70
     1
102
RTVSPropertyOp30
 70
     1
102
RTVSPropertyOp31
 70
     1
102
RTVSPropertyOp32
 70
     1
102
RTVSPropertyOp33
 70
     1
102
RTVSPropertyOp34
 70
     1
102
RTVSPropertyOp35
 70
     1
102
RTVSPropertyOp36
 70
     1
102
RTVSPropertyOp37
 70
     1
102
RTVSPropertyOp38
 70
     1
102
RTVSPropertyOp39
 70
     1
102
RTVSPropertyOp40
 70
     1
102
RTVSPropertyOp41
 70
     1
102
RTVSPropertyOp42
 70
     1
102
RTVSPropertyOp43
 70
     1
102
RTVSPropertyOp44
 70
     1
102
RTVSPropertyOp45
 70
     1
102
RTVSPropertyOp46
 70
     1
102
RTVSPropertyOp47
 70
     1
102
RTVSPropertyOp48
 70
     1
102
RTVSPropertyOp49
 70
     1
102
RTVSPropertyOp50
 70
     1
102
RTVSPropertyOp51
 70
     0
102
RTVSPropertyOp52
 70
     0
102
RTVSPropertyOp53
 70
     1
102
RTVSPropertyOp54
 70
     1
102
RTVSPropertyOp55
 70
     1
102
RTVSPropertyOp56
 70
     1
102
RTVSPropertyOp57
 70
     1
102
RTVSPropertyOp58
 70
     1
102
RTVSPropertyOp59
 70
     1
102
RTVSPropertyOp60
 70
     1
102
RTVSPropertyOp61
 70
     1
102
RTVSPropertyOp62
 70
     1
  0
XRECORD
  5
79D
102
{ACAD_REACTORS
330
79C
102
}
330
79C
100
AcDbXrecord
280
     1
102
RTVSPost2010Prop28
280
     0
102
RTVSPost2010PropOp28
 70
     0
102
RTVSPost2010Prop29
280
     1
102
RTVSPost2010PropOp29
 70
     0
102
RTVSPost2010Prop30
280
     1
102
RTVSPost2010PropOp30
 70
     0
102
RTVSPost2010Prop31
280
     0
102
RTVSPost2010PropOp31
 70
     0
102
RTVSPost2010Prop32
280
     0
102
RTVSPost2010PropOp32
 70
     0
102
RTVSPost2010Prop33
280
     0
102
RTVSPost2010PropOp33
 70
     0
102
RTVSPost2010Prop34
280
     0
102
RTVSPost2010PropOp34
 70
     0
102
RTVSPost2010Prop35
280
     0
102
RTVSPost2010PropOp35
 70
     0
102
RTVSPost2010Prop36
280
     0
102
RTVSPost2010PropOp36
 70
     0
102
RTVSPost2010Prop37
 90
       50
102
RTVSPost2010PropOp37
 70
     0
102
RTVSPost2010Prop38
140
0.0
102
RTVSPost2010PropOp38
 70
     0
102
RTVSPost2010Prop39
140
1.0
102
RTVSPost2010PropOp39
 70
     0
102
RTVSPost2010Prop40
 90
        0
102
RTVSPost2010PropOp40
 70
     0
102
RTVSPost2010Prop41ColorIndex
 90
       18
102
RTVSPost2010Prop41ColorRGB
 90
        0
102
RTVSPost2010PropOp41
 70
     0
102
RTVSPost2010Prop42
 90
       50
102
RTVSPost2010PropOp42
 70
     0
102
RTVSPost2010Prop43
 90
        3
102
RTVSPost2010PropOp43
 70
     0
102
RTVSPost2010Prop44ColorIndex
 90
        5
102
RTVSPost2010Prop44ColorRGB
 90
      255
102
RTVSPost2010PropOp44
 70
     0
102
RTVSPost2010Prop45
280
     0
102
RTVSPost2010PropOp45
 70
     0
102
RTVSPost2010Prop46
 90
       50
102
RTVSPost2010PropOp46
 70
     0
102
RTVSPost2010Prop47
 90
       50
102
RTVSPost2010PropOp47
 70
     0
102
RTVSPost2010Prop48
 90
       50
102
RTVSPost2010PropOp48
 70
     0
102
RTVSPost2010Prop49
280
     0
102
RTVSPost2010PropOp49
 70
     0
102
RTVSPost2010Prop50
 90
       50
102
RTVSPost2010PropOp50
 70
     0
102
RTVSPost2010Prop51ColorIndex
 90
      256
102
RTVSPost2010Prop51ColorRGB
 90
-16777216
102
RTVSPost2010PropOp51
 70
     0
102
RTVSPost2010Prop52
140
1.0
102
RTVSPost2010PropOp52
 70
     0
102
RTVSPost2010Prop53
 90
        2
102
RTVSPost2010PropOp53
 70
     0
102
RTVSPost2010Prop54
  1
strokes_ogs.tif
102
RTVSPost2010PropOp54
 70
     0
102
RTVSPost2010Prop55
280
     0
102
RTVSPost2010PropOp55
 70
     0
102
RTVSPost2010Prop56
140
1.0
102
RTVSPost2010PropOp56
 70
     0
102
RTVSPost2010Prop57
140
1.0
102
RTVSPost2010PropOp57
 70
     0
102
RTVSPropertyOp0
 70
     0
102
RTVSPropertyOp1
 70
     0
102
RTVSPropertyOp2
 70
     0
102
RTVSPropertyOp3
 70
     0
102
RTVSPropertyOp4
 70
     0
102
RTVSPropertyOp5
 70
     0
102
RTVSPropertyOp6
 70
     0
102
RTVSPropertyOp7
 70
     0
102
RTVSPropertyOp8
 70
     0
102
RTVSPropertyOp9
 70
     0
102
RTVSPropertyOp10
 70
     0
102
RTVSPropertyOp11
 70
     0
102
RTVSPropertyOp12
 70
     0
102
RTVSPropertyOp13
 70
     0
102
RTVSPropertyOp14
 70
     2
102
RTVSPropertyOp15
 70
     0
102
RTVSPropertyOp16
 70
     0
102
RTVSPropertyOp17
 70
     0
102
RTVSPropertyOp18
 70
     0
102
RTVSPropertyOp19
 70
     0
102
RTVSPropertyOp20
 70
     0
102
RTVSPropertyOp21
 70
     0
102
RTVSPropertyOp22
 70
     0
102
RTVSPropertyOp23
 70
     0
102
RTVSPropertyOp24
 70
     0
102
RTVSPropertyOp25
 70
     0
102
RTVSPropertyOp26
 70
     0
102
RTVSPropertyOp27
 70
     0
102
RTVSPropertyOp28
 70
     0
102
RTVSPropertyOp29
 70
     0
102
RTVSPropertyOp30
 70
     0
102
RTVSPropertyOp31
 70
     0
102
RTVSPropertyOp32
 70
     0
102
RTVSPropertyOp33
 70
     0
102
RTVSPropertyOp34
 70
     0
102
RTVSPropertyOp35
 70
     0
102
RTVSPropertyOp36
 70
     0
102
RTVSPropertyOp37
 70
     0
102
RTVSPropertyOp38
 70
     0
102
RTVSPropertyOp39
 70
     0
102
RTVSPropertyOp40
 70
     0
102
RTVSPropertyOp41
 70
     0
102
RTVSPropertyOp42
 70
     0
102
RTVSPropertyOp43
 70
     0
102
RTVSPropertyOp44
 70
     0
102
RTVSPropertyOp45
 70
     0
102
RTVSPropertyOp46
 70
     0
102
RTVSPropertyOp47
 70
     0
102
RTVSPropertyOp48
 70
     0
102
RTVSPropertyOp49
 70
     0
102
RTVSPropertyOp50
 70
     0
102
RTVSPropertyOp51
 70
     0
102
RTVSPropertyOp52
 70
     0
102
RTVSPropertyOp53
 70
     0
102
RTVSPropertyOp54
 70
     0
102
RTVSPropertyOp55
 70
     0
102
RTVSPropertyOp56
 70
     0
102
RTVSPropertyOp57
 70
     0
102
RTVSPropertyOp58
 70
     1
102
RTVSPropertyOp59
 70
     1
102
RTVSPropertyOp60
 70
     1
102
RTVSPropertyOp61
 70
     1
102
RTVSPropertyOp62
 70
     1
  0
XRECORD
  5
78B
102
{ACAD_REACTORS
330
78A
102
}
330
78A
100
AcDbXrecord
280
     1
102
RTVSPost2010Prop28
280
     0
102
RTVSPost2010PropOp28
 70
     1
102
RTVSPost2010Prop29
280
     1
102
RTVSPost2010PropOp29
 70
     1
102
RTVSPost2010Prop30
280
     1
102
RTVSPost2010PropOp30
 70
     1
102
RTVSPost2010Prop31
280
     0
102
RTVSPost2010PropOp31
 70
     1
102
RTVSPost2010Prop32
280
     0
102
RTVSPost2010PropOp32
 70
     1
102
RTVSPost2010Prop33
280
     0
102
RTVSPost2010PropOp33
 70
     1
102
RTVSPost2010Prop34
280
     0
102
RTVSPost2010PropOp34
 70
     1
102
RTVSPost2010Prop35
280
     0
102
RTVSPost2010PropOp35
 70
     1
102
RTVSPost2010Prop36
280
     0
102
RTVSPost2010PropOp36
 70
     1
102
RTVSPost2010Prop37
 90
       50
102
RTVSPost2010PropOp37
 70
     1
102
RTVSPost2010Prop38
140
0.0
102
RTVSPost2010PropOp38
 70
     1
102
RTVSPost2010Prop39
140
1.0
102
RTVSPost2010PropOp39
 70
     1
102
RTVSPost2010Prop40
 90
        0
102
RTVSPost2010PropOp40
 70
     1
102
RTVSPost2010Prop41ColorIndex
 90
       18
102
RTVSPost2010Prop41ColorRGB
 90
        0
102
RTVSPost2010PropOp41
 70
     1
102
RTVSPost2010Prop42
 90
       50
102
RTVSPost2010PropOp42
 70
     1
102
RTVSPost2010Prop43
 90
        3
102
RTVSPost2010PropOp43
 70
     1
102
RTVSPost2010Prop44ColorIndex
 90
        5
102
RTVSPost2010Prop44ColorRGB
 90
      255
102
RTVSPost2010PropOp44
 70
     1
102
RTVSPost2010Prop45
280
     0
102
RTVSPost2010PropOp45
 70
     1
102
RTVSPost2010Prop46
 90
       50
102
RTVSPost2010PropOp46
 70
     1
102
RTVSPost2010Prop47
 90
       50
102
RTVSPost2010PropOp47
 70
     1
102
RTVSPost2010Prop48
 90
       50
102
RTVSPost2010PropOp48
 70
     1
102
RTVSPost2010Prop49
280
     0
102
RTVSPost2010PropOp49
 70
     1
102
RTVSPost2010Prop50
 90
       50
102
RTVSPost2010PropOp50
 70
     1
102
RTVSPost2010Prop51ColorIndex
 90
      256
102
RTVSPost2010Prop51ColorRGB
 90
-16777216
102
RTVSPost2010PropOp51
 70
     0
102
RTVSPost2010Prop52
140
1.0
102
RTVSPost2010PropOp52
 70
     0
102
RTVSPost2010Prop53
 90
        2
102
RTVSPost2010PropOp53
 70
     1
102
RTVSPost2010Prop54
  1
strokes_ogs.tif
102
RTVSPost2010PropOp54
 70
     1
102
RTVSPost2010Prop55
280
     0
102
RTVSPost2010PropOp55
 70
     1
102
RTVSPost2010Prop56
140
1.0
102
RTVSPost2010PropOp56
 70
     1
102
RTVSPost2010Prop57
140
1.0
102
RTVSPost2010PropOp57
 70
     1
102
RTVSPropertyOp0
 70
     1
102
RTVSPropertyOp1
 70
     1
102
RTVSPropertyOp2
 70
     1
102
RTVSPropertyOp3
 70
     1
102
RTVSPropertyOp4
 70
     1
102
RTVSPropertyOp5
 70
     1
102
RTVSPropertyOp6
 70
     1
102
RTVSPropertyOp7
 70
     1
102
RTVSPropertyOp8
 70
     1
102
RTVSPropertyOp9
 70
     1
102
RTVSPropertyOp10
 70
     1
102
RTVSPropertyOp11
 70
     1
102
RTVSPropertyOp12
 70
     1
102
RTVSPropertyOp13
 70
     1
102
RTVSPropertyOp14
 70
     1
102
RTVSPropertyOp15
 70
     1
102
RTVSPropertyOp16
 70
     1
102
RTVSPropertyOp17
 70
     1
102
RTVSPropertyOp18
 70
     1
102
RTVSPropertyOp19
 70
     1
102
RTVSPropertyOp20
 70
     1
102
RTVSPropertyOp21
 70
     1
102
RTVSPropertyOp22
 70
     1
102
RTVSPropertyOp23
 70
     1
102
RTVSPropertyOp24
 70
     1
102
RTVSPropertyOp25
 70
     1
102
RTVSPropertyOp26
 70
     1
102
RTVSPropertyOp27
 70
     1
102
RTVSPropertyOp28
 70
     1
102
RTVSPropertyOp29
 70
     1
102
RTVSPropertyOp30
 70
     1
102
RTVSPropertyOp31
 70
     1
102
RTVSPropertyOp32
 70
     1
102
RTVSPropertyOp33
 70
     1
102
RTVSPropertyOp34
 70
     1
102
RTVSPropertyOp35
 70
     1
102
RTVSPropertyOp36
 70
     1
102
RTVSPropertyOp37
 70
     1
102
RTVSPropertyOp38
 70
     1
102
RTVSPropertyOp39
 70
     1
102
RTVSPropertyOp40
 70
     1
102
RTVSPropertyOp41
 70
     1
102
RTVSPropertyOp42
 70
     1
102
RTVSPropertyOp43
 70
     1
102
RTVSPropertyOp44
 70
     1
102
RTVSPropertyOp45
 70
     1
102
RTVSPropertyOp46
 70
     1
102
RTVSPropertyOp47
 70
     1
102
RTVSPropertyOp48
 70
     1
102
RTVSPropertyOp49
 70
     1
102
RTVSPropertyOp50
 70
     1
102
RTVSPropertyOp51
 70
     0
102
RTVSPropertyOp52
 70
     0
102
RTVSPropertyOp53
 70
     1
102
RTVSPropertyOp54
 70
     1
102
RTVSPropertyOp55
 70
     1
102
RTVSPropertyOp56
 70
     1
102
RTVSPropertyOp57
 70
     1
102
RTVSPropertyOp58
 70
     1
102
RTVSPropertyOp59
 70
     1
102
RTVSPropertyOp60
 70
     1
102
RTVSPropertyOp61
 70
     1
102
RTVSPropertyOp62
 70
     1
  0
XRECORD
  5
76F
102
{ACAD_REACTORS
330
76E
102
}
330
76E
100
AcDbXrecord
280
     1
102
RTVSPost2010Prop28
280
     0
102
RTVSPost2010PropOp28
 70
     1
102
RTVSPost2010Prop29
280
     1
102
RTVSPost2010PropOp29
 70
     1
102
RTVSPost2010Prop30
280
     1
102
RTVSPost2010PropOp30
 70
     1
102
RTVSPost2010Prop31
280
     0
102
RTVSPost2010PropOp31
 70
     1
102
RTVSPost2010Prop32
280
     0
102
RTVSPost2010PropOp32
 70
     1
102
RTVSPost2010Prop33
280
     0
102
RTVSPost2010PropOp33
 70
     1
102
RTVSPost2010Prop34
280
     0
102
RTVSPost2010PropOp34
 70
     1
102
RTVSPost2010Prop35
280
     0
102
RTVSPost2010PropOp35
 70
     1
102
RTVSPost2010Prop36
280
     0
102
RTVSPost2010PropOp36
 70
     1
102
RTVSPost2010Prop37
 90
       50
102
RTVSPost2010PropOp37
 70
     1
102
RTVSPost2010Prop38
140
0.0
102
RTVSPost2010PropOp38
 70
     1
102
RTVSPost2010Prop39
140
1.0
102
RTVSPost2010PropOp39
 70
     1
102
RTVSPost2010Prop40
 90
        0
102
RTVSPost2010PropOp40
 70
     1
102
RTVSPost2010Prop41ColorIndex
 90
       18
102
RTVSPost2010Prop41ColorRGB
 90
        0
102
RTVSPost2010PropOp41
 70
     1
102
RTVSPost2010Prop42
 90
       50
102
RTVSPost2010PropOp42
 70
     1
102
RTVSPost2010Prop43
 90
        3
102
RTVSPost2010PropOp43
 70
     1
102
RTVSPost2010Prop44ColorIndex
 90
        5
102
RTVSPost2010Prop44ColorRGB
 90
      255
102
RTVSPost2010PropOp44
 70
     1
102
RTVSPost2010Prop45
280
     0
102
RTVSPost2010PropOp45
 70
     1
102
RTVSPost2010Prop46
 90
       50
102
RTVSPost2010PropOp46
 70
     1
102
RTVSPost2010Prop47
 90
       50
102
RTVSPost2010PropOp47
 70
     1
102
RTVSPost2010Prop48
 90
       50
102
RTVSPost2010PropOp48
 70
     1
102
RTVSPost2010Prop49
280
     0
102
RTVSPost2010PropOp49
 70
     1
102
RTVSPost2010Prop50
 90
       50
102
RTVSPost2010PropOp50
 70
     1
102
RTVSPost2010Prop51ColorIndex
 90
      256
102
RTVSPost2010Prop51ColorRGB
 90
-16777216
102
RTVSPost2010PropOp51
 70
     0
102
RTVSPost2010Prop52
140
1.0
102
RTVSPost2010PropOp52
 70
     0
102
RTVSPost2010Prop53
 90
        2
102
RTVSPost2010PropOp53
 70
     1
102
RTVSPost2010Prop54
  1
strokes_ogs.tif
102
RTVSPost2010PropOp54
 70
     1
102
RTVSPost2010Prop55
280
     0
102
RTVSPost2010PropOp55
 70
     1
102
RTVSPost2010Prop56
140
1.0
102
RTVSPost2010PropOp56
 70
     1
102
RTVSPost2010Prop57
140
1.0
102
RTVSPost2010PropOp57
 70
     1
102
RTVSPropertyOp0
 70
     1
102
RTVSPropertyOp1
 70
     1
102
RTVSPropertyOp2
 70
     1
102
RTVSPropertyOp3
 70
     1
102
RTVSPropertyOp4
 70
     1
102
RTVSPropertyOp5
 70
     1
102
RTVSPropertyOp6
 70
     1
102
RTVSPropertyOp7
 70
     1
102
RTVSPropertyOp8
 70
     1
102
RTVSPropertyOp9
 70
     1
102
RTVSPropertyOp10
 70
     1
102
RTVSPropertyOp11
 70
     1
102
RTVSPropertyOp12
 70
     1
102
RTVSPropertyOp13
 70
     1
102
RTVSPropertyOp14
 70
     1
102
RTVSPropertyOp15
 70
     1
102
RTVSPropertyOp16
 70
     1
102
RTVSPropertyOp17
 70
     1
102
RTVSPropertyOp18
 70
     1
102
RTVSPropertyOp19
 70
     1
102
RTVSPropertyOp20
 70
     1
102
RTVSPropertyOp21
 70
     1
102
RTVSPropertyOp22
 70
     1
102
RTVSPropertyOp23
 70
     1
102
RTVSPropertyOp24
 70
     1
102
RTVSPropertyOp25
 70
     1
102
RTVSPropertyOp26
 70
     1
102
RTVSPropertyOp27
 70
     1
102
RTVSPropertyOp28
 70
     1
102
RTVSPropertyOp29
 70
     1
102
RTVSPropertyOp30
 70
     1
102
RTVSPropertyOp31
 70
     1
102
RTVSPropertyOp32
 70
     1
102
RTVSPropertyOp33
 70
     1
102
RTVSPropertyOp34
 70
     1
102
RTVSPropertyOp35
 70
     1
102
RTVSPropertyOp36
 70
     1
102
RTVSPropertyOp37
 70
     1
102
RTVSPropertyOp38
 70
     1
102
RTVSPropertyOp39
 70
     1
102
RTVSPropertyOp40
 70
     1
102
RTVSPropertyOp41
 70
     1
102
RTVSPropertyOp42
 70
     1
102
RTVSPropertyOp43
 70
     1
102
RTVSPropertyOp44
 70
     1
102
RTVSPropertyOp45
 70
     1
102
RTVSPropertyOp46
 70
     1
102
RTVSPropertyOp47
 70
     1
102
RTVSPropertyOp48
 70
     1
102
RTVSPropertyOp49
 70
     1
102
RTVSPropertyOp50
 70
     1
102
RTVSPropertyOp51
 70
     0
102
RTVSPropertyOp52
 70
     0
102
RTVSPropertyOp53
 70
     1
102
RTVSPropertyOp54
 70
     1
102
RTVSPropertyOp55
 70
     1
102
RTVSPropertyOp56
 70
     1
102
RTVSPropertyOp57
 70
     1
102
RTVSPropertyOp58
 70
     1
102
RTVSPropertyOp59
 70
     1
102
RTVSPropertyOp60
 70
     1
102
RTVSPropertyOp61
 70
     1
102
RTVSPropertyOp62
 70
     1
  0
XRECORD
  5
771
102
{ACAD_REACTORS
330
770
102
}
330
770
100
AcDbXrecord
280
     1
102
RTVSPost2010Prop28
280
     0
102
RTVSPost2010PropOp28
 70
     1
102
RTVSPost2010Prop29
280
     1
102
RTVSPost2010PropOp29
 70
     1
102
RTVSPost2010Prop30
280
     1
102
RTVSPost2010PropOp30
 70
     1
102
RTVSPost2010Prop31
280
     0
102
RTVSPost2010PropOp31
 70
     1
102
RTVSPost2010Prop32
280
     0
102
RTVSPost2010PropOp32
 70
     1
102
RTVSPost2010Prop33
280
     0
102
RTVSPost2010PropOp33
 70
     1
102
RTVSPost2010Prop34
280
     0
102
RTVSPost2010PropOp34
 70
     1
102
RTVSPost2010Prop35
280
     0
102
RTVSPost2010PropOp35
 70
     1
102
RTVSPost2010Prop36
280
     0
102
RTVSPost2010PropOp36
 70
     1
102
RTVSPost2010Prop37
 90
       50
102
RTVSPost2010PropOp37
 70
     1
102
RTVSPost2010Prop38
140
0.0
102
RTVSPost2010PropOp38
 70
     1
102
RTVSPost2010Prop39
140
1.0
102
RTVSPost2010PropOp39
 70
     1
102
RTVSPost2010Prop40
 90
        0
102
RTVSPost2010PropOp40
 70
     1
102
RTVSPost2010Prop41ColorIndex
 90
       18
102
RTVSPost2010Prop41ColorRGB
 90
        0
102
RTVSPost2010PropOp41
 70
     1
102
RTVSPost2010Prop42
 90
       50
102
RTVSPost2010PropOp42
 70
     1
102
RTVSPost2010Prop43
 90
        3
102
RTVSPost2010PropOp43
 70
     1
102
RTVSPost2010Prop44ColorIndex
 90
        5
102
RTVSPost2010Prop44ColorRGB
 90
      255
102
RTVSPost2010PropOp44
 70
     1
102
RTVSPost2010Prop45
280
     0
102
RTVSPost2010PropOp45
 70
     1
102
RTVSPost2010Prop46
 90
       50
102
RTVSPost2010PropOp46
 70
     1
102
RTVSPost2010Prop47
 90
       50
102
RTVSPost2010PropOp47
 70
     1
102
RTVSPost2010Prop48
 90
       50
102
RTVSPost2010PropOp48
 70
     1
102
RTVSPost2010Prop49
280
     0
102
RTVSPost2010PropOp49
 70
     1
102
RTVSPost2010Prop50
 90
       50
102
RTVSPost2010PropOp50
 70
     1
102
RTVSPost2010Prop51ColorIndex
 90
      256
102
RTVSPost2010Prop51ColorRGB
 90
-16777216
102
RTVSPost2010PropOp51
 70
     0
102
RTVSPost2010Prop52
140
1.0
102
RTVSPost2010PropOp52
 70
     0
102
RTVSPost2010Prop53
 90
        2
102
RTVSPost2010PropOp53
 70
     1
102
RTVSPost2010Prop54
  1
strokes_ogs.tif
102
RTVSPost2010PropOp54
 70
     1
102
RTVSPost2010Prop55
280
     0
102
RTVSPost2010PropOp55
 70
     1
102
RTVSPost2010Prop56
140
1.0
102
RTVSPost2010PropOp56
 70
     1
102
RTVSPost2010Prop57
140
1.0
102
RTVSPost2010PropOp57
 70
     1
102
RTVSPropertyOp0
 70
     1
102
RTVSPropertyOp1
 70
     1
102
RTVSPropertyOp2
 70
     1
102
RTVSPropertyOp3
 70
     1
102
RTVSPropertyOp4
 70
     1
102
RTVSPropertyOp5
 70
     1
102
RTVSPropertyOp6
 70
     1
102
RTVSPropertyOp7
 70
     1
102
RTVSPropertyOp8
 70
     1
102
RTVSPropertyOp9
 70
     1
102
RTVSPropertyOp10
 70
     1
102
RTVSPropertyOp11
 70
     1
102
RTVSPropertyOp12
 70
     1
102
RTVSPropertyOp13
 70
     1
102
RTVSPropertyOp14
 70
     1
102
RTVSPropertyOp15
 70
     1
102
RTVSPropertyOp16
 70
     1
102
RTVSPropertyOp17
 70
     1
102
RTVSPropertyOp18
 70
     1
102
RTVSPropertyOp19
 70
     1
102
RTVSPropertyOp20
 70
     1
102
RTVSPropertyOp21
 70
     1
102
RTVSPropertyOp22
 70
     1
102
RTVSPropertyOp23
 70
     1
102
RTVSPropertyOp24
 70
     1
102
RTVSPropertyOp25
 70
     1
102
RTVSPropertyOp26
 70
     1
102
RTVSPropertyOp27
 70
     1
102
RTVSPropertyOp28
 70
     1
102
RTVSPropertyOp29
 70
     1
102
RTVSPropertyOp30
 70
     1
102
RTVSPropertyOp31
 70
     1
102
RTVSPropertyOp32
 70
     1
102
RTVSPropertyOp33
 70
     1
102
RTVSPropertyOp34
 70
     1
102
RTVSPropertyOp35
 70
     1
102
RTVSPropertyOp36
 70
     1
102
RTVSPropertyOp37
 70
     1
102
RTVSPropertyOp38
 70
     1
102
RTVSPropertyOp39
 70
     1
102
RTVSPropertyOp40
 70
     1
102
RTVSPropertyOp41
 70
     1
102
RTVSPropertyOp42
 70
     1
102
RTVSPropertyOp43
 70
     1
102
RTVSPropertyOp44
 70
     1
102
RTVSPropertyOp45
 70
     1
102
RTVSPropertyOp46
 70
     1
102
RTVSPropertyOp47
 70
     1
102
RTVSPropertyOp48
 70
     1
102
RTVSPropertyOp49
 70
     1
102
RTVSPropertyOp50
 70
     1
102
RTVSPropertyOp51
 70
     0
102
RTVSPropertyOp52
 70
     0
102
RTVSPropertyOp53
 70
     1
102
RTVSPropertyOp54
 70
     1
102
RTVSPropertyOp55
 70
     1
102
RTVSPropertyOp56
 70
     1
102
RTVSPropertyOp57
 70
     1
102
RTVSPropertyOp58
 70
     1
102
RTVSPropertyOp59
 70
     1
102
RTVSPropertyOp60
 70
     1
102
RTVSPropertyOp61
 70
     1
102
RTVSPropertyOp62
 70
     1
  0
XRECORD
  5
773
102
{ACAD_REACTORS
330
772
102
}
330
772
100
AcDbXrecord
280
     1
102
RTVSPost2010Prop28
280
     0
102
RTVSPost2010PropOp28
 70
     1
102
RTVSPost2010Prop29
280
     1
102
RTVSPost2010PropOp29
 70
     1
102
RTVSPost2010Prop30
280
     1
102
RTVSPost2010PropOp30
 70
     1
102
RTVSPost2010Prop31
280
     0
102
RTVSPost2010PropOp31
 70
     1
102
RTVSPost2010Prop32
280
     0
102
RTVSPost2010PropOp32
 70
     1
102
RTVSPost2010Prop33
280
     0
102
RTVSPost2010PropOp33
 70
     1
102
RTVSPost2010Prop34
280
     0
102
RTVSPost2010PropOp34
 70
     1
102
RTVSPost2010Prop35
280
     0
102
RTVSPost2010PropOp35
 70
     1
102
RTVSPost2010Prop36
280
     0
102
RTVSPost2010PropOp36
 70
     1
102
RTVSPost2010Prop37
 90
       50
102
RTVSPost2010PropOp37
 70
     1
102
RTVSPost2010Prop38
140
0.0
102
RTVSPost2010PropOp38
 70
     1
102
RTVSPost2010Prop39
140
1.0
102
RTVSPost2010PropOp39
 70
     1
102
RTVSPost2010Prop40
 90
        0
102
RTVSPost2010PropOp40
 70
     1
102
RTVSPost2010Prop41ColorIndex
 90
       18
102
RTVSPost2010Prop41ColorRGB
 90
        0
102
RTVSPost2010PropOp41
 70
     1
102
RTVSPost2010Prop42
 90
       50
102
RTVSPost2010PropOp42
 70
     1
102
RTVSPost2010Prop43
 90
        3
102
RTVSPost2010PropOp43
 70
     1
102
RTVSPost2010Prop44ColorIndex
 90
        5
102
RTVSPost2010Prop44ColorRGB
 90
      255
102
RTVSPost2010PropOp44
 70
     1
102
RTVSPost2010Prop45
280
     0
102
RTVSPost2010PropOp45
 70
     1
102
RTVSPost2010Prop46
 90
       50
102
RTVSPost2010PropOp46
 70
     1
102
RTVSPost2010Prop47
 90
       50
102
RTVSPost2010PropOp47
 70
     1
102
RTVSPost2010Prop48
 90
       50
102
RTVSPost2010PropOp48
 70
     1
102
RTVSPost2010Prop49
280
     0
102
RTVSPost2010PropOp49
 70
     1
102
RTVSPost2010Prop50
 90
       50
102
RTVSPost2010PropOp50
 70
     1
102
RTVSPost2010Prop51ColorIndex
 90
      256
102
RTVSPost2010Prop51ColorRGB
 90
-16777216
102
RTVSPost2010PropOp51
 70
     0
102
RTVSPost2010Prop52
140
1.0
102
RTVSPost2010PropOp52
 70
     0
102
RTVSPost2010Prop53
 90
        2
102
RTVSPost2010PropOp53
 70
     1
102
RTVSPost2010Prop54
  1
strokes_ogs.tif
102
RTVSPost2010PropOp54
 70
     1
102
RTVSPost2010Prop55
280
     0
102
RTVSPost2010PropOp55
 70
     1
102
RTVSPost2010Prop56
140
1.0
102
RTVSPost2010PropOp56
 70
     1
102
RTVSPost2010Prop57
140
1.0
102
RTVSPost2010PropOp57
 70
     1
102
RTVSPropertyOp0
 70
     1
102
RTVSPropertyOp1
 70
     1
102
RTVSPropertyOp2
 70
     1
102
RTVSPropertyOp3
 70
     1
102
RTVSPropertyOp4
 70
     1
102
RTVSPropertyOp5
 70
     1
102
RTVSPropertyOp6
 70
     1
102
RTVSPropertyOp7
 70
     1
102
RTVSPropertyOp8
 70
     1
102
RTVSPropertyOp9
 70
     1
102
RTVSPropertyOp10
 70
     1
102
RTVSPropertyOp11
 70
     1
102
RTVSPropertyOp12
 70
     1
102
RTVSPropertyOp13
 70
     1
102
RTVSPropertyOp14
 70
     1
102
RTVSPropertyOp15
 70
     1
102
RTVSPropertyOp16
 70
     1
102
RTVSPropertyOp17
 70
     1
102
RTVSPropertyOp18
 70
     1
102
RTVSPropertyOp19
 70
     1
102
RTVSPropertyOp20
 70
     1
102
RTVSPropertyOp21
 70
     1
102
RTVSPropertyOp22
 70
     1
102
RTVSPropertyOp23
 70
     1
102
RTVSPropertyOp24
 70
     1
102
RTVSPropertyOp25
 70
     1
102
RTVSPropertyOp26
 70
     1
102
RTVSPropertyOp27
 70
     1
102
RTVSPropertyOp28
 70
     1
102
RTVSPropertyOp29
 70
     1
102
RTVSPropertyOp30
 70
     1
102
RTVSPropertyOp31
 70
     1
102
RTVSPropertyOp32
 70
     1
102
RTVSPropertyOp33
 70
     1
102
RTVSPropertyOp34
 70
     1
102
RTVSPropertyOp35
 70
     1
102
RTVSPropertyOp36
 70
     1
102
RTVSPropertyOp37
 70
     1
102
RTVSPropertyOp38
 70
     1
102
RTVSPropertyOp39
 70
     1
102
RTVSPropertyOp40
 70
     1
102
RTVSPropertyOp41
 70
     1
102
RTVSPropertyOp42
 70
     1
102
RTVSPropertyOp43
 70
     1
102
RTVSPropertyOp44
 70
     1
102
RTVSPropertyOp45
 70
     1
102
RTVSPropertyOp46
 70
     1
102
RTVSPropertyOp47
 70
     1
102
RTVSPropertyOp48
 70
     1
102
RTVSPropertyOp49
 70
     1
102
RTVSPropertyOp50
 70
     1
102
RTVSPropertyOp51
 70
     0
102
RTVSPropertyOp52
 70
     0
102
RTVSPropertyOp53
 70
     1
102
RTVSPropertyOp54
 70
     1
102
RTVSPropertyOp55
 70
     1
102
RTVSPropertyOp56
 70
     1
102
RTVSPropertyOp57
 70
     1
102
RTVSPropertyOp58
 70
     1
102
RTVSPropertyOp59
 70
     1
102
RTVSPropertyOp60
 70
     1
102
RTVSPropertyOp61
 70
     1
102
RTVSPropertyOp62
 70
     1
  0
XRECORD
  5
775
102
{ACAD_REACTORS
330
774
102
}
330
774
100
AcDbXrecord
280
     1
102
RTVSPost2010Prop28
280
     0
102
RTVSPost2010PropOp28
 70
     1
102
RTVSPost2010Prop29
280
     1
102
RTVSPost2010PropOp29
 70
     1
102
RTVSPost2010Prop30
280
     1
102
RTVSPost2010PropOp30
 70
     1
102
RTVSPost2010Prop31
280
     0
102
RTVSPost2010PropOp31
 70
     1
102
RTVSPost2010Prop32
280
     0
102
RTVSPost2010PropOp32
 70
     1
102
RTVSPost2010Prop33
280
     0
102
RTVSPost2010PropOp33
 70
     1
102
RTVSPost2010Prop34
280
     0
102
RTVSPost2010PropOp34
 70
     1
102
RTVSPost2010Prop35
280
     0
102
RTVSPost2010PropOp35
 70
     1
102
RTVSPost2010Prop36
280
     0
102
RTVSPost2010PropOp36
 70
     1
102
RTVSPost2010Prop37
 90
       50
102
RTVSPost2010PropOp37
 70
     1
102
RTVSPost2010Prop38
140
0.0
102
RTVSPost2010PropOp38
 70
     1
102
RTVSPost2010Prop39
140
1.0
102
RTVSPost2010PropOp39
 70
     1
102
RTVSPost2010Prop40
 90
        0
102
RTVSPost2010PropOp40
 70
     1
102
RTVSPost2010Prop41ColorIndex
 90
       18
102
RTVSPost2010Prop41ColorRGB
 90
        0
102
RTVSPost2010PropOp41
 70
     1
102
RTVSPost2010Prop42
 90
       50
102
RTVSPost2010PropOp42
 70
     1
102
RTVSPost2010Prop43
 90
        3
102
RTVSPost2010PropOp43
 70
     1
102
RTVSPost2010Prop44ColorIndex
 90
        5
102
RTVSPost2010Prop44ColorRGB
 90
      255
102
RTVSPost2010PropOp44
 70
     1
102
RTVSPost2010Prop45
280
     0
102
RTVSPost2010PropOp45
 70
     1
102
RTVSPost2010Prop46
 90
       50
102
RTVSPost2010PropOp46
 70
     1
102
RTVSPost2010Prop47
 90
       50
102
RTVSPost2010PropOp47
 70
     1
102
RTVSPost2010Prop48
 90
       50
102
RTVSPost2010PropOp48
 70
     1
102
RTVSPost2010Prop49
280
     0
102
RTVSPost2010PropOp49
 70
     1
102
RTVSPost2010Prop50
 90
       50
102
RTVSPost2010PropOp50
 70
     1
102
RTVSPost2010Prop51ColorIndex
 90
      256
102
RTVSPost2010Prop51ColorRGB
 90
-16777216
102
RTVSPost2010PropOp51
 70
     0
102
RTVSPost2010Prop52
140
1.0
102
RTVSPost2010PropOp52
 70
     0
102
RTVSPost2010Prop53
 90
        2
102
RTVSPost2010PropOp53
 70
     1
102
RTVSPost2010Prop54
  1
strokes_ogs.tif
102
RTVSPost2010PropOp54
 70
     1
102
RTVSPost2010Prop55
280
     0
102
RTVSPost2010PropOp55
 70
     1
102
RTVSPost2010Prop56
140
1.0
102
RTVSPost2010PropOp56
 70
     1
102
RTVSPost2010Prop57
140
1.0
102
RTVSPost2010PropOp57
 70
     1
102
RTVSPropertyOp0
 70
     1
102
RTVSPropertyOp1
 70
     1
102
RTVSPropertyOp2
 70
     1
102
RTVSPropertyOp3
 70
     1
102
RTVSPropertyOp4
 70
     1
102
RTVSPropertyOp5
 70
     1
102
RTVSPropertyOp6
 70
     1
102
RTVSPropertyOp7
 70
     1
102
RTVSPropertyOp8
 70
     1
102
RTVSPropertyOp9
 70
     1
102
RTVSPropertyOp10
 70
     1
102
RTVSPropertyOp11
 70
     1
102
RTVSPropertyOp12
 70
     1
102
RTVSPropertyOp13
 70
     1
102
RTVSPropertyOp14
 70
     1
102
RTVSPropertyOp15
 70
     1
102
RTVSPropertyOp16
 70
     1
102
RTVSPropertyOp17
 70
     1
102
RTVSPropertyOp18
 70
     1
102
RTVSPropertyOp19
 70
     1
102
RTVSPropertyOp20
 70
     1
102
RTVSPropertyOp21
 70
     1
102
RTVSPropertyOp22
 70
     1
102
RTVSPropertyOp23
 70
     1
102
RTVSPropertyOp24
 70
     1
102
RTVSPropertyOp25
 70
     1
102
RTVSPropertyOp26
 70
     1
102
RTVSPropertyOp27
 70
     1
102
RTVSPropertyOp28
 70
     1
102
RTVSPropertyOp29
 70
     1
102
RTVSPropertyOp30
 70
     1
102
RTVSPropertyOp31
 70
     1
102
RTVSPropertyOp32
 70
     1
102
RTVSPropertyOp33
 70
     1
102
RTVSPropertyOp34
 70
     1
102
RTVSPropertyOp35
 70
     1
102
RTVSPropertyOp36
 70
     1
102
RTVSPropertyOp37
 70
     1
102
RTVSPropertyOp38
 70
     1
102
RTVSPropertyOp39
 70
     1
102
RTVSPropertyOp40
 70
     1
102
RTVSPropertyOp41
 70
     1
102
RTVSPropertyOp42
 70
     1
102
RTVSPropertyOp43
 70
     1
102
RTVSPropertyOp44
 70
     1
102
RTVSPropertyOp45
 70
     1
102
RTVSPropertyOp46
 70
     1
102
RTVSPropertyOp47
 70
     1
102
RTVSPropertyOp48
 70
     1
102
RTVSPropertyOp49
 70
     1
102
RTVSPropertyOp50
 70
     1
102
RTVSPropertyOp51
 70
     0
102
RTVSPropertyOp52
 70
     0
102
RTVSPropertyOp53
 70
     1
102
RTVSPropertyOp54
 70
     1
102
RTVSPropertyOp55
 70
     1
102
RTVSPropertyOp56
 70
     1
102
RTVSPropertyOp57
 70
     1
102
RTVSPropertyOp58
 70
     1
102
RTVSPropertyOp59
 70
     1
102
RTVSPropertyOp60
 70
     1
102
RTVSPropertyOp61
 70
     1
102
RTVSPropertyOp62
 70
     1
  0
XRECORD
  5
77D
102
{ACAD_REACTORS
330
77C
102
}
330
77C
100
AcDbXrecord
280
     1
102
RTVSPost2010Prop28
280
     0
102
RTVSPost2010PropOp28
 70
     1
102
RTVSPost2010Prop29
280
     1
102
RTVSPost2010PropOp29
 70
     1
102
RTVSPost2010Prop30
280
     1
102
RTVSPost2010PropOp30
 70
     1
102
RTVSPost2010Prop31
280
     0
102
RTVSPost2010PropOp31
 70
     1
102
RTVSPost2010Prop32
280
     0
102
RTVSPost2010PropOp32
 70
     1
102
RTVSPost2010Prop33
280
     0
102
RTVSPost2010PropOp33
 70
     1
102
RTVSPost2010Prop34
280
     0
102
RTVSPost2010PropOp34
 70
     1
102
RTVSPost2010Prop35
280
     0
102
RTVSPost2010PropOp35
 70
     1
102
RTVSPost2010Prop36
280
     0
102
RTVSPost2010PropOp36
 70
     1
102
RTVSPost2010Prop37
 90
       50
102
RTVSPost2010PropOp37
 70
     1
102
RTVSPost2010Prop38
140
0.0
102
RTVSPost2010PropOp38
 70
     1
102
RTVSPost2010Prop39
140
1.0
102
RTVSPost2010PropOp39
 70
     1
102
RTVSPost2010Prop40
 90
        0
102
RTVSPost2010PropOp40
 70
     1
102
RTVSPost2010Prop41ColorIndex
 90
       18
102
RTVSPost2010Prop41ColorRGB
 90
        0
102
RTVSPost2010PropOp41
 70
     1
102
RTVSPost2010Prop42
 90
       50
102
RTVSPost2010PropOp42
 70
     1
102
RTVSPost2010Prop43
 90
        3
102
RTVSPost2010PropOp43
 70
     1
102
RTVSPost2010Prop44ColorIndex
 90
        5
102
RTVSPost2010Prop44ColorRGB
 90
      255
102
RTVSPost2010PropOp44
 70
     1
102
RTVSPost2010Prop45
280
     0
102
RTVSPost2010PropOp45
 70
     1
102
RTVSPost2010Prop46
 90
       50
102
RTVSPost2010PropOp46
 70
     1
102
RTVSPost2010Prop47
 90
       50
102
RTVSPost2010PropOp47
 70
     1
102
RTVSPost2010Prop48
 90
       50
102
RTVSPost2010PropOp48
 70
     1
102
RTVSPost2010Prop49
280
     0
102
RTVSPost2010PropOp49
 70
     1
102
RTVSPost2010Prop50
 90
       50
102
RTVSPost2010PropOp50
 70
     1
102
RTVSPost2010Prop51ColorIndex
 90
      256
102
RTVSPost2010Prop51ColorRGB
 90
-16777216
102
RTVSPost2010PropOp51
 70
     0
102
RTVSPost2010Prop52
140
1.0
102
RTVSPost2010PropOp52
 70
     0
102
RTVSPost2010Prop53
 90
        2
102
RTVSPost2010PropOp53
 70
     1
102
RTVSPost2010Prop54
  1
strokes_ogs.tif
102
RTVSPost2010PropOp54
 70
     1
102
RTVSPost2010Prop55
280
     0
102
RTVSPost2010PropOp55
 70
     1
102
RTVSPost2010Prop56
140
1.0
102
RTVSPost2010PropOp56
 70
     1
102
RTVSPost2010Prop57
140
1.0
102
RTVSPost2010PropOp57
 70
     1
102
RTVSPropertyOp0
 70
     1
102
RTVSPropertyOp1
 70
     1
102
RTVSPropertyOp2
 70
     1
102
RTVSPropertyOp3
 70
     1
102
RTVSPropertyOp4
 70
     1
102
RTVSPropertyOp5
 70
     1
102
RTVSPropertyOp6
 70
     1
102
RTVSPropertyOp7
 70
     1
102
RTVSPropertyOp8
 70
     1
102
RTVSPropertyOp9
 70
     1
102
RTVSPropertyOp10
 70
     1
102
RTVSPropertyOp11
 70
     1
102
RTVSPropertyOp12
 70
     1
102
RTVSPropertyOp13
 70
     1
102
RTVSPropertyOp14
 70
     1
102
RTVSPropertyOp15
 70
     1
102
RTVSPropertyOp16
 70
     1
102
RTVSPropertyOp17
 70
     1
102
RTVSPropertyOp18
 70
     1
102
RTVSPropertyOp19
 70
     1
102
RTVSPropertyOp20
 70
     1
102
RTVSPropertyOp21
 70
     1
102
RTVSPropertyOp22
 70
     1
102
RTVSPropertyOp23
 70
     1
102
RTVSPropertyOp24
 70
     1
102
RTVSPropertyOp25
 70
     1
102
RTVSPropertyOp26
 70
     1
102
RTVSPropertyOp27
 70
     1
102
RTVSPropertyOp28
 70
     1
102
RTVSPropertyOp29
 70
     1
102
RTVSPropertyOp30
 70
     1
102
RTVSPropertyOp31
 70
     1
102
RTVSPropertyOp32
 70
     1
102
RTVSPropertyOp33
 70
     1
102
RTVSPropertyOp34
 70
     1
102
RTVSPropertyOp35
 70
     1
102
RTVSPropertyOp36
 70
     1
102
RTVSPropertyOp37
 70
     1
102
RTVSPropertyOp38
 70
     1
102
RTVSPropertyOp39
 70
     1
102
RTVSPropertyOp40
 70
     1
102
RTVSPropertyOp41
 70
     1
102
RTVSPropertyOp42
 70
     1
102
RTVSPropertyOp43
 70
     1
102
RTVSPropertyOp44
 70
     1
102
RTVSPropertyOp45
 70
     1
102
RTVSPropertyOp46
 70
     1
102
RTVSPropertyOp47
 70
     1
102
RTVSPropertyOp48
 70
     1
102
RTVSPropertyOp49
 70
     1
102
RTVSPropertyOp50
 70
     1
102
RTVSPropertyOp51
 70
     0
102
RTVSPropertyOp52
 70
     0
102
RTVSPropertyOp53
 70
     1
102
RTVSPropertyOp54
 70
     1
102
RTVSPropertyOp55
 70
     1
102
RTVSPropertyOp56
 70
     1
102
RTVSPropertyOp57
 70
     1
102
RTVSPropertyOp58
 70
     1
102
RTVSPropertyOp59
 70
     1
102
RTVSPropertyOp60
 70
     1
102
RTVSPropertyOp61
 70
     1
102
RTVSPropertyOp62
 70
     1
  0
XRECORD
  5
799
102
{ACAD_REACTORS
330
798
102
}
330
798
100
AcDbXrecord
280
     1
102
RTVSPost2010Prop28
280
     0
102
RTVSPost2010PropOp28
 70
     0
102
RTVSPost2010Prop29
280
     1
102
RTVSPost2010PropOp29
 70
     0
102
RTVSPost2010Prop30
280
     1
102
RTVSPost2010PropOp30
 70
     0
102
RTVSPost2010Prop31
280
     0
102
RTVSPost2010PropOp31
 70
     0
102
RTVSPost2010Prop32
280
     0
102
RTVSPost2010PropOp32
 70
     0
102
RTVSPost2010Prop33
280
     0
102
RTVSPost2010PropOp33
 70
     0
102
RTVSPost2010Prop34
280
     0
102
RTVSPost2010PropOp34
 70
     0
102
RTVSPost2010Prop35
280
     0
102
RTVSPost2010PropOp35
 70
     0
102
RTVSPost2010Prop36
280
     0
102
RTVSPost2010PropOp36
 70
     0
102
RTVSPost2010Prop37
 90
       50
102
RTVSPost2010PropOp37
 70
     0
102
RTVSPost2010Prop38
140
0.0
102
RTVSPost2010PropOp38
 70
     0
102
RTVSPost2010Prop39
140
1.0
102
RTVSPost2010PropOp39
 70
     0
102
RTVSPost2010Prop40
 90
        0
102
RTVSPost2010PropOp40
 70
     0
102
RTVSPost2010Prop41ColorIndex
 90
       18
102
RTVSPost2010Prop41ColorRGB
 90
        0
102
RTVSPost2010PropOp41
 70
     0
102
RTVSPost2010Prop42
 90
       50
102
RTVSPost2010PropOp42
 70
     0
102
RTVSPost2010Prop43
 90
        3
102
RTVSPost2010PropOp43
 70
     0
102
RTVSPost2010Prop44ColorIndex
 90
        5
102
RTVSPost2010Prop44ColorRGB
 90
      255
102
RTVSPost2010PropOp44
 70
     0
102
RTVSPost2010Prop45
280
     0
102
RTVSPost2010PropOp45
 70
     0
102
RTVSPost2010Prop46
 90
       50
102
RTVSPost2010PropOp46
 70
     0
102
RTVSPost2010Prop47
 90
       50
102
RTVSPost2010PropOp47
 70
     0
102
RTVSPost2010Prop48
 90
       50
102
RTVSPost2010PropOp48
 70
     0
102
RTVSPost2010Prop49
280
     0
102
RTVSPost2010PropOp49
 70
     0
102
RTVSPost2010Prop50
 90
       50
102
RTVSPost2010PropOp50
 70
     0
102
RTVSPost2010Prop51ColorIndex
 90
      256
102
RTVSPost2010Prop51ColorRGB
 90
-16777216
102
RTVSPost2010PropOp51
 70
     0
102
RTVSPost2010Prop52
140
1.0
102
RTVSPost2010PropOp52
 70
     0
102
RTVSPost2010Prop53
 90
        2
102
RTVSPost2010PropOp53
 70
     0
102
RTVSPost2010Prop54
  1
strokes_ogs.tif
102
RTVSPost2010PropOp54
 70
     0
102
RTVSPost2010Prop55
280
     0
102
RTVSPost2010PropOp55
 70
     0
102
RTVSPost2010Prop56
140
1.0
102
RTVSPost2010PropOp56
 70
     0
102
RTVSPost2010Prop57
140
1.0
102
RTVSPost2010PropOp57
 70
     0
102
RTVSPropertyOp0
 70
     0
102
RTVSPropertyOp1
 70
     0
102
RTVSPropertyOp2
 70
     0
102
RTVSPropertyOp3
 70
     0
102
RTVSPropertyOp4
 70
     0
102
RTVSPropertyOp5
 70
     0
102
RTVSPropertyOp6
 70
     0
102
RTVSPropertyOp7
 70
     0
102
RTVSPropertyOp8
 70
     0
102
RTVSPropertyOp9
 70
     0
102
RTVSPropertyOp10
 70
     0
102
RTVSPropertyOp11
 70
     0
102
RTVSPropertyOp12
 70
     0
102
RTVSPropertyOp13
 70
     0
102
RTVSPropertyOp14
 70
     2
102
RTVSPropertyOp15
 70
     0
102
RTVSPropertyOp16
 70
     0
102
RTVSPropertyOp17
 70
     0
102
RTVSPropertyOp18
 70
     0
102
RTVSPropertyOp19
 70
     0
102
RTVSPropertyOp20
 70
     0
102
RTVSPropertyOp21
 70
     0
102
RTVSPropertyOp22
 70
     0
102
RTVSPropertyOp23
 70
     0
102
RTVSPropertyOp24
 70
     0
102
RTVSPropertyOp25
 70
     0
102
RTVSPropertyOp26
 70
     0
102
RTVSPropertyOp27
 70
     0
102
RTVSPropertyOp28
 70
     0
102
RTVSPropertyOp29
 70
     0
102
RTVSPropertyOp30
 70
     0
102
RTVSPropertyOp31
 70
     0
102
RTVSPropertyOp32
 70
     0
102
RTVSPropertyOp33
 70
     0
102
RTVSPropertyOp34
 70
     0
102
RTVSPropertyOp35
 70
     0
102
RTVSPropertyOp36
 70
     0
102
RTVSPropertyOp37
 70
     0
102
RTVSPropertyOp38
 70
     0
102
RTVSPropertyOp39
 70
     0
102
RTVSPropertyOp40
 70
     0
102
RTVSPropertyOp41
 70
     0
102
RTVSPropertyOp42
 70
     0
102
RTVSPropertyOp43
 70
     0
102
RTVSPropertyOp44
 70
     0
102
RTVSPropertyOp45
 70
     0
102
RTVSPropertyOp46
 70
     0
102
RTVSPropertyOp47
 70
     0
102
RTVSPropertyOp48
 70
     0
102
RTVSPropertyOp49
 70
     0
102
RTVSPropertyOp50
 70
     0
102
RTVSPropertyOp51
 70
     0
102
RTVSPropertyOp52
 70
     0
102
RTVSPropertyOp53
 70
     0
102
RTVSPropertyOp54
 70
     0
102
RTVSPropertyOp55
 70
     0
102
RTVSPropertyOp56
 70
     0
102
RTVSPropertyOp57
 70
     0
102
RTVSPropertyOp58
 70
     1
102
RTVSPropertyOp59
 70
     1
102
RTVSPropertyOp60
 70
     1
102
RTVSPropertyOp61
 70
     1
102
RTVSPropertyOp62
 70
     1
  0
XRECORD
  5
789
102
{ACAD_REACTORS
330
788
102
}
330
788
100
AcDbXrecord
280
     1
102
RTVSPost2010Prop28
280
     0
102
RTVSPost2010PropOp28
 70
     1
102
RTVSPost2010Prop29
280
     1
102
RTVSPost2010PropOp29
 70
     1
102
RTVSPost2010Prop30
280
     1
102
RTVSPost2010PropOp30
 70
     1
102
RTVSPost2010Prop31
280
     0
102
RTVSPost2010PropOp31
 70
     1
102
RTVSPost2010Prop32
280
     0
102
RTVSPost2010PropOp32
 70
     1
102
RTVSPost2010Prop33
280
     0
102
RTVSPost2010PropOp33
 70
     1
102
RTVSPost2010Prop34
280
     0
102
RTVSPost2010PropOp34
 70
     1
102
RTVSPost2010Prop35
280
     0
102
RTVSPost2010PropOp35
 70
     1
102
RTVSPost2010Prop36
280
     0
102
RTVSPost2010PropOp36
 70
     1
102
RTVSPost2010Prop37
 90
       50
102
RTVSPost2010PropOp37
 70
     1
102
RTVSPost2010Prop38
140
0.0
102
RTVSPost2010PropOp38
 70
     1
102
RTVSPost2010Prop39
140
1.0
102
RTVSPost2010PropOp39
 70
     1
102
RTVSPost2010Prop40
 90
        0
102
RTVSPost2010PropOp40
 70
     1
102
RTVSPost2010Prop41ColorIndex
 90
       18
102
RTVSPost2010Prop41ColorRGB
 90
        0
102
RTVSPost2010PropOp41
 70
     1
102
RTVSPost2010Prop42
 90
       50
102
RTVSPost2010PropOp42
 70
     1
102
RTVSPost2010Prop43
 90
        3
102
RTVSPost2010PropOp43
 70
     1
102
RTVSPost2010Prop44ColorIndex
 90
        5
102
RTVSPost2010Prop44ColorRGB
 90
      255
102
RTVSPost2010PropOp44
 70
     1
102
RTVSPost2010Prop45
280
     0
102
RTVSPost2010PropOp45
 70
     1
102
RTVSPost2010Prop46
 90
       50
102
RTVSPost2010PropOp46
 70
     1
102
RTVSPost2010Prop47
 90
       50
102
RTVSPost2010PropOp47
 70
     1
102
RTVSPost2010Prop48
 90
       50
102
RTVSPost2010PropOp48
 70
     1
102
RTVSPost2010Prop49
280
     0
102
RTVSPost2010PropOp49
 70
     1
102
RTVSPost2010Prop50
 90
       50
102
RTVSPost2010PropOp50
 70
     1
102
RTVSPost2010Prop51ColorIndex
 90
      256
102
RTVSPost2010Prop51ColorRGB
 90
-16777216
102
RTVSPost2010PropOp51
 70
     0
102
RTVSPost2010Prop52
140
1.0
102
RTVSPost2010PropOp52
 70
     0
102
RTVSPost2010Prop53
 90
        2
102
RTVSPost2010PropOp53
 70
     1
102
RTVSPost2010Prop54
  1
strokes_ogs.tif
102
RTVSPost2010PropOp54
 70
     1
102
RTVSPost2010Prop55
280
     0
102
RTVSPost2010PropOp55
 70
     1
102
RTVSPost2010Prop56
140
1.0
102
RTVSPost2010PropOp56
 70
     1
102
RTVSPost2010Prop57
140
1.0
102
RTVSPost2010PropOp57
 70
     1
102
RTVSPropertyOp0
 70
     1
102
RTVSPropertyOp1
 70
     1
102
RTVSPropertyOp2
 70
     1
102
RTVSPropertyOp3
 70
     1
102
RTVSPropertyOp4
 70
     1
102
RTVSPropertyOp5
 70
     1
102
RTVSPropertyOp6
 70
     1
102
RTVSPropertyOp7
 70
     1
102
RTVSPropertyOp8
 70
     1
102
RTVSPropertyOp9
 70
     1
102
RTVSPropertyOp10
 70
     1
102
RTVSPropertyOp11
 70
     1
102
RTVSPropertyOp12
 70
     1
102
RTVSPropertyOp13
 70
     1
102
RTVSPropertyOp14
 70
     1
102
RTVSPropertyOp15
 70
     1
102
RTVSPropertyOp16
 70
     1
102
RTVSPropertyOp17
 70
     1
102
RTVSPropertyOp18
 70
     1
102
RTVSPropertyOp19
 70
     1
102
RTVSPropertyOp20
 70
     1
102
RTVSPropertyOp21
 70
     1
102
RTVSPropertyOp22
 70
     1
102
RTVSPropertyOp23
 70
     1
102
RTVSPropertyOp24
 70
     1
102
RTVSPropertyOp25
 70
     1
102
RTVSPropertyOp26
 70
     1
102
RTVSPropertyOp27
 70
     1
102
RTVSPropertyOp28
 70
     1
102
RTVSPropertyOp29
 70
     1
102
RTVSPropertyOp30
 70
     1
102
RTVSPropertyOp31
 70
     1
102
RTVSPropertyOp32
 70
     1
102
RTVSPropertyOp33
 70
     1
102
RTVSPropertyOp34
 70
     1
102
RTVSPropertyOp35
 70
     1
102
RTVSPropertyOp36
 70
     1
102
RTVSPropertyOp37
 70
     1
102
RTVSPropertyOp38
 70
     1
102
RTVSPropertyOp39
 70
     1
102
RTVSPropertyOp40
 70
     1
102
RTVSPropertyOp41
 70
     1
102
RTVSPropertyOp42
 70
     1
102
RTVSPropertyOp43
 70
     1
102
RTVSPropertyOp44
 70
     1
102
RTVSPropertyOp45
 70
     1
102
RTVSPropertyOp46
 70
     1
102
RTVSPropertyOp47
 70
     1
102
RTVSPropertyOp48
 70
     1
102
RTVSPropertyOp49
 70
     1
102
RTVSPropertyOp50
 70
     1
102
RTVSPropertyOp51
 70
     0
102
RTVSPropertyOp52
 70
     0
102
RTVSPropertyOp53
 70
     1
102
RTVSPropertyOp54
 70
     1
102
RTVSPropertyOp55
 70
     1
102
RTVSPropertyOp56
 70
     1
102
RTVSPropertyOp57
 70
     1
102
RTVSPropertyOp58
 70
     1
102
RTVSPropertyOp59
 70
     1
102
RTVSPropertyOp60
 70
     1
102
RTVSPropertyOp61
 70
     1
102
RTVSPropertyOp62
 70
     1
  0
XRECORD
  5
79B
102
{ACAD_REACTORS
330
79A
102
}
330
79A
100
AcDbXrecord
280
     1
102
RTVSPost2010Prop28
280
     0
102
RTVSPost2010PropOp28
 70
     0
102
RTVSPost2010Prop29
280
     1
102
RTVSPost2010PropOp29
 70
     0
102
RTVSPost2010Prop30
280
     1
102
RTVSPost2010PropOp30
 70
     0
102
RTVSPost2010Prop31
280
     0
102
RTVSPost2010PropOp31
 70
     0
102
RTVSPost2010Prop32
280
     0
102
RTVSPost2010PropOp32
 70
     0
102
RTVSPost2010Prop33
280
     0
102
RTVSPost2010PropOp33
 70
     0
102
RTVSPost2010Prop34
280
     0
102
RTVSPost2010PropOp34
 70
     0
102
RTVSPost2010Prop35
280
     0
102
RTVSPost2010PropOp35
 70
     0
102
RTVSPost2010Prop36
280
     0
102
RTVSPost2010PropOp36
 70
     0
102
RTVSPost2010Prop37
 90
       50
102
RTVSPost2010PropOp37
 70
     0
102
RTVSPost2010Prop38
140
0.0
102
RTVSPost2010PropOp38
 70
     0
102
RTVSPost2010Prop39
140
1.0
102
RTVSPost2010PropOp39
 70
     0
102
RTVSPost2010Prop40
 90
        0
102
RTVSPost2010PropOp40
 70
     0
102
RTVSPost2010Prop41ColorIndex
 90
       18
102
RTVSPost2010Prop41ColorRGB
 90
        0
102
RTVSPost2010PropOp41
 70
     0
102
RTVSPost2010Prop42
 90
       50
102
RTVSPost2010PropOp42
 70
     0
102
RTVSPost2010Prop43
 90
        3
102
RTVSPost2010PropOp43
 70
     0
102
RTVSPost2010Prop44ColorIndex
 90
        5
102
RTVSPost2010Prop44ColorRGB
 90
      255
102
RTVSPost2010PropOp44
 70
     0
102
RTVSPost2010Prop45
280
     0
102
RTVSPost2010PropOp45
 70
     0
102
RTVSPost2010Prop46
 90
       50
102
RTVSPost2010PropOp46
 70
     0
102
RTVSPost2010Prop47
 90
       50
102
RTVSPost2010PropOp47
 70
     0
102
RTVSPost2010Prop48
 90
       50
102
RTVSPost2010PropOp48
 70
     0
102
RTVSPost2010Prop49
280
     0
102
RTVSPost2010PropOp49
 70
     0
102
RTVSPost2010Prop50
 90
       50
102
RTVSPost2010PropOp50
 70
     0
102
RTVSPost2010Prop51ColorIndex
 90
      256
102
RTVSPost2010Prop51ColorRGB
 90
-16777216
102
RTVSPost2010PropOp51
 70
     0
102
RTVSPost2010Prop52
140
1.0
102
RTVSPost2010PropOp52
 70
     0
102
RTVSPost2010Prop53
 90
        2
102
RTVSPost2010PropOp53
 70
     0
102
RTVSPost2010Prop54
  1
strokes_ogs.tif
102
RTVSPost2010PropOp54
 70
     0
102
RTVSPost2010Prop55
280
     0
102
RTVSPost2010PropOp55
 70
     0
102
RTVSPost2010Prop56
140
1.0
102
RTVSPost2010PropOp56
 70
     0
102
RTVSPost2010Prop57
140
1.0
102
RTVSPost2010PropOp57
 70
     0
102
RTVSPropertyOp0
 70
     0
102
RTVSPropertyOp1
 70
     0
102
RTVSPropertyOp2
 70
     0
102
RTVSPropertyOp3
 70
     0
102
RTVSPropertyOp4
 70
     0
102
RTVSPropertyOp5
 70
     0
102
RTVSPropertyOp6
 70
     0
102
RTVSPropertyOp7
 70
     0
102
RTVSPropertyOp8
 70
     0
102
RTVSPropertyOp9
 70
     0
102
RTVSPropertyOp10
 70
     0
102
RTVSPropertyOp11
 70
     0
102
RTVSPropertyOp12
 70
     0
102
RTVSPropertyOp13
 70
     0
102
RTVSPropertyOp14
 70
     2
102
RTVSPropertyOp15
 70
     0
102
RTVSPropertyOp16
 70
     0
102
RTVSPropertyOp17
 70
     0
102
RTVSPropertyOp18
 70
     0
102
RTVSPropertyOp19
 70
     0
102
RTVSPropertyOp20
 70
     0
102
RTVSPropertyOp21
 70
     0
102
RTVSPropertyOp22
 70
     0
102
RTVSPropertyOp23
 70
     0
102
RTVSPropertyOp24
 70
     0
102
RTVSPropertyOp25
 70
     0
102
RTVSPropertyOp26
 70
     0
102
RTVSPropertyOp27
 70
     0
102
RTVSPropertyOp28
 70
     0
102
RTVSPropertyOp29
 70
     0
102
RTVSPropertyOp30
 70
     0
102
RTVSPropertyOp31
 70
     0
102
RTVSPropertyOp32
 70
     0
102
RTVSPropertyOp33
 70
     0
102
RTVSPropertyOp34
 70
     0
102
RTVSPropertyOp35
 70
     0
102
RTVSPropertyOp36
 70
     0
102
RTVSPropertyOp37
 70
     0
102
RTVSPropertyOp38
 70
     0
102
RTVSPropertyOp39
 70
     0
102
RTVSPropertyOp40
 70
     0
102
RTVSPropertyOp41
 70
     0
102
RTVSPropertyOp42
 70
     0
102
RTVSPropertyOp43
 70
     0
102
RTVSPropertyOp44
 70
     0
102
RTVSPropertyOp45
 70
     0
102
RTVSPropertyOp46
 70
     0
102
RTVSPropertyOp47
 70
     0
102
RTVSPropertyOp48
 70
     0
102
RTVSPropertyOp49
 70
     0
102
RTVSPropertyOp50
 70
     0
102
RTVSPropertyOp51
 70
     0
102
RTVSPropertyOp52
 70
     0
102
RTVSPropertyOp53
 70
     0
102
RTVSPropertyOp54
 70
     0
102
RTVSPropertyOp55
 70
     0
102
RTVSPropertyOp56
 70
     0
102
RTVSPropertyOp57
 70
     0
102
RTVSPropertyOp58
 70
     1
102
RTVSPropertyOp59
 70
     1
102
RTVSPropertyOp60
 70
     1
102
RTVSPropertyOp61
 70
     1
102
RTVSPropertyOp62
 70
     1
  0
XRECORD
  5
781
102
{ACAD_REACTORS
330
780
102
}
330
780
100
AcDbXrecord
280
     1
102
RTVSPost2010Prop28
280
     0
102
RTVSPost2010PropOp28
 70
     1
102
RTVSPost2010Prop29
280
     1
102
RTVSPost2010PropOp29
 70
     1
102
RTVSPost2010Prop30
280
     1
102
RTVSPost2010PropOp30
 70
     1
102
RTVSPost2010Prop31
280
     0
102
RTVSPost2010PropOp31
 70
     1
102
RTVSPost2010Prop32
280
     0
102
RTVSPost2010PropOp32
 70
     1
102
RTVSPost2010Prop33
280
     0
102
RTVSPost2010PropOp33
 70
     1
102
RTVSPost2010Prop34
280
     0
102
RTVSPost2010PropOp34
 70
     1
102
RTVSPost2010Prop35
280
     0
102
RTVSPost2010PropOp35
 70
     1
102
RTVSPost2010Prop36
280
     0
102
RTVSPost2010PropOp36
 70
     1
102
RTVSPost2010Prop37
 90
       50
102
RTVSPost2010PropOp37
 70
     1
102
RTVSPost2010Prop38
140
0.0
102
RTVSPost2010PropOp38
 70
     1
102
RTVSPost2010Prop39
140
1.0
102
RTVSPost2010PropOp39
 70
     1
102
RTVSPost2010Prop40
 90
        0
102
RTVSPost2010PropOp40
 70
     1
102
RTVSPost2010Prop41ColorIndex
 90
       18
102
RTVSPost2010Prop41ColorRGB
 90
        0
102
RTVSPost2010PropOp41
 70
     1
102
RTVSPost2010Prop42
 90
       50
102
RTVSPost2010PropOp42
 70
     1
102
RTVSPost2010Prop43
 90
        3
102
RTVSPost2010PropOp43
 70
     1
102
RTVSPost2010Prop44ColorIndex
 90
        5
102
RTVSPost2010Prop44ColorRGB
 90
      255
102
RTVSPost2010PropOp44
 70
     1
102
RTVSPost2010Prop45
280
     0
102
RTVSPost2010PropOp45
 70
     1
102
RTVSPost2010Prop46
 90
       50
102
RTVSPost2010PropOp46
 70
     1
102
RTVSPost2010Prop47
 90
       50
102
RTVSPost2010PropOp47
 70
     1
102
RTVSPost2010Prop48
 90
       50
102
RTVSPost2010PropOp48
 70
     1
102
RTVSPost2010Prop49
280
     0
102
RTVSPost2010PropOp49
 70
     1
102
RTVSPost2010Prop50
 90
       50
102
RTVSPost2010PropOp50
 70
     1
102
RTVSPost2010Prop51ColorIndex
 90
      256
102
RTVSPost2010Prop51ColorRGB
 90
-16777216
102
RTVSPost2010PropOp51
 70
     0
102
RTVSPost2010Prop52
140
1.0
102
RTVSPost2010PropOp52
 70
     0
102
RTVSPost2010Prop53
 90
        2
102
RTVSPost2010PropOp53
 70
     1
102
RTVSPost2010Prop54
  1
strokes_ogs.tif
102
RTVSPost2010PropOp54
 70
     1
102
RTVSPost2010Prop55
280
     0
102
RTVSPost2010PropOp55
 70
     1
102
RTVSPost2010Prop56
140
1.0
102
RTVSPost2010PropOp56
 70
     1
102
RTVSPost2010Prop57
140
1.0
102
RTVSPost2010PropOp57
 70
     1
102
RTVSPropertyOp0
 70
     1
102
RTVSPropertyOp1
 70
     1
102
RTVSPropertyOp2
 70
     1
102
RTVSPropertyOp3
 70
     1
102
RTVSPropertyOp4
 70
     1
102
RTVSPropertyOp5
 70
     1
102
RTVSPropertyOp6
 70
     1
102
RTVSPropertyOp7
 70
     1
102
RTVSPropertyOp8
 70
     1
102
RTVSPropertyOp9
 70
     1
102
RTVSPropertyOp10
 70
     1
102
RTVSPropertyOp11
 70
     1
102
RTVSPropertyOp12
 70
     1
102
RTVSPropertyOp13
 70
     1
102
RTVSPropertyOp14
 70
     1
102
RTVSPropertyOp15
 70
     1
102
RTVSPropertyOp16
 70
     1
102
RTVSPropertyOp17
 70
     1
102
RTVSPropertyOp18
 70
     1
102
RTVSPropertyOp19
 70
     1
102
RTVSPropertyOp20
 70
     1
102
RTVSPropertyOp21
 70
     1
102
RTVSPropertyOp22
 70
     1
102
RTVSPropertyOp23
 70
     1
102
RTVSPropertyOp24
 70
     1
102
RTVSPropertyOp25
 70
     1
102
RTVSPropertyOp26
 70
     1
102
RTVSPropertyOp27
 70
     1
102
RTVSPropertyOp28
 70
     1
102
RTVSPropertyOp29
 70
     1
102
RTVSPropertyOp30
 70
     1
102
RTVSPropertyOp31
 70
     1
102
RTVSPropertyOp32
 70
     1
102
RTVSPropertyOp33
 70
     1
102
RTVSPropertyOp34
 70
     1
102
RTVSPropertyOp35
 70
     1
102
RTVSPropertyOp36
 70
     1
102
RTVSPropertyOp37
 70
     1
102
RTVSPropertyOp38
 70
     1
102
RTVSPropertyOp39
 70
     1
102
RTVSPropertyOp40
 70
     1
102
RTVSPropertyOp41
 70
     1
102
RTVSPropertyOp42
 70
     1
102
RTVSPropertyOp43
 70
     1
102
RTVSPropertyOp44
 70
     1
102
RTVSPropertyOp45
 70
     1
102
RTVSPropertyOp46
 70
     1
102
RTVSPropertyOp47
 70
     1
102
RTVSPropertyOp48
 70
     1
102
RTVSPropertyOp49
 70
     1
102
RTVSPropertyOp50
 70
     1
102
RTVSPropertyOp51
 70
     0
102
RTVSPropertyOp52
 70
     0
102
RTVSPropertyOp53
 70
     1
102
RTVSPropertyOp54
 70
     1
102
RTVSPropertyOp55
 70
     1
102
RTVSPropertyOp56
 70
     1
102
RTVSPropertyOp57
 70
     1
102
RTVSPropertyOp58
 70
     1
102
RTVSPropertyOp59
 70
     1
102
RTVSPropertyOp60
 70
     1
102
RTVSPropertyOp61
 70
     1
102
RTVSPropertyOp62
 70
     1
  0
XRECORD
  5
797
102
{ACAD_REACTORS
330
796
102
}
330
796
100
AcDbXrecord
280
     1
102
RTVSPost2010Prop28
280
     0
102
RTVSPost2010PropOp28
 70
     1
102
RTVSPost2010Prop29
280
     1
102
RTVSPost2010PropOp29
 70
     1
102
RTVSPost2010Prop30
280
     1
102
RTVSPost2010PropOp30
 70
     1
102
RTVSPost2010Prop31
280
     0
102
RTVSPost2010PropOp31
 70
     1
102
RTVSPost2010Prop32
280
     0
102
RTVSPost2010PropOp32
 70
     1
102
RTVSPost2010Prop33
280
     0
102
RTVSPost2010PropOp33
 70
     1
102
RTVSPost2010Prop34
280
     0
102
RTVSPost2010PropOp34
 70
     1
102
RTVSPost2010Prop35
280
     0
102
RTVSPost2010PropOp35
 70
     1
102
RTVSPost2010Prop36
280
     0
102
RTVSPost2010PropOp36
 70
     1
102
RTVSPost2010Prop37
 90
       50
102
RTVSPost2010PropOp37
 70
     1
102
RTVSPost2010Prop38
140
0.0
102
RTVSPost2010PropOp38
 70
     1
102
RTVSPost2010Prop39
140
1.0
102
RTVSPost2010PropOp39
 70
     1
102
RTVSPost2010Prop40
 90
        0
102
RTVSPost2010PropOp40
 70
     1
102
RTVSPost2010Prop41ColorIndex
 90
       18
102
RTVSPost2010Prop41ColorRGB
 90
        0
102
RTVSPost2010PropOp41
 70
     1
102
RTVSPost2010Prop42
 90
       50
102
RTVSPost2010PropOp42
 70
     1
102
RTVSPost2010Prop43
 90
        3
102
RTVSPost2010PropOp43
 70
     1
102
RTVSPost2010Prop44ColorIndex
 90
        5
102
RTVSPost2010Prop44ColorRGB
 90
      255
102
RTVSPost2010PropOp44
 70
     1
102
RTVSPost2010Prop45
280
     0
102
RTVSPost2010PropOp45
 70
     1
102
RTVSPost2010Prop46
 90
       50
102
RTVSPost2010PropOp46
 70
     1
102
RTVSPost2010Prop47
 90
       50
102
RTVSPost2010PropOp47
 70
     1
102
RTVSPost2010Prop48
 90
       50
102
RTVSPost2010PropOp48
 70
     1
102
RTVSPost2010Prop49
280
     0
102
RTVSPost2010PropOp49
 70
     1
102
RTVSPost2010Prop50
 90
       50
102
RTVSPost2010PropOp50
 70
     1
102
RTVSPost2010Prop51ColorIndex
 90
      256
102
RTVSPost2010Prop51ColorRGB
 90
-16777216
102
RTVSPost2010PropOp51
 70
     0
102
RTVSPost2010Prop52
140
1.0
102
RTVSPost2010PropOp52
 70
     0
102
RTVSPost2010Prop53
 90
        2
102
RTVSPost2010PropOp53
 70
     1
102
RTVSPost2010Prop54
  1
strokes_ogs.tif
102
RTVSPost2010PropOp54
 70
     1
102
RTVSPost2010Prop55
280
     0
102
RTVSPost2010PropOp55
 70
     1
102
RTVSPost2010Prop56
140
1.0
102
RTVSPost2010PropOp56
 70
     1
102
RTVSPost2010Prop57
140
1.0
102
RTVSPost2010PropOp57
 70
     1
102
RTVSPropertyOp0
 70
     1
102
RTVSPropertyOp1
 70
     1
102
RTVSPropertyOp2
 70
     1
102
RTVSPropertyOp3
 70
     1
102
RTVSPropertyOp4
 70
     1
102
RTVSPropertyOp5
 70
     1
102
RTVSPropertyOp6
 70
     1
102
RTVSPropertyOp7
 70
     1
102
RTVSPropertyOp8
 70
     1
102
RTVSPropertyOp9
 70
     1
102
RTVSPropertyOp10
 70
     1
102
RTVSPropertyOp11
 70
     1
102
RTVSPropertyOp12
 70
     1
102
RTVSPropertyOp13
 70
     1
102
RTVSPropertyOp14
 70
     1
102
RTVSPropertyOp15
 70
     1
102
RTVSPropertyOp16
 70
     1
102
RTVSPropertyOp17
 70
     1
102
RTVSPropertyOp18
 70
     1
102
RTVSPropertyOp19
 70
     1
102
RTVSPropertyOp20
 70
     1
102
RTVSPropertyOp21
 70
     1
102
RTVSPropertyOp22
 70
     1
102
RTVSPropertyOp23
 70
     1
102
RTVSPropertyOp24
 70
     1
102
RTVSPropertyOp25
 70
     1
102
RTVSPropertyOp26
 70
     1
102
RTVSPropertyOp27
 70
     1
102
RTVSPropertyOp28
 70
     1
102
RTVSPropertyOp29
 70
     1
102
RTVSPropertyOp30
 70
     1
102
RTVSPropertyOp31
 70
     1
102
RTVSPropertyOp32
 70
     1
102
RTVSPropertyOp33
 70
     1
102
RTVSPropertyOp34
 70
     1
102
RTVSPropertyOp35
 70
     1
102
RTVSPropertyOp36
 70
     1
102
RTVSPropertyOp37
 70
     1
102
RTVSPropertyOp38
 70
     1
102
RTVSPropertyOp39
 70
     1
102
RTVSPropertyOp40
 70
     1
102
RTVSPropertyOp41
 70
     1
102
RTVSPropertyOp42
 70
     1
102
RTVSPropertyOp43
 70
     1
102
RTVSPropertyOp44
 70
     1
102
RTVSPropertyOp45
 70
     1
102
RTVSPropertyOp46
 70
     1
102
RTVSPropertyOp47
 70
     1
102
RTVSPropertyOp48
 70
     1
102
RTVSPropertyOp49
 70
     1
102
RTVSPropertyOp50
 70
     1
102
RTVSPropertyOp51
 70
     0
102
RTVSPropertyOp52
 70
     0
102
RTVSPropertyOp53
 70
     1
102
RTVSPropertyOp54
 70
     1
102
RTVSPropertyOp55
 70
     1
102
RTVSPropertyOp56
 70
     1
102
RTVSPropertyOp57
 70
     1
102
RTVSPropertyOp58
 70
     1
102
RTVSPropertyOp59
 70
     1
102
RTVSPropertyOp60
 70
     1
102
RTVSPropertyOp61
 70
     1
102
RTVSPropertyOp62
 70
     1
  0
XRECORD
  5
795
102
{ACAD_REACTORS
330
794
102
}
330
794
100
AcDbXrecord
280
     1
102
RTVSPost2010Prop28
280
     0
102
RTVSPost2010PropOp28
 70
     1
102
RTVSPost2010Prop29
280
     1
102
RTVSPost2010PropOp29
 70
     1
102
RTVSPost2010Prop30
280
     1
102
RTVSPost2010PropOp30
 70
     1
102
RTVSPost2010Prop31
280
     0
102
RTVSPost2010PropOp31
 70
     1
102
RTVSPost2010Prop32
280
     0
102
RTVSPost2010PropOp32
 70
     1
102
RTVSPost2010Prop33
280
     0
102
RTVSPost2010PropOp33
 70
     1
102
RTVSPost2010Prop34
280
     0
102
RTVSPost2010PropOp34
 70
     1
102
RTVSPost2010Prop35
280
     0
102
RTVSPost2010PropOp35
 70
     1
102
RTVSPost2010Prop36
280
     0
102
RTVSPost2010PropOp36
 70
     1
102
RTVSPost2010Prop37
 90
       50
102
RTVSPost2010PropOp37
 70
     1
102
RTVSPost2010Prop38
140
0.0
102
RTVSPost2010PropOp38
 70
     1
102
RTVSPost2010Prop39
140
1.0
102
RTVSPost2010PropOp39
 70
     1
102
RTVSPost2010Prop40
 90
        0
102
RTVSPost2010PropOp40
 70
     1
102
RTVSPost2010Prop41ColorIndex
 90
       18
102
RTVSPost2010Prop41ColorRGB
 90
        0
102
RTVSPost2010PropOp41
 70
     1
102
RTVSPost2010Prop42
 90
       50
102
RTVSPost2010PropOp42
 70
     1
102
RTVSPost2010Prop43
 90
        3
102
RTVSPost2010PropOp43
 70
     1
102
RTVSPost2010Prop44ColorIndex
 90
        5
102
RTVSPost2010Prop44ColorRGB
 90
      255
102
RTVSPost2010PropOp44
 70
     1
102
RTVSPost2010Prop45
280
     0
102
RTVSPost2010PropOp45
 70
     1
102
RTVSPost2010Prop46
 90
       50
102
RTVSPost2010PropOp46
 70
     1
102
RTVSPost2010Prop47
 90
       50
102
RTVSPost2010PropOp47
 70
     1
102
RTVSPost2010Prop48
 90
       50
102
RTVSPost2010PropOp48
 70
     1
102
RTVSPost2010Prop49
280
     0
102
RTVSPost2010PropOp49
 70
     1
102
RTVSPost2010Prop50
 90
       50
102
RTVSPost2010PropOp50
 70
     1
102
RTVSPost2010Prop51ColorIndex
 90
      256
102
RTVSPost2010Prop51ColorRGB
 90
-16777216
102
RTVSPost2010PropOp51
 70
     0
102
RTVSPost2010Prop52
140
1.0
102
RTVSPost2010PropOp52
 70
     0
102
RTVSPost2010Prop53
 90
        2
102
RTVSPost2010PropOp53
 70
     1
102
RTVSPost2010Prop54
  1
strokes_ogs.tif
102
RTVSPost2010PropOp54
 70
     1
102
RTVSPost2010Prop55
280
     0
102
RTVSPost2010PropOp55
 70
     1
102
RTVSPost2010Prop56
140
1.0
102
RTVSPost2010PropOp56
 70
     1
102
RTVSPost2010Prop57
140
1.0
102
RTVSPost2010PropOp57
 70
     1
102
RTVSPropertyOp0
 70
     1
102
RTVSPropertyOp1
 70
     1
102
RTVSPropertyOp2
 70
     1
102
RTVSPropertyOp3
 70
     1
102
RTVSPropertyOp4
 70
     1
102
RTVSPropertyOp5
 70
     1
102
RTVSPropertyOp6
 70
     1
102
RTVSPropertyOp7
 70
     1
102
RTVSPropertyOp8
 70
     1
102
RTVSPropertyOp9
 70
     1
102
RTVSPropertyOp10
 70
     1
102
RTVSPropertyOp11
 70
     1
102
RTVSPropertyOp12
 70
     1
102
RTVSPropertyOp13
 70
     1
102
RTVSPropertyOp14
 70
     1
102
RTVSPropertyOp15
 70
     1
102
RTVSPropertyOp16
 70
     1
102
RTVSPropertyOp17
 70
     1
102
RTVSPropertyOp18
 70
     1
102
RTVSPropertyOp19
 70
     1
102
RTVSPropertyOp20
 70
     1
102
RTVSPropertyOp21
 70
     1
102
RTVSPropertyOp22
 70
     1
102
RTVSPropertyOp23
 70
     1
102
RTVSPropertyOp24
 70
     1
102
RTVSPropertyOp25
 70
     1
102
RTVSPropertyOp26
 70
     1
102
RTVSPropertyOp27
 70
     1
102
RTVSPropertyOp28
 70
     1
102
RTVSPropertyOp29
 70
     1
102
RTVSPropertyOp30
 70
     1
102
RTVSPropertyOp31
 70
     1
102
RTVSPropertyOp32
 70
     1
102
RTVSPropertyOp33
 70
     1
102
RTVSPropertyOp34
 70
     1
102
RTVSPropertyOp35
 70
     1
102
RTVSPropertyOp36
 70
     1
102
RTVSPropertyOp37
 70
     1
102
RTVSPropertyOp38
 70
     1
102
RTVSPropertyOp39
 70
     1
102
RTVSPropertyOp40
 70
     1
102
RTVSPropertyOp41
 70
     1
102
RTVSPropertyOp42
 70
     1
102
RTVSPropertyOp43
 70
     1
102
RTVSPropertyOp44
 70
     1
102
RTVSPropertyOp45
 70
     1
102
RTVSPropertyOp46
 70
     1
102
RTVSPropertyOp47
 70
     1
102
RTVSPropertyOp48
 70
     1
102
RTVSPropertyOp49
 70
     1
102
RTVSPropertyOp50
 70
     1
102
RTVSPropertyOp51
 70
     0
102
RTVSPropertyOp52
 70
     0
102
RTVSPropertyOp53
 70
     1
102
RTVSPropertyOp54
 70
     1
102
RTVSPropertyOp55
 70
     1
102
RTVSPropertyOp56
 70
     1
102
RTVSPropertyOp57
 70
     1
102
RTVSPropertyOp58
 70
     1
102
RTVSPropertyOp59
 70
     1
102
RTVSPropertyOp60
 70
     1
102
RTVSPropertyOp61
 70
     1
102
RTVSPropertyOp62
 70
     1
  0
XRECORD
  5
78F
102
{ACAD_REACTORS
330
78E
102
}
330
78E
100
AcDbXrecord
280
     1
102
RTVSPost2010Prop28
280
     0
102
RTVSPost2010PropOp28
 70
     1
102
RTVSPost2010Prop29
280
     1
102
RTVSPost2010PropOp29
 70
     1
102
RTVSPost2010Prop30
280
     1
102
RTVSPost2010PropOp30
 70
     1
102
RTVSPost2010Prop31
280
     0
102
RTVSPost2010PropOp31
 70
     1
102
RTVSPost2010Prop32
280
     0
102
RTVSPost2010PropOp32
 70
     1
102
RTVSPost2010Prop33
280
     0
102
RTVSPost2010PropOp33
 70
     1
102
RTVSPost2010Prop34
280
     0
102
RTVSPost2010PropOp34
 70
     1
102
RTVSPost2010Prop35
280
     0
102
RTVSPost2010PropOp35
 70
     1
102
RTVSPost2010Prop36
280
     0
102
RTVSPost2010PropOp36
 70
     1
102
RTVSPost2010Prop37
 90
       50
102
RTVSPost2010PropOp37
 70
     1
102
RTVSPost2010Prop38
140
0.0
102
RTVSPost2010PropOp38
 70
     1
102
RTVSPost2010Prop39
140
1.0
102
RTVSPost2010PropOp39
 70
     1
102
RTVSPost2010Prop40
 90
        0
102
RTVSPost2010PropOp40
 70
     1
102
RTVSPost2010Prop41ColorIndex
 90
       18
102
RTVSPost2010Prop41ColorRGB
 90
        0
102
RTVSPost2010PropOp41
 70
     1
102
RTVSPost2010Prop42
 90
       50
102
RTVSPost2010PropOp42
 70
     1
102
RTVSPost2010Prop43
 90
        3
102
RTVSPost2010PropOp43
 70
     1
102
RTVSPost2010Prop44ColorIndex
 90
        5
102
RTVSPost2010Prop44ColorRGB
 90
      255
102
RTVSPost2010PropOp44
 70
     1
102
RTVSPost2010Prop45
280
     0
102
RTVSPost2010PropOp45
 70
     1
102
RTVSPost2010Prop46
 90
       50
102
RTVSPost2010PropOp46
 70
     1
102
RTVSPost2010Prop47
 90
       50
102
RTVSPost2010PropOp47
 70
     1
102
RTVSPost2010Prop48
 90
       50
102
RTVSPost2010PropOp48
 70
     1
102
RTVSPost2010Prop49
280
     0
102
RTVSPost2010PropOp49
 70
     1
102
RTVSPost2010Prop50
 90
       50
102
RTVSPost2010PropOp50
 70
     1
102
RTVSPost2010Prop51ColorIndex
 90
      256
102
RTVSPost2010Prop51ColorRGB
 90
-16777216
102
RTVSPost2010PropOp51
 70
     0
102
RTVSPost2010Prop52
140
1.0
102
RTVSPost2010PropOp52
 70
     0
102
RTVSPost2010Prop53
 90
        2
102
RTVSPost2010PropOp53
 70
     1
102
RTVSPost2010Prop54
  1
strokes_ogs.tif
102
RTVSPost2010PropOp54
 70
     1
102
RTVSPost2010Prop55
280
     0
102
RTVSPost2010PropOp55
 70
     1
102
RTVSPost2010Prop56
140
1.0
102
RTVSPost2010PropOp56
 70
     1
102
RTVSPost2010Prop57
140
1.0
102
RTVSPost2010PropOp57
 70
     1
102
RTVSPropertyOp0
 70
     1
102
RTVSPropertyOp1
 70
     1
102
RTVSPropertyOp2
 70
     1
102
RTVSPropertyOp3
 70
     1
102
RTVSPropertyOp4
 70
     1
102
RTVSPropertyOp5
 70
     1
102
RTVSPropertyOp6
 70
     1
102
RTVSPropertyOp7
 70
     1
102
RTVSPropertyOp8
 70
     1
102
RTVSPropertyOp9
 70
     1
102
RTVSPropertyOp10
 70
     1
102
RTVSPropertyOp11
 70
     1
102
RTVSPropertyOp12
 70
     1
102
RTVSPropertyOp13
 70
     1
102
RTVSPropertyOp14
 70
     1
102
RTVSPropertyOp15
 70
     1
102
RTVSPropertyOp16
 70
     1
102
RTVSPropertyOp17
 70
     1
102
RTVSPropertyOp18
 70
     1
102
RTVSPropertyOp19
 70
     1
102
RTVSPropertyOp20
 70
     1
102
RTVSPropertyOp21
 70
     1
102
RTVSPropertyOp22
 70
     1
102
RTVSPropertyOp23
 70
     1
102
RTVSPropertyOp24
 70
     1
102
RTVSPropertyOp25
 70
     1
102
RTVSPropertyOp26
 70
     1
102
RTVSPropertyOp27
 70
     1
102
RTVSPropertyOp28
 70
     1
102
RTVSPropertyOp29
 70
     1
102
RTVSPropertyOp30
 70
     1
102
RTVSPropertyOp31
 70
     1
102
RTVSPropertyOp32
 70
     1
102
RTVSPropertyOp33
 70
     1
102
RTVSPropertyOp34
 70
     1
102
RTVSPropertyOp35
 70
     1
102
RTVSPropertyOp36
 70
     1
102
RTVSPropertyOp37
 70
     1
102
RTVSPropertyOp38
 70
     1
102
RTVSPropertyOp39
 70
     1
102
RTVSPropertyOp40
 70
     1
102
RTVSPropertyOp41
 70
     1
102
RTVSPropertyOp42
 70
     1
102
RTVSPropertyOp43
 70
     1
102
RTVSPropertyOp44
 70
     1
102
RTVSPropertyOp45
 70
     1
102
RTVSPropertyOp46
 70
     1
102
RTVSPropertyOp47
 70
     1
102
RTVSPropertyOp48
 70
     1
102
RTVSPropertyOp49
 70
     1
102
RTVSPropertyOp50
 70
     1
102
RTVSPropertyOp51
 70
     0
102
RTVSPropertyOp52
 70
     0
102
RTVSPropertyOp53
 70
     1
102
RTVSPropertyOp54
 70
     1
102
RTVSPropertyOp55
 70
     1
102
RTVSPropertyOp56
 70
     1
102
RTVSPropertyOp57
 70
     1
102
RTVSPropertyOp58
 70
     1
102
RTVSPropertyOp59
 70
     1
102
RTVSPropertyOp60
 70
     1
102
RTVSPropertyOp61
 70
     1
102
RTVSPropertyOp62
 70
     1
  0
XRECORD
  5
791
102
{ACAD_REACTORS
330
790
102
}
330
790
100
AcDbXrecord
280
     1
102
RTVSPost2010Prop28
280
     0
102
RTVSPost2010PropOp28
 70
     1
102
RTVSPost2010Prop29
280
     1
102
RTVSPost2010PropOp29
 70
     1
102
RTVSPost2010Prop30
280
     1
102
RTVSPost2010PropOp30
 70
     1
102
RTVSPost2010Prop31
280
     0
102
RTVSPost2010PropOp31
 70
     1
102
RTVSPost2010Prop32
280
     0
102
RTVSPost2010PropOp32
 70
     1
102
RTVSPost2010Prop33
280
     0
102
RTVSPost2010PropOp33
 70
     1
102
RTVSPost2010Prop34
280
     0
102
RTVSPost2010PropOp34
 70
     1
102
RTVSPost2010Prop35
280
     0
102
RTVSPost2010PropOp35
 70
     1
102
RTVSPost2010Prop36
280
     0
102
RTVSPost2010PropOp36
 70
     1
102
RTVSPost2010Prop37
 90
       50
102
RTVSPost2010PropOp37
 70
     1
102
RTVSPost2010Prop38
140
0.0
102
RTVSPost2010PropOp38
 70
     1
102
RTVSPost2010Prop39
140
1.0
102
RTVSPost2010PropOp39
 70
     1
102
RTVSPost2010Prop40
 90
        0
102
RTVSPost2010PropOp40
 70
     1
102
RTVSPost2010Prop41ColorIndex
 90
       18
102
RTVSPost2010Prop41ColorRGB
 90
        0
102
RTVSPost2010PropOp41
 70
     1
102
RTVSPost2010Prop42
 90
       50
102
RTVSPost2010PropOp42
 70
     1
102
RTVSPost2010Prop43
 90
        3
102
RTVSPost2010PropOp43
 70
     1
102
RTVSPost2010Prop44ColorIndex
 90
        5
102
RTVSPost2010Prop44ColorRGB
 90
      255
102
RTVSPost2010PropOp44
 70
     1
102
RTVSPost2010Prop45
280
     0
102
RTVSPost2010PropOp45
 70
     1
102
RTVSPost2010Prop46
 90
       50
102
RTVSPost2010PropOp46
 70
     1
102
RTVSPost2010Prop47
 90
       50
102
RTVSPost2010PropOp47
 70
     1
102
RTVSPost2010Prop48
 90
       50
102
RTVSPost2010PropOp48
 70
     1
102
RTVSPost2010Prop49
280
     0
102
RTVSPost2010PropOp49
 70
     1
102
RTVSPost2010Prop50
 90
       50
102
RTVSPost2010PropOp50
 70
     1
102
RTVSPost2010Prop51ColorIndex
 90
      256
102
RTVSPost2010Prop51ColorRGB
 90
-16777216
102
RTVSPost2010PropOp51
 70
     0
102
RTVSPost2010Prop52
140
1.0
102
RTVSPost2010PropOp52
 70
     0
102
RTVSPost2010Prop53
 90
        2
102
RTVSPost2010PropOp53
 70
     1
102
RTVSPost2010Prop54
  1
strokes_ogs.tif
102
RTVSPost2010PropOp54
 70
     1
102
RTVSPost2010Prop55
280
     0
102
RTVSPost2010PropOp55
 70
     1
102
RTVSPost2010Prop56
140
1.0
102
RTVSPost2010PropOp56
 70
     1
102
RTVSPost2010Prop57
140
1.0
102
RTVSPost2010PropOp57
 70
     1
102
RTVSPropertyOp0
 70
     1
102
RTVSPropertyOp1
 70
     1
102
RTVSPropertyOp2
 70
     1
102
RTVSPropertyOp3
 70
     1
102
RTVSPropertyOp4
 70
     1
102
RTVSPropertyOp5
 70
     1
102
RTVSPropertyOp6
 70
     1
102
RTVSPropertyOp7
 70
     1
102
RTVSPropertyOp8
 70
     1
102
RTVSPropertyOp9
 70
     1
102
RTVSPropertyOp10
 70
     1
102
RTVSPropertyOp11
 70
     1
102
RTVSPropertyOp12
 70
     1
102
RTVSPropertyOp13
 70
     1
102
RTVSPropertyOp14
 70
     1
102
RTVSPropertyOp15
 70
     1
102
RTVSPropertyOp16
 70
     1
102
RTVSPropertyOp17
 70
     1
102
RTVSPropertyOp18
 70
     1
102
RTVSPropertyOp19
 70
     1
102
RTVSPropertyOp20
 70
     1
102
RTVSPropertyOp21
 70
     1
102
RTVSPropertyOp22
 70
     1
102
RTVSPropertyOp23
 70
     1
102
RTVSPropertyOp24
 70
     1
102
RTVSPropertyOp25
 70
     1
102
RTVSPropertyOp26
 70
     1
102
RTVSPropertyOp27
 70
     1
102
RTVSPropertyOp28
 70
     1
102
RTVSPropertyOp29
 70
     1
102
RTVSPropertyOp30
 70
     1
102
RTVSPropertyOp31
 70
     1
102
RTVSPropertyOp32
 70
     1
102
RTVSPropertyOp33
 70
     1
102
RTVSPropertyOp34
 70
     1
102
RTVSPropertyOp35
 70
     1
102
RTVSPropertyOp36
 70
     1
102
RTVSPropertyOp37
 70
     1
102
RTVSPropertyOp38
 70
     1
102
RTVSPropertyOp39
 70
     1
102
RTVSPropertyOp40
 70
     1
102
RTVSPropertyOp41
 70
     1
102
RTVSPropertyOp42
 70
     1
102
RTVSPropertyOp43
 70
     1
102
RTVSPropertyOp44
 70
     1
102
RTVSPropertyOp45
 70
     1
102
RTVSPropertyOp46
 70
     1
102
RTVSPropertyOp47
 70
     1
102
RTVSPropertyOp48
 70
     1
102
RTVSPropertyOp49
 70
     1
102
RTVSPropertyOp50
 70
     1
102
RTVSPropertyOp51
 70
     0
102
RTVSPropertyOp52
 70
     0
102
RTVSPropertyOp53
 70
     1
102
RTVSPropertyOp54
 70
     1
102
RTVSPropertyOp55
 70
     1
102
RTVSPropertyOp56
 70
     1
102
RTVSPropertyOp57
 70
     1
102
RTVSPropertyOp58
 70
     1
102
RTVSPropertyOp59
 70
     1
102
RTVSPropertyOp60
 70
     1
102
RTVSPropertyOp61
 70
     1
102
RTVSPropertyOp62
 70
     1
  0
XRECORD
  5
787
102
{ACAD_REACTORS
330
786
102
}
330
786
100
AcDbXrecord
280
     1
102
RTVSPost2010Prop28
280
     0
102
RTVSPost2010PropOp28
 70
     1
102
RTVSPost2010Prop29
280
     1
102
RTVSPost2010PropOp29
 70
     1
102
RTVSPost2010Prop30
280
     1
102
RTVSPost2010PropOp30
 70
     1
102
RTVSPost2010Prop31
280
     0
102
RTVSPost2010PropOp31
 70
     1
102
RTVSPost2010Prop32
280
     0
102
RTVSPost2010PropOp32
 70
     1
102
RTVSPost2010Prop33
280
     0
102
RTVSPost2010PropOp33
 70
     1
102
RTVSPost2010Prop34
280
     0
102
RTVSPost2010PropOp34
 70
     1
102
RTVSPost2010Prop35
280
     0
102
RTVSPost2010PropOp35
 70
     1
102
RTVSPost2010Prop36
280
     0
102
RTVSPost2010PropOp36
 70
     1
102
RTVSPost2010Prop37
 90
       50
102
RTVSPost2010PropOp37
 70
     1
102
RTVSPost2010Prop38
140
0.0
102
RTVSPost2010PropOp38
 70
     1
102
RTVSPost2010Prop39
140
1.0
102
RTVSPost2010PropOp39
 70
     1
102
RTVSPost2010Prop40
 90
        0
102
RTVSPost2010PropOp40
 70
     1
102
RTVSPost2010Prop41ColorIndex
 90
       18
102
RTVSPost2010Prop41ColorRGB
 90
        0
102
RTVSPost2010PropOp41
 70
     1
102
RTVSPost2010Prop42
 90
       50
102
RTVSPost2010PropOp42
 70
     1
102
RTVSPost2010Prop43
 90
        3
102
RTVSPost2010PropOp43
 70
     1
102
RTVSPost2010Prop44ColorIndex
 90
        5
102
RTVSPost2010Prop44ColorRGB
 90
      255
102
RTVSPost2010PropOp44
 70
     1
102
RTVSPost2010Prop45
280
     0
102
RTVSPost2010PropOp45
 70
     1
102
RTVSPost2010Prop46
 90
       50
102
RTVSPost2010PropOp46
 70
     1
102
RTVSPost2010Prop47
 90
       50
102
RTVSPost2010PropOp47
 70
     1
102
RTVSPost2010Prop48
 90
       50
102
RTVSPost2010PropOp48
 70
     1
102
RTVSPost2010Prop49
280
     0
102
RTVSPost2010PropOp49
 70
     1
102
RTVSPost2010Prop50
 90
       50
102
RTVSPost2010PropOp50
 70
     1
102
RTVSPost2010Prop51ColorIndex
 90
      256
102
RTVSPost2010Prop51ColorRGB
 90
-16777216
102
RTVSPost2010PropOp51
 70
     0
102
RTVSPost2010Prop52
140
1.0
102
RTVSPost2010PropOp52
 70
     0
102
RTVSPost2010Prop53
 90
        2
102
RTVSPost2010PropOp53
 70
     1
102
RTVSPost2010Prop54
  1
strokes_ogs.tif
102
RTVSPost2010PropOp54
 70
     1
102
RTVSPost2010Prop55
280
     0
102
RTVSPost2010PropOp55
 70
     1
102
RTVSPost2010Prop56
140
1.0
102
RTVSPost2010PropOp56
 70
     1
102
RTVSPost2010Prop57
140
1.0
102
RTVSPost2010PropOp57
 70
     1
102
RTVSPropertyOp0
 70
     1
102
RTVSPropertyOp1
 70
     1
102
RTVSPropertyOp2
 70
     1
102
RTVSPropertyOp3
 70
     1
102
RTVSPropertyOp4
 70
     1
102
RTVSPropertyOp5
 70
     1
102
RTVSPropertyOp6
 70
     1
102
RTVSPropertyOp7
 70
     1
102
RTVSPropertyOp8
 70
     1
102
RTVSPropertyOp9
 70
     1
102
RTVSPropertyOp10
 70
     1
102
RTVSPropertyOp11
 70
     1
102
RTVSPropertyOp12
 70
     1
102
RTVSPropertyOp13
 70
     1
102
RTVSPropertyOp14
 70
     1
102
RTVSPropertyOp15
 70
     1
102
RTVSPropertyOp16
 70
     1
102
RTVSPropertyOp17
 70
     1
102
RTVSPropertyOp18
 70
     1
102
RTVSPropertyOp19
 70
     1
102
RTVSPropertyOp20
 70
     1
102
RTVSPropertyOp21
 70
     1
102
RTVSPropertyOp22
 70
     1
102
RTVSPropertyOp23
 70
     1
102
RTVSPropertyOp24
 70
     1
102
RTVSPropertyOp25
 70
     1
102
RTVSPropertyOp26
 70
     1
102
RTVSPropertyOp27
 70
     1
102
RTVSPropertyOp28
 70
     1
102
RTVSPropertyOp29
 70
     1
102
RTVSPropertyOp30
 70
     1
102
RTVSPropertyOp31
 70
     1
102
RTVSPropertyOp32
 70
     1
102
RTVSPropertyOp33
 70
     1
102
RTVSPropertyOp34
 70
     1
102
RTVSPropertyOp35
 70
     1
102
RTVSPropertyOp36
 70
     1
102
RTVSPropertyOp37
 70
     1
102
RTVSPropertyOp38
 70
     1
102
RTVSPropertyOp39
 70
     1
102
RTVSPropertyOp40
 70
     1
102
RTVSPropertyOp41
 70
     1
102
RTVSPropertyOp42
 70
     1
102
RTVSPropertyOp43
 70
     1
102
RTVSPropertyOp44
 70
     1
102
RTVSPropertyOp45
 70
     1
102
RTVSPropertyOp46
 70
     1
102
RTVSPropertyOp47
 70
     1
102
RTVSPropertyOp48
 70
     1
102
RTVSPropertyOp49
 70
     1
102
RTVSPropertyOp50
 70
     1
102
RTVSPropertyOp51
 70
     0
102
RTVSPropertyOp52
 70
     0
102
RTVSPropertyOp53
 70
     1
102
RTVSPropertyOp54
 70
     1
102
RTVSPropertyOp55
 70
     1
102
RTVSPropertyOp56
 70
     1
102
RTVSPropertyOp57
 70
     1
102
RTVSPropertyOp58
 70
     1
102
RTVSPropertyOp59
 70
     1
102
RTVSPropertyOp60
 70
     1
102
RTVSPropertyOp61
 70
     1
102
RTVSPropertyOp62
 70
     1
  0
XRECORD
  5
77B
102
{ACAD_REACTORS
330
77A
102
}
330
77A
100
AcDbXrecord
280
     1
102
RTVSPost2010Prop28
280
     0
102
RTVSPost2010PropOp28
 70
     1
102
RTVSPost2010Prop29
280
     1
102
RTVSPost2010PropOp29
 70
     1
102
RTVSPost2010Prop30
280
     1
102
RTVSPost2010PropOp30
 70
     1
102
RTVSPost2010Prop31
280
     0
102
RTVSPost2010PropOp31
 70
     1
102
RTVSPost2010Prop32
280
     0
102
RTVSPost2010PropOp32
 70
     1
102
RTVSPost2010Prop33
280
     0
102
RTVSPost2010PropOp33
 70
     1
102
RTVSPost2010Prop34
280
     0
102
RTVSPost2010PropOp34
 70
     1
102
RTVSPost2010Prop35
280
     0
102
RTVSPost2010PropOp35
 70
     1
102
RTVSPost2010Prop36
280
     0
102
RTVSPost2010PropOp36
 70
     1
102
RTVSPost2010Prop37
 90
       50
102
RTVSPost2010PropOp37
 70
     1
102
RTVSPost2010Prop38
140
0.0
102
RTVSPost2010PropOp38
 70
     1
102
RTVSPost2010Prop39
140
1.0
102
RTVSPost2010PropOp39
 70
     1
102
RTVSPost2010Prop40
 90
        0
102
RTVSPost2010PropOp40
 70
     1
102
RTVSPost2010Prop41ColorIndex
 90
       18
102
RTVSPost2010Prop41ColorRGB
 90
        0
102
RTVSPost2010PropOp41
 70
     1
102
RTVSPost2010Prop42
 90
       50
102
RTVSPost2010PropOp42
 70
     1
102
RTVSPost2010Prop43
 90
        3
102
RTVSPost2010PropOp43
 70
     1
102
RTVSPost2010Prop44ColorIndex
 90
        5
102
RTVSPost2010Prop44ColorRGB
 90
      255
102
RTVSPost2010PropOp44
 70
     1
102
RTVSPost2010Prop45
280
     0
102
RTVSPost2010PropOp45
 70
     1
102
RTVSPost2010Prop46
 90
       50
102
RTVSPost2010PropOp46
 70
     1
102
RTVSPost2010Prop47
 90
       50
102
RTVSPost2010PropOp47
 70
     1
102
RTVSPost2010Prop48
 90
       50
102
RTVSPost2010PropOp48
 70
     1
102
RTVSPost2010Prop49
280
     0
102
RTVSPost2010PropOp49
 70
     1
102
RTVSPost2010Prop50
 90
       50
102
RTVSPost2010PropOp50
 70
     1
102
RTVSPost2010Prop51ColorIndex
 90
      256
102
RTVSPost2010Prop51ColorRGB
 90
-16777216
102
RTVSPost2010PropOp51
 70
     0
102
RTVSPost2010Prop52
140
1.0
102
RTVSPost2010PropOp52
 70
     0
102
RTVSPost2010Prop53
 90
        2
102
RTVSPost2010PropOp53
 70
     1
102
RTVSPost2010Prop54
  1
strokes_ogs.tif
102
RTVSPost2010PropOp54
 70
     1
102
RTVSPost2010Prop55
280
     0
102
RTVSPost2010PropOp55
 70
     1
102
RTVSPost2010Prop56
140
1.0
102
RTVSPost2010PropOp56
 70
     1
102
RTVSPost2010Prop57
140
1.0
102
RTVSPost2010PropOp57
 70
     1
102
RTVSPropertyOp0
 70
     1
102
RTVSPropertyOp1
 70
     1
102
RTVSPropertyOp2
 70
     1
102
RTVSPropertyOp3
 70
     1
102
RTVSPropertyOp4
 70
     1
102
RTVSPropertyOp5
 70
     1
102
RTVSPropertyOp6
 70
     1
102
RTVSPropertyOp7
 70
     1
102
RTVSPropertyOp8
 70
     1
102
RTVSPropertyOp9
 70
     1
102
RTVSPropertyOp10
 70
     1
102
RTVSPropertyOp11
 70
     1
102
RTVSPropertyOp12
 70
     1
102
RTVSPropertyOp13
 70
     1
102
RTVSPropertyOp14
 70
     1
102
RTVSPropertyOp15
 70
     1
102
RTVSPropertyOp16
 70
     1
102
RTVSPropertyOp17
 70
     1
102
RTVSPropertyOp18
 70
     1
102
RTVSPropertyOp19
 70
     1
102
RTVSPropertyOp20
 70
     1
102
RTVSPropertyOp21
 70
     1
102
RTVSPropertyOp22
 70
     1
102
RTVSPropertyOp23
 70
     1
102
RTVSPropertyOp24
 70
     1
102
RTVSPropertyOp25
 70
     1
102
RTVSPropertyOp26
 70
     1
102
RTVSPropertyOp27
 70
     1
102
RTVSPropertyOp28
 70
     1
102
RTVSPropertyOp29
 70
     1
102
RTVSPropertyOp30
 70
     1
102
RTVSPropertyOp31
 70
     1
102
RTVSPropertyOp32
 70
     1
102
RTVSPropertyOp33
 70
     1
102
RTVSPropertyOp34
 70
     1
102
RTVSPropertyOp35
 70
     1
102
RTVSPropertyOp36
 70
     1
102
RTVSPropertyOp37
 70
     1
102
RTVSPropertyOp38
 70
     1
102
RTVSPropertyOp39
 70
     1
102
RTVSPropertyOp40
 70
     1
102
RTVSPropertyOp41
 70
     1
102
RTVSPropertyOp42
 70
     1
102
RTVSPropertyOp43
 70
     1
102
RTVSPropertyOp44
 70
     1
102
RTVSPropertyOp45
 70
     1
102
RTVSPropertyOp46
 70
     1
102
RTVSPropertyOp47
 70
     1
102
RTVSPropertyOp48
 70
     1
102
RTVSPropertyOp49
 70
     1
102
RTVSPropertyOp50
 70
     1
102
RTVSPropertyOp51
 70
     0
102
RTVSPropertyOp52
 70
     0
102
RTVSPropertyOp53
 70
     1
102
RTVSPropertyOp54
 70
     1
102
RTVSPropertyOp55
 70
     1
102
RTVSPropertyOp56
 70
     1
102
RTVSPropertyOp57
 70
     1
102
RTVSPropertyOp58
 70
     1
102
RTVSPropertyOp59
 70
     1
102
RTVSPropertyOp60
 70
     1
102
RTVSPropertyOp61
 70
     1
102
RTVSPropertyOp62
 70
     1
  0
XRECORD
  5
793
102
{ACAD_REACTORS
330
792
102
}
330
792
100
AcDbXrecord
280
     1
102
RTVSPost2010Prop28
280
     0
102
RTVSPost2010PropOp28
 70
     1
102
RTVSPost2010Prop29
280
     1
102
RTVSPost2010PropOp29
 70
     1
102
RTVSPost2010Prop30
280
     1
102
RTVSPost2010PropOp30
 70
     1
102
RTVSPost2010Prop31
280
     0
102
RTVSPost2010PropOp31
 70
     1
102
RTVSPost2010Prop32
280
     0
102
RTVSPost2010PropOp32
 70
     1
102
RTVSPost2010Prop33
280
     0
102
RTVSPost2010PropOp33
 70
     1
102
RTVSPost2010Prop34
280
     0
102
RTVSPost2010PropOp34
 70
     1
102
RTVSPost2010Prop35
280
     0
102
RTVSPost2010PropOp35
 70
     1
102
RTVSPost2010Prop36
280
     0
102
RTVSPost2010PropOp36
 70
     1
102
RTVSPost2010Prop37
 90
       50
102
RTVSPost2010PropOp37
 70
     1
102
RTVSPost2010Prop38
140
0.0
102
RTVSPost2010PropOp38
 70
     1
102
RTVSPost2010Prop39
140
1.0
102
RTVSPost2010PropOp39
 70
     1
102
RTVSPost2010Prop40
 90
        0
102
RTVSPost2010PropOp40
 70
     1
102
RTVSPost2010Prop41ColorIndex
 90
       18
102
RTVSPost2010Prop41ColorRGB
 90
        0
102
RTVSPost2010PropOp41
 70
     1
102
RTVSPost2010Prop42
 90
       50
102
RTVSPost2010PropOp42
 70
     1
102
RTVSPost2010Prop43
 90
        3
102
RTVSPost2010PropOp43
 70
     1
102
RTVSPost2010Prop44ColorIndex
 90
        5
102
RTVSPost2010Prop44ColorRGB
 90
      255
102
RTVSPost2010PropOp44
 70
     1
102
RTVSPost2010Prop45
280
     0
102
RTVSPost2010PropOp45
 70
     1
102
RTVSPost2010Prop46
 90
       50
102
RTVSPost2010PropOp46
 70
     1
102
RTVSPost2010Prop47
 90
       50
102
RTVSPost2010PropOp47
 70
     1
102
RTVSPost2010Prop48
 90
       50
102
RTVSPost2010PropOp48
 70
     1
102
RTVSPost2010Prop49
280
     0
102
RTVSPost2010PropOp49
 70
     1
102
RTVSPost2010Prop50
 90
       50
102
RTVSPost2010PropOp50
 70
     1
102
RTVSPost2010Prop51ColorIndex
 90
      256
102
RTVSPost2010Prop51ColorRGB
 90
-16777216
102
RTVSPost2010PropOp51
 70
     0
102
RTVSPost2010Prop52
140
1.0
102
RTVSPost2010PropOp52
 70
     0
102
RTVSPost2010Prop53
 90
        2
102
RTVSPost2010PropOp53
 70
     1
102
RTVSPost2010Prop54
  1
strokes_ogs.tif
102
RTVSPost2010PropOp54
 70
     1
102
RTVSPost2010Prop55
280
     0
102
RTVSPost2010PropOp55
 70
     1
102
RTVSPost2010Prop56
140
1.0
102
RTVSPost2010PropOp56
 70
     1
102
RTVSPost2010Prop57
140
1.0
102
RTVSPost2010PropOp57
 70
     1
102
RTVSPropertyOp0
 70
     1
102
RTVSPropertyOp1
 70
     1
102
RTVSPropertyOp2
 70
     1
102
RTVSPropertyOp3
 70
     1
102
RTVSPropertyOp4
 70
     1
102
RTVSPropertyOp5
 70
     1
102
RTVSPropertyOp6
 70
     1
102
RTVSPropertyOp7
 70
     1
102
RTVSPropertyOp8
 70
     1
102
RTVSPropertyOp9
 70
     1
102
RTVSPropertyOp10
 70
     1
102
RTVSPropertyOp11
 70
     1
102
RTVSPropertyOp12
 70
     1
102
RTVSPropertyOp13
 70
     1
102
RTVSPropertyOp14
 70
     1
102
RTVSPropertyOp15
 70
     1
102
RTVSPropertyOp16
 70
     1
102
RTVSPropertyOp17
 70
     1
102
RTVSPropertyOp18
 70
     1
102
RTVSPropertyOp19
 70
     1
102
RTVSPropertyOp20
 70
     1
102
RTVSPropertyOp21
 70
     1
102
RTVSPropertyOp22
 70
     1
102
RTVSPropertyOp23
 70
     1
102
RTVSPropertyOp24
 70
     1
102
RTVSPropertyOp25
 70
     1
102
RTVSPropertyOp26
 70
     1
102
RTVSPropertyOp27
 70
     1
102
RTVSPropertyOp28
 70
     1
102
RTVSPropertyOp29
 70
     1
102
RTVSPropertyOp30
 70
     1
102
RTVSPropertyOp31
 70
     1
102
RTVSPropertyOp32
 70
     1
102
RTVSPropertyOp33
 70
     1
102
RTVSPropertyOp34
 70
     1
102
RTVSPropertyOp35
 70
     1
102
RTVSPropertyOp36
 70
     1
102
RTVSPropertyOp37
 70
     1
102
RTVSPropertyOp38
 70
     1
102
RTVSPropertyOp39
 70
     1
102
RTVSPropertyOp40
 70
     1
102
RTVSPropertyOp41
 70
     1
102
RTVSPropertyOp42
 70
     1
102
RTVSPropertyOp43
 70
     1
102
RTVSPropertyOp44
 70
     1
102
RTVSPropertyOp45
 70
     1
102
RTVSPropertyOp46
 70
     1
102
RTVSPropertyOp47
 70
     1
102
RTVSPropertyOp48
 70
     1
102
RTVSPropertyOp49
 70
     1
102
RTVSPropertyOp50
 70
     1
102
RTVSPropertyOp51
 70
     0
102
RTVSPropertyOp52
 70
     0
102
RTVSPropertyOp53
 70
     1
102
RTVSPropertyOp54
 70
     1
102
RTVSPropertyOp55
 70
     1
102
RTVSPropertyOp56
 70
     1
102
RTVSPropertyOp57
 70
     1
102
RTVSPropertyOp58
 70
     1
102
RTVSPropertyOp59
 70
     1
102
RTVSPropertyOp60
 70
     1
102
RTVSPropertyOp61
 70
     1
102
RTVSPropertyOp62
 70
     1
  0
ENDSEC
  0
EOF
